  0
SECTION
  2
HEADER
  9
$ACADVER
  1
AC1015
  9
$ACADMAINTVER
 70
     6
  9
$DWGCODEPAGE
  3
ANSI_1252
  9
$INSBASE
 10
0.0
 20
0.0
 30
0.0
  9
$EXTMIN
 10
-10.50045589692809
 20
-0.0289214990191553
 30
-0.0000000000022887
  9
$EXTMAX
 10
10.50103469147298
 20
19.60629674186622
 30
0.0000000000000001
  9
$LIMMIN
 10
0.0
 20
0.0
  9
$LIMMAX
 10
24.0
 20
31.5
  9
$ORTHOMODE
 70
     1
  9
$REGENMODE
 70
     1
  9
$FILLMODE
 70
     1
  9
$QTEXTMODE
 70
     0
  9
$MIRRTEXT
 70
     0
  9
$LTSCALE
 40
0.6
  9
$ATTMODE
 70
     1
  9
$TEXTSIZE
 40
0.27
  9
$TRACEWID
 40
0.05
  9
$TEXTSTYLE
  7
STANDARD
  9
$CLAYER
  8
0
  9
$CELTYPE
  6
HIDDEN
  9
$CECOLOR
 62
   256
  9
$CELTSCALE
 40
1.0
  9
$DISPSILH
 70
     0
  9
$DIMSCALE
 40
3.0
  9
$DIMASZ
 40
0.125
  9
$DIMEXO
 40
0.062
  9
$DIMDLI
 40
0.375
  9
$DIMRND
 40
0.0
  9
$DIMDLE
 40
0.0
  9
$DIMEXE
 40
0.08
  9
$DIMTP
 40
0.0
  9
$DIMTM
 40
0.0
  9
$DIMTXT
 40
0.09
  9
$DIMCEN
 40
-0.03125
  9
$DIMTSZ
 40
0.0
  9
$DIMTOL
 70
     0
  9
$DIMLIM
 70
     0
  9
$DIMTIH
 70
     1
  9
$DIMTOH
 70
     1
  9
$DIMSE1
 70
     0
  9
$DIMSE2
 70
     0
  9
$DIMTAD
 70
     0
  9
$DIMZIN
 70
     0
  9
$DIMBLK
  1

  9
$DIMASO
 70
     1
  9
$DIMSHO
 70
     0
  9
$DIMPOST
  1

  9
$DIMAPOST
  1

  9
$DIMALT
 70
     0
  9
$DIMALTD
 70
     2
  9
$DIMALTF
 40
25.4
  9
$DIMLFAC
 40
1.0
  9
$DIMTOFL
 70
     0
  9
$DIMTVP
 40
0.0
  9
$DIMTIX
 70
     0
  9
$DIMSOXD
 70
     0
  9
$DIMSAH
 70
     0
  9
$DIMBLK1
  1

  9
$DIMBLK2
  1

  9
$DIMSTYLE
  2
STANDARD
  9
$DIMCLRD
 70
     0
  9
$DIMCLRE
 70
     0
  9
$DIMCLRT
 70
     0
  9
$DIMTFAC
 40
1.0
  9
$DIMGAP
 40
0.09
  9
$DIMJUST
 70
     0
  9
$DIMSD1
 70
     0
  9
$DIMSD2
 70
     0
  9
$DIMTOLJ
 70
     1
  9
$DIMTZIN
 70
     0
  9
$DIMALTZ
 70
     0
  9
$DIMALTTZ
 70
     0
  9
$DIMUPT
 70
     0
  9
$DIMDEC
 70
     5
  9
$DIMTDEC
 70
     4
  9
$DIMALTU
 70
     2
  9
$DIMALTTD
 70
     2
  9
$DIMTXSTY
  7
STANDARD
  9
$DIMAUNIT
 70
     0
  9
$DIMADEC
 70
     0
  9
$DIMALTRND
 40
0.0
  9
$DIMAZIN
 70
     0
  9
$DIMDSEP
 70
    46
  9
$DIMATFIT
 70
     3
  9
$DIMFRAC
 70
     2
  9
$DIMLDRBLK
  1

  9
$DIMLUNIT
 70
     5
  9
$DIMLWD
 70
    -2
  9
$DIMLWE
 70
    -2
  9
$DIMTMOVE
 70
     2
  9
$LUNITS
 70
     2
  9
$LUPREC
 70
     4
  9
$SKETCHINC
 40
0.1
  9
$FILLETRAD
 40
0.0
  9
$AUNITS
 70
     0
  9
$AUPREC
 70
     0
  9
$MENU
  1
ACAD
  9
$ELEVATION
 40
0.0
  9
$PELEVATION
 40
0.0
  9
$THICKNESS
 40
0.0
  9
$LIMCHECK
 70
     0
  9
$CHAMFERA
 40
0.0
  9
$CHAMFERB
 40
0.0
  9
$CHAMFERC
 40
0.0
  9
$CHAMFERD
 40
0.0
  9
$SKPOLY
 70
     0
  9
$TDCREATE
 40
2449436.829454167
  9
$TDUCREATE
 40
2449437.1627875
  9
$TDUPDATE
 40
2454166.950297697
  9
$TDUUPDATE
 40
2454167.28363103
  9
$TDINDWG
 40
0.6330489815
  9
$TDUSRTIMER
 40
0.6330489815
  9
$USRTIMER
 70
     1
  9
$ANGBASE
 50
0.0
  9
$ANGDIR
 70
     0
  9
$PDMODE
 70
     0
  9
$PDSIZE
 40
0.0
  9
$PLINEWID
 40
0.0
  9
$SPLFRAME
 70
     0
  9
$SPLINETYPE
 70
     6
  9
$SPLINESEGS
 70
     8
  9
$HANDSEED
  5
3C1
  9
$SURFTAB1
 70
     6
  9
$SURFTAB2
 70
     6
  9
$SURFTYPE
 70
     6
  9
$SURFU
 70
     6
  9
$SURFV
 70
     6
  9
$UCSBASE
  2

  9
$UCSNAME
  2

  9
$UCSORG
 10
0.0
 20
0.0
 30
0.0
  9
$UCSXDIR
 10
1.0
 20
0.0
 30
0.0
  9
$UCSYDIR
 10
0.0
 20
1.0
 30
0.0
  9
$UCSORTHOREF
  2

  9
$UCSORTHOVIEW
 70
     0
  9
$UCSORGTOP
 10
0.0
 20
0.0
 30
0.0
  9
$UCSORGBOTTOM
 10
0.0
 20
0.0
 30
0.0
  9
$UCSORGLEFT
 10
0.0
 20
0.0
 30
0.0
  9
$UCSORGRIGHT
 10
0.0
 20
0.0
 30
0.0
  9
$UCSORGFRONT
 10
0.0
 20
0.0
 30
0.0
  9
$UCSORGBACK
 10
0.0
 20
0.0
 30
0.0
  9
$PUCSBASE
  2

  9
$PUCSNAME
  2

  9
$PUCSORG
 10
0.0
 20
0.0
 30
0.0
  9
$PUCSXDIR
 10
1.0
 20
0.0
 30
0.0
  9
$PUCSYDIR
 10
0.0
 20
1.0
 30
0.0
  9
$PUCSORTHOREF
  2

  9
$PUCSORTHOVIEW
 70
     0
  9
$PUCSORGTOP
 10
0.0
 20
0.0
 30
0.0
  9
$PUCSORGBOTTOM
 10
0.0
 20
0.0
 30
0.0
  9
$PUCSORGLEFT
 10
0.0
 20
0.0
 30
0.0
  9
$PUCSORGRIGHT
 10
0.0
 20
0.0
 30
0.0
  9
$PUCSORGFRONT
 10
0.0
 20
0.0
 30
0.0
  9
$PUCSORGBACK
 10
0.0
 20
0.0
 30
0.0
  9
$USERI1
 70
     0
  9
$USERI2
 70
     0
  9
$USERI3
 70
     0
  9
$USERI4
 70
     0
  9
$USERI5
 70
     0
  9
$USERR1
 40
0.0
  9
$USERR2
 40
0.0
  9
$USERR3
 40
0.0
  9
$USERR4
 40
0.0
  9
$USERR5
 40
0.0
  9
$WORLDVIEW
 70
     1
  9
$SHADEDGE
 70
     3
  9
$SHADEDIF
 70
    70
  9
$TILEMODE
 70
     1
  9
$MAXACTVP
 70
    16
  9
$PINSBASE
 10
0.0
 20
0.0
 30
0.0
  9
$PLIMCHECK
 70
     0
  9
$PEXTMIN
 10
1.000000000000000E+20
 20
1.000000000000000E+20
 30
1.000000000000000E+20
  9
$PEXTMAX
 10
-1.000000000000000E+20
 20
-1.000000000000000E+20
 30
-1.000000000000000E+20
  9
$PLIMMIN
 10
0.0
 20
0.0
  9
$PLIMMAX
 10
12.0
 20
9.0
  9
$UNITMODE
 70
     0
  9
$VISRETAIN
 70
     0
  9
$PLINEGEN
 70
     0
  9
$PSLTSCALE
 70
     0
  9
$TREEDEPTH
 70
  3020
  9
$CMLSTYLE
  2
STANDARD
  9
$CMLJUST
 70
     0
  9
$CMLSCALE
 40
1.0
  9
$PROXYGRAPHICS
 70
     1
  9
$MEASUREMENT
 70
     0
  9
$CELWEIGHT
370
    -1
  9
$ENDCAPS
280
     0
  9
$JOINSTYLE
280
     0
  9
$LWDISPLAY
290
     0
  9
$INSUNITS
 70
     0
  9
$HYPERLINKBASE
  1

  9
$STYLESHEET
  1

  9
$XEDIT
290
     1
  9
$CEPSNTYPE
380
     0
  9
$PSTYLEMODE
290
     1
  9
$FINGERPRINTGUID
  2
{7E1BADD1-439C-11D5-BE3F-00508B5FCD51}
  9
$VERSIONGUID
  2
{1F00645D-2E68-4AE6-99C7-8CE28BDE2514}
  9
$EXTNAMES
290
     1
  9
$PSVPSCALE
 40
0.0
  9
$OLESTARTUP
290
     0
  0
ENDSEC
  0
SECTION
  2
CLASSES
  0
CLASS
  1
DICTIONARYVAR
  2
AcDbDictionaryVar
  3
AutoCAD 2000
 90
        0
280
     0
281
     0
  0
CLASS
  1
LWPOLYLINE
  2
AcDbPolyline
  3
AutoCAD 2000
 90
        0
280
     0
281
     1
  0
CLASS
  1
ACDBDICTIONARYWDFLT
  2
AcDbDictionaryWithDefault
  3
AutoCAD 2000
 90
        0
280
     0
281
     0
  0
CLASS
  1
ACDBPLACEHOLDER
  2
AcDbPlaceHolder
  3
ObjectDBX Classes
 90
        0
280
     0
281
     0
  0
CLASS
  1
LAYOUT
  2
AcDbLayout
  3
ObjectDBX Classes
 90
        0
280
     0
281
     0
  0
CLASS
  1
LONG_TRANSACTION
  2
AcDbLongTransaction
  3
ObjectDBX Classes
 90
   -65536
280
     1
281
     0
  0
CLASS
  1
LWPOLYLINE
  2
AcDbPolyline
  3
AutoCAD 2000
 90
        0
280
     0
281
     1
  0
CLASS
  1
HATCH
  2
AcDbHatch
  3
AutoCAD 2000
 90
        0
280
     0
281
     1
  0
CLASS
  1
XRECORD
  2
AcDbXrecord
  3
AutoCAD 2000
 90
        0
280
     0
281
     0
  0
CLASS
  1
LONG_TRANSACTION
  2
AcDbLongTransaction
  3
ObjectDBX Classes
 90
   -65536
280
     1
281
     0
  0
CLASS
  1
LWPOLYLINE
  2
AcDbPolyline
  3
AutoCAD 2000
 90
        0
280
     0
281
     1
  0
CLASS
  1
HATCH
  2
AcDbHatch
  3
AutoCAD 2000
 90
        0
280
     0
281
     1
  0
CLASS
  1
XRECORD
  2
AcDbXrecord
  3
AutoCAD 2000
 90
        0
280
     0
281
     0
  0
CLASS
  1
LONG_TRANSACTION
  2
AcDbLongTransaction
  3
ObjectDBX Classes
 90
   -65536
280
     1
281
     0
  0
CLASS
  1
LWPOLYLINE
  2
AcDbPolyline
  3
AutoCAD 2000
 90
        0
280
     0
281
     1
  0
CLASS
  1
HATCH
  2
AcDbHatch
  3
AutoCAD 2000
 90
        0
280
     0
281
     1
  0
CLASS
  1
XRECORD
  2
AcDbXrecord
  3
AutoCAD 2000
 90
        0
280
     0
281
     0
  0
CLASS
  1
LONG_TRANSACTION
  2
AcDbLongTransaction
  3
ObjectDBX Classes
 90
   -65536
280
     1
281
     0
  0
CLASS
  1
LWPOLYLINE
  2
AcDbPolyline
  3
AutoCAD 2000
 90
        0
280
     0
281
     1
  0
CLASS
  1
HATCH
  2
AcDbHatch
  3
AutoCAD 2000
 90
        0
280
     0
281
     1
  0
CLASS
  1
XRECORD
  2
AcDbXrecord
  3
AutoCAD 2000
 90
        0
280
     0
281
     0
  0
CLASS
  1
LONG_TRANSACTION
  2
AcDbLongTransaction
  3
ObjectDBX Classes
 90
   -65536
280
     1
281
     0
  0
CLASS
  1
LWPOLYLINE
  2
AcDbPolyline
  3
AutoCAD 2000
 90
        0
280
     0
281
     1
  0
CLASS
  1
HATCH
  2
AcDbHatch
  3
AutoCAD 2000
 90
        0
280
     0
281
     1
  0
CLASS
  1
XRECORD
  2
AcDbXrecord
  3
AutoCAD 2000
 90
        0
280
     0
281
     0
  0
CLASS
  1
LONG_TRANSACTION
  2
AcDbLongTransaction
  3
ObjectDBX Classes
 90
   -65536
280
     1
281
     0
  0
CLASS
  1
LWPOLYLINE
  2
AcDbPolyline
  3
AutoCAD 2000
 90
        0
280
     0
281
     1
  0
CLASS
  1
HATCH
  2
AcDbHatch
  3
AutoCAD 2000
 90
        0
280
     0
281
     1
  0
CLASS
  1
XRECORD
  2
AcDbXrecord
  3
AutoCAD 2000
 90
        0
280
     0
281
     0
  0
CLASS
  1
LONG_TRANSACTION
  2
AcDbLongTransaction
  3
ObjectDBX Classes
 90
   -65536
280
     1
281
     0
  0
CLASS
  1
LWPOLYLINE
  2
AcDbPolyline
  3
AutoCAD 2000
 90
        0
280
     0
281
     1
  0
CLASS
  1
HATCH
  2
AcDbHatch
  3
AutoCAD 2000
 90
        0
280
     0
281
     1
  0
CLASS
  1
XRECORD
  2
AcDbXrecord
  3
AutoCAD 2000
 90
        0
280
     0
281
     0
  0
CLASS
  1
LONG_TRANSACTION
  2
AcDbLongTransaction
  3
ObjectDBX Classes
 90
   -65536
280
     1
281
     0
  0
CLASS
  1
LWPOLYLINE
  2
AcDbPolyline
  3
AutoCAD 2000
 90
        0
280
     0
281
     1
  0
CLASS
  1
HATCH
  2
AcDbHatch
  3
AutoCAD 2000
 90
        0
280
     0
281
     1
  0
CLASS
  1
XRECORD
  2
AcDbXrecord
  3
AutoCAD 2000
 90
        0
280
     0
281
     0
  0
CLASS
  1
LONG_TRANSACTION
  2
AcDbLongTransaction
  3
ObjectDBX Classes
 90
   -65536
280
     1
281
     0
  0
CLASS
  1
LWPOLYLINE
  2
AcDbPolyline
  3
AutoCAD 2000
 90
        0
280
     0
281
     1
  0
CLASS
  1
HATCH
  2
AcDbHatch
  3
AutoCAD 2000
 90
        0
280
     0
281
     1
  0
CLASS
  1
XRECORD
  2
AcDbXrecord
  3
AutoCAD 2000
 90
        0
280
     0
281
     0
  0
CLASS
  1
LONG_TRANSACTION
  2
AcDbLongTransaction
  3
ObjectDBX Classes
 90
   -65536
280
     1
281
     0
  0
CLASS
  1
LWPOLYLINE
  2
AcDbPolyline
  3
AutoCAD 2000
 90
        0
280
     0
281
     1
  0
CLASS
  1
HATCH
  2
AcDbHatch
  3
AutoCAD 2000
 90
        0
280
     0
281
     1
  0
CLASS
  1
XRECORD
  2
AcDbXrecord
  3
AutoCAD 2000
 90
        0
280
     0
281
     0
  0
CLASS
  1
LONG_TRANSACTION
  2
AcDbLongTransaction
  3
ObjectDBX Classes
 90
   -65536
280
     1
281
     0
  0
CLASS
  1
LWPOLYLINE
  2
AcDbPolyline
  3
AutoCAD 2000
 90
        0
280
     0
281
     1
  0
CLASS
  1
HATCH
  2
AcDbHatch
  3
AutoCAD 2000
 90
        0
280
     0
281
     1
  0
CLASS
  1
XRECORD
  2
AcDbXrecord
  3
AutoCAD 2000
 90
        0
280
     0
281
     0
  0
CLASS
  1
LONG_TRANSACTION
  2
AcDbLongTransaction
  3
ObjectDBX Classes
 90
   -65536
280
     1
281
     0
  0
CLASS
  1
LWPOLYLINE
  2
AcDbPolyline
  3
AutoCAD 2000
 90
        0
280
     0
281
     1
  0
CLASS
  1
HATCH
  2
AcDbHatch
  3
AutoCAD 2000
 90
        0
280
     0
281
     1
  0
CLASS
  1
XRECORD
  2
AcDbXrecord
  3
AutoCAD 2000
 90
        0
280
     0
281
     0
  0
CLASS
  1
LONG_TRANSACTION
  2
AcDbLongTransaction
  3
ObjectDBX Classes
 90
   -65536
280
     1
281
     0
  0
CLASS
  1
LWPOLYLINE
  2
AcDbPolyline
  3
AutoCAD 2000
 90
        0
280
     0
281
     1
  0
CLASS
  1
HATCH
  2
AcDbHatch
  3
AutoCAD 2000
 90
        0
280
     0
281
     1
  0
CLASS
  1
XRECORD
  2
AcDbXrecord
  3
AutoCAD 2000
 90
        0
280
     0
281
     0
  0
CLASS
  1
LONG_TRANSACTION
  2
AcDbLongTransaction
  3
ObjectDBX Classes
 90
   -65536
280
     1
281
     0
  0
CLASS
  1
LWPOLYLINE
  2
AcDbPolyline
  3
AutoCAD 2000
 90
        0
280
     0
281
     1
  0
CLASS
  1
HATCH
  2
AcDbHatch
  3
AutoCAD 2000
 90
        0
280
     0
281
     1
  0
CLASS
  1
XRECORD
  2
AcDbXrecord
  3
AutoCAD 2000
 90
        0
280
     0
281
     0
  0
CLASS
  1
TABLESTYLE
  2
AcDbTableStyle
  3
ObjectDBX Classes
 90
     2047
280
     1
281
     0
  0
ENDSEC
  0
SECTION
  2
TABLES
  0
TABLE
  2
VPORT
  5
1D
330
0
100
AcDbSymbolTable
 70
     3
  0
VPORT
  5
3B1
330
1D
100
AcDbSymbolTableRecord
100
AcDbViewportTableRecord
  2
*Active
 70
     0
 10
0.0
 20
0.0
 11
1.0
 21
1.0
 12
6.749772150761171
 22
14.67146543864634
 13
0.0
 23
0.0
 14
0.063
 24
0.063
 15
0.25
 25
0.25
 16
0.0
 26
0.0
 36
1.0
 17
0.0
 27
0.0
 37
0.0
 40
31.92221369407977
 41
1.814583333333333
 42
50.0
 43
0.0
 44
0.0
 50
0.0
 51
0.0
 71
     0
 72
   100
 73
     1
 74
     0
 75
     0
 76
     0
 77
     0
 78
     1
281
     0
 65
     1
110
0.0
120
0.0
130
0.0
111
1.0
121
0.0
131
0.0
112
0.0
122
1.0
132
0.0
 79
     0
146
0.0
  0
ENDTAB
  0
TABLE
  2
LTYPE
  5
18
330
0
100
AcDbSymbolTable
 70
     3
  0
LTYPE
  5
19
330
18
100
AcDbSymbolTableRecord
100
AcDbLinetypeTableRecord
  2
BYBLOCK
 70
     0
  3

 72
    65
 73
     0
 40
0.0
  0
LTYPE
  5
1A
330
18
100
AcDbSymbolTableRecord
100
AcDbLinetypeTableRecord
  2
BYLAYER
 70
     0
  3

 72
    65
 73
     0
 40
0.0
  0
LTYPE
  5
A
330
18
100
AcDbSymbolTableRecord
100
AcDbLinetypeTableRecord
  2
CONTINUOUS
 70
     0
  3
Solid line
 72
    65
 73
     0
 40
0.0
  0
LTYPE
  5
39
330
18
100
AcDbSymbolTableRecord
100
AcDbLinetypeTableRecord
  2
HIDDEN2
 70
     0
  3
Hidden (.5x) _ _ _ _ _ _ _ _ _ _ _ _ _ _ _ _ _
 72
    65
 73
     2
 40
0.1875
 49
0.125
 74
     0
 49
-0.0625
 74
     0
  0
LTYPE
  5
35A
330
18
100
AcDbSymbolTableRecord
100
AcDbLinetypeTableRecord
  2
HIDDEN
 70
     0
  3
Hidden __ __ __ __ __ __ __ __ __ __ __ __ __ _
 72
    65
 73
     2
 40
0.375
 49
0.25
 74
     0
 49
-0.125
 74
     0
  0
ENDTAB
  0
TABLE
  2
LAYER
  5
14
330
0
100
AcDbSymbolTable
 70
     2
  0
LAYER
  5
6
330
14
100
AcDbSymbolTableRecord
100
AcDbLayerTableRecord
  2
0
 70
     0
 62
     7
  6
CONTINUOUS
370
    -3
390
7
  0
ENDTAB
  0
TABLE
  2
STYLE
  5
15
330
0
100
AcDbSymbolTable
 70
     1
  0
STYLE
  5
16
330
15
100
AcDbSymbolTableRecord
100
AcDbTextStyleTableRecord
  2
STANDARD
 70
     0
 40
0.0
 41
1.0
 50
0.0
 71
     0
 42
0.27
  3
TXT
  4

  0
ENDTAB
  0
TABLE
  2
VIEW
  5
1B
330
0
100
AcDbSymbolTable
 70
     0
  0
ENDTAB
  0
TABLE
  2
UCS
  5
1C
330
0
100
AcDbSymbolTable
 70
     0
  0
ENDTAB
  0
TABLE
  2
APPID
  5
1F
330
0
100
AcDbSymbolTable
 70
     2
  0
APPID
  5
20
330
1F
100
AcDbSymbolTableRecord
100
AcDbRegAppTableRecord
  2
ACAD
 70
     0
  0
APPID
  5
36
330
1F
100
AcDbSymbolTableRecord
100
AcDbRegAppTableRecord
  2
_DIE112SSJYHX
 70
     0
  0
ENDTAB
  0
TABLE
  2
DIMSTYLE
  5
21
330
0
100
AcDbSymbolTable
 70
     1
100
AcDbDimStyleTable
  0
DIMSTYLE
105
28
330
21
100
AcDbSymbolTableRecord
100
AcDbDimStyleTableRecord
  2
STANDARD
 70
     0
  3

  4

340
16
  0
ENDTAB
  0
TABLE
  2
BLOCK_RECORD
  5
1
330
0
100
AcDbSymbolTable
 70
     2
  0
BLOCK_RECORD
  5
2
330
1
100
AcDbSymbolTableRecord
100
AcDbBlockTableRecord
  2
*MODEL_SPACE
340
C
  0
BLOCK_RECORD
  5
E
330
1
100
AcDbSymbolTableRecord
100
AcDbBlockTableRecord
  2
*PAPER_SPACE
340
13
  0
ENDTAB
  0
ENDSEC
  0
SECTION
  2
BLOCKS
  0
BLOCK
  5
5
330
2
100
AcDbEntity
  8
0
100
AcDbBlockBegin
  2
*MODEL_SPACE
 70
     0
 10
0.0
 20
0.0
 30
0.0
  3
*MODEL_SPACE
  1

  4

  0
ENDBLK
  5
B
330
2
100
AcDbEntity
  8
0
100
AcDbBlockEnd
  0
BLOCK
  5
11
330
E
100
AcDbEntity
 67
     1
  8
0
100
AcDbBlockBegin
  2
*PAPER_SPACE
 70
     0
 10
0.0
 20
0.0
 30
0.0
  3
*PAPER_SPACE
  1

  4

  0
ENDBLK
  5
12
330
E
100
AcDbEntity
 67
     1
  8
0
100
AcDbBlockEnd
  0
ENDSEC
  0
SECTION
  2
ENTITIES
  0
LINE
  5
176
330
2
100
AcDbEntity
  8
0
100
AcDbLine
 10
0.8125000000000071
 20
11.10466374223516
 30
0.0
 11
0.8125000000000124
 21
0.1349999999999909
 31
0.0
  0
LINE
  5
177
330
2
100
AcDbEntity
  8
0
100
AcDbLine
 10
-0.8125000000000124
 20
0.1349999999999909
 30
0.0
 11
-0.8125
 21
11.10466374223516
 31
0.0
  0
LINE
  5
178
330
2
100
AcDbEntity
  8
0
100
AcDbLine
 10
0.8625000000000043
 20
11.09099999999997
 30
0.0
 11
0.8575000000000124
 21
0.1349999999999909
 31
0.0
  0
LINE
  5
179
330
2
100
AcDbEntity
  8
0
100
AcDbLine
 10
-0.8575000000000124
 20
0.1349999999999909
 30
0.0
 11
-0.8624999999999972
 21
11.09099999999998
 31
0.0
  0
LINE
  5
17A
330
2
100
AcDbEntity
  8
0
100
AcDbLine
 10
1.987500000000019
 20
11.34099999999998
 30
0.0
 11
1.987500000000157
 21
5.173142315092321
 31
0.0
  0
LINE
  5
17B
330
2
100
AcDbEntity
  8
0
100
AcDbLine
 10
-1.987500000000019
 20
11.34099999999998
 30
0.0
 11
-1.987500000000019
 21
5.248786682236712
 31
0.0
  0
LINE
  5
17C
330
2
100
AcDbEntity
  8
0
100
AcDbLine
 10
0.8574999999999093
 20
2.095896261652163
 30
0.0
 11
1.426199924399555
 21
2.908083925117913
 31
0.0
  0
LINE
  5
17D
330
2
100
AcDbEntity
  8
0
100
AcDbLine
 10
0.8125000000001688
 20
1.343316936683891
 30
0.0
 11
0.5838716692541635
 21
1.600360522024729
 31
0.0
  0
LINE
  5
17E
330
2
100
AcDbEntity
  8
0
100
AcDbLine
 10
-0.8125000000002256
 20
1.343316936683891
 30
0.0
 11
-0.5838716692542203
 21
1.600360522024729
 31
0.0
  0
LINE
  5
17F
330
2
100
AcDbEntity
  8
0
100
AcDbLine
 10
-0.9025000000000034
 20
0.1349999999999909
 30
0.0
 11
-0.9025000000000034
 21
2.280544494717217
 31
0.0
  0
LINE
  5
180
330
2
100
AcDbEntity
  8
0
100
AcDbLine
 10
0.9024999999999466
 20
2.280544494717217
 30
0.0
 11
0.9024999999999466
 21
0.1349999999999909
 31
0.0
  0
LINE
  5
181
330
2
100
AcDbEntity
  8
0
100
AcDbLine
 10
0.7625000000000028
 20
0.089999999999975
 30
0.0
 11
-0.7625000000000028
 21
0.089999999999975
 31
0.0
  0
LINE
  5
182
330
2
100
AcDbEntity
  8
0
100
AcDbLine
 10
0.7675000000000125
 20
0.089999999999975
 30
0.0
 11
-0.7675000000000125
 21
0.089999999999975
 31
0.0
  0
LINE
  5
183
330
2
100
AcDbEntity
  8
0
100
AcDbLine
 10
0.7675000000000125
 20
0.0450000000000159
 30
0.0
 11
-0.7675000000000125
 21
0.0450000000000159
 31
0.0
  0
LINE
  5
184
330
2
100
AcDbEntity
  8
0
100
AcDbLine
 10
0.7675000000000125
 20
0.0
 30
0.0
 11
-0.7675000000000125
 21
0.0
 31
0.0
  0
ARC
  5
185
330
2
100
AcDbEntity
  8
0
100
AcDbCircle
 10
-0.7675000000000125
 20
0.1349999999999909
 30
0.0
 40
0.045
100
AcDbArc
 50
180.0
 51
270.0
  0
ARC
  5
186
330
2
100
AcDbEntity
  8
0
100
AcDbCircle
 10
-0.7675000000000125
 20
0.1349999999999909
 30
0.0
 40
0.09
100
AcDbArc
 50
180.0
 51
270.0
  0
ARC
  5
187
330
2
100
AcDbEntity
  8
0
100
AcDbCircle
 10
-0.7675000000000125
 20
0.1349999999999909
 30
0.0
 40
0.135
100
AcDbArc
 50
180.0
 51
270.0
  0
ARC
  5
188
330
2
100
AcDbEntity
  8
0
100
AcDbCircle
 10
-0.8263421162571731
 20
1.171102700793993
 30
0.0
 40
0.2315168730279693
100
AcDbArc
 50
273.4276901945818
 51
309.4228987337907
  0
ARC
  5
189
330
2
100
AcDbEntity
  8
0
100
AcDbCircle
 10
-0.8263421162572122
 20
0.8961027007940157
 30
0.0
 40
0.2315168730281418
100
AcDbArc
 50
273.4276901945888
 51
309.422898733768
  0
LINE
  5
18A
330
2
100
AcDbEntity
  8
0
100
AcDbLine
 10
-0.7993198051492492
 20
0.9009001948424285
 30
0.0
 11
-0.6793198051493619
 21
0.7172605845762892
 31
0.0
  0
ARC
  5
18B
330
2
100
AcDbEntity
  8
0
100
AcDbCircle
 10
-0.7674999999999237
 20
0.9327200000001099
 30
0.0
 40
0.045
100
AcDbArc
 50
180.0
 51
225.0000000076272
  0
LINE
  5
18C
330
2
100
AcDbEntity
  8
0
100
AcDbLine
 10
-0.7993198051492509
 20
1.175900194842598
 30
0.0
 11
-0.6793198051493619
 21
0.9922605845764583
 31
0.0
  0
ARC
  5
18D
330
2
100
AcDbEntity
  8
0
100
AcDbCircle
 10
-0.7674999999999255
 20
1.207720000000279
 30
0.0
 40
0.045
100
AcDbArc
 50
180.0
 51
225.0000000076272
  0
LINE
  5
18E
330
2
100
AcDbEntity
  8
0
100
AcDbLine
 10
-0.0000000000000284
 20
0.1899999999992019
 30
0.0
 11
0.0541265877365902
 21
0.089999999999975
 31
0.0
  0
LINE
  5
18F
330
2
100
AcDbEntity
  8
0
100
AcDbLine
 10
-0.0000000000000284
 20
0.1899999999992019
 30
0.0
 11
0.0541265877365902
 21
0.089999999999975
 31
0.0
  0
LINE
  5
190
330
2
100
AcDbEntity
  8
0
100
AcDbLine
 10
-0.0935080210463468
 20
0.089999999999975
 30
0.0
 11
-0.0935080210458921
 21
0.1898307366423637
 31
0.0
  0
LINE
  5
191
330
2
100
AcDbEntity
  8
0
100
AcDbLine
 10
-0.0935080210458921
 20
0.1898307366423637
 30
0.0
 11
-0.0257468900589046
 21
0.1424320834995339
 31
0.0
  0
LINE
  5
192
330
2
100
AcDbEntity
  8
0
100
AcDbLine
 10
-0.0000000000000284
 20
0.1899999999992019
 30
0.0
 11
-0.054126587736647
 21
0.089999999999975
 31
0.0
  0
LINE
  5
193
330
2
100
AcDbEntity
  8
0
100
AcDbLine
 10
-0.0935080210458921
 20
0.1898307366423637
 30
0.0
 11
-0.0257468900588549
 21
0.1424320834995001
 31
0.0
  0
LINE
  5
194
330
2
100
AcDbEntity
  8
0
100
AcDbLine
 10
-0.0935080210463468
 20
0.0899999999997476
 30
0.0
 11
-0.0935080210458921
 21
0.1898307366423637
 31
0.0
  0
LINE
  5
195
330
2
100
AcDbEntity
  8
0
100
AcDbLine
 10
-0.0000000000000284
 20
0.1899999999992019
 30
0.0
 11
-0.054126587736647
 21
0.089999999999975
 31
0.0
  0
LINE
  5
196
330
2
100
AcDbEntity
  8
0
100
AcDbLine
 10
0.0935080210460626
 20
0.1898307366428185
 30
0.0
 11
0.0257468900591213
 21
0.1424320834990223
 31
0.0
  0
LINE
  5
197
330
2
100
AcDbEntity
  8
0
100
AcDbLine
 10
0.0935080210460697
 20
0.089999999999975
 30
0.0
 11
0.0935080210460626
 21
0.1898307366428185
 31
0.0
  0
LINE
  5
198
330
2
100
AcDbEntity
  8
0
100
AcDbLine
 10
0.0935080210460626
 20
0.1898307366428185
 30
0.0
 11
0.0257468900594802
 21
0.1424320834992727
 31
0.0
  0
LINE
  5
199
330
2
100
AcDbEntity
  8
0
100
AcDbLine
 10
0.0935080210460626
 20
0.089999999999975
 30
0.0
 11
0.0935080210460626
 21
0.1898307366428185
 31
0.0
  0
POINT
  5
19A
330
2
100
AcDbEntity
  8
0
  6
ByBlock
 62
     0
100
AcDbPoint
 10
0.8125000000000071
 20
0.1399999999999757
 30
0.0
  0
POINT
  5
19B
330
2
100
AcDbEntity
  8
0
  6
ByBlock
 62
     0
100
AcDbPoint
 10
0.7624999999999957
 20
0.089999999999975
 30
0.0
  0
POINT
  5
19C
330
2
100
AcDbEntity
  8
0
  6
ByBlock
 62
     0
100
AcDbPoint
 10
0.7625000000000028
 20
0.089999999999975
 30
0.0
  0
ARC
  5
19D
330
2
100
AcDbEntity
  8
0
100
AcDbCircle
 10
0.7675000000000125
 20
0.1349999999999909
 30
0.0
 40
0.045
100
AcDbArc
 50
270.0
 51
0.0
  0
ARC
  5
19E
330
2
100
AcDbEntity
  8
0
100
AcDbCircle
 10
0.7675000000000125
 20
0.1349999999999909
 30
0.0
 40
0.09
100
AcDbArc
 50
270.0
 51
0.0
  0
ARC
  5
19F
330
2
100
AcDbEntity
  8
0
100
AcDbCircle
 10
0.7675000000000125
 20
0.1349999999999909
 30
0.0
 40
0.135
100
AcDbArc
 50
270.0
 51
0.0
  0
ARC
  5
1A0
330
2
100
AcDbEntity
  8
0
100
AcDbCircle
 10
0.8263421162571163
 20
1.171102700793993
 30
0.0
 40
0.2315168730279693
100
AcDbArc
 50
230.5771012662091
 51
266.5723098054182
  0
LINE
  5
1A1
330
2
100
AcDbEntity
  8
0
100
AcDbLine
 10
0.7993198051491923
 20
0.9009001948424285
 30
0.0
 11
0.679319805149305
 21
0.7172605845762892
 31
0.0
  0
ARC
  5
1A2
330
2
100
AcDbEntity
  8
0
100
AcDbCircle
 10
0.8263421162571554
 20
0.8961027007940157
 30
0.0
 40
0.2315168730281418
100
AcDbArc
 50
230.577101266232
 51
266.5723098054112
  0
LINE
  5
1A3
330
2
100
AcDbEntity
  8
0
100
AcDbLine
 10
0.7993198051491941
 20
1.175900194842598
 30
0.0
 11
0.679319805149305
 21
0.9922605845764583
 31
0.0
  0
ARC
  5
1A4
330
2
100
AcDbEntity
  8
0
100
AcDbCircle
 10
0.7674999999998686
 20
1.207720000000279
 30
0.0
 40
0.045
100
AcDbArc
 50
314.9999999923728
 51
0.0
  0
LINE
  5
1A5
330
2
100
AcDbEntity
  8
0
100
AcDbLine
 10
-1.739965093079992
 20
4.716465093079949
 30
0.0
 11
-1.863732546540007
 21
4.84023254653996
 31
0.0
  0
ARC
  5
1A6
330
2
100
AcDbEntity
  8
0
100
AcDbCircle
 10
-2.110000000000156
 20
4.383928752719099
 30
0.0
 40
0.4975
100
AcDbArc
 50
0.0
 51
44.99999999998114
1001
_DIE112SSJYHX
1002
{
1000
comp_type
1000
DBL24
1000
material
1000
D-2
1000
thickness
1040
1.25
1000
mount
1000
SBP10
1000
mntlay
1000
DIE_SUB_PLATE
1002
}
  0
CIRCLE
  5
1A7
330
2
100
AcDbEntity
  8
0
  6
Continuous
100
AcDbCircle
 10
-1.737500000000019
 20
5.089999999999973
 30
0.0
 40
0.0855
  0
ARC
  5
1A8
330
2
100
AcDbEntity
  8
0
100
AcDbCircle
 10
-1.485000000000156
 20
5.173142315092319
 30
0.0
 40
0.5025000000000001
100
AcDbArc
 50
180.0
 51
224.999999999981
1001
_DIE112SSJYHX
1002
{
1000
comp_type
1000
DBL24
1000
material
1000
D-2
1000
thickness
1040
1.25
1000
mount
1000
SBP10
1000
mntlay
1000
DIE_SUB_PLATE
1002
}
  0
LINE
  5
1A9
330
2
100
AcDbEntity
  8
0
100
AcDbLine
 10
-1.61250000000021
 20
3.458235042593001
 30
0.0
 11
-1.612500000000157
 21
4.383928752719099
 31
0.0
  0
LINE
  5
1AA
330
2
100
AcDbEntity
  8
0
100
AcDbLine
 10
-0.8574999999999662
 20
2.095896261652163
 30
0.0
 11
-1.426199924399612
 21
2.908083925117913
 31
0.0
  0
LINE
  5
1AB
330
2
100
AcDbEntity
  8
0
100
AcDbLine
 10
-0.5838716692542203
 20
1.600360522024729
 30
0.0
 11
-0.7794698377051628
 21
2.560306871569878
 31
0.0
  0
ARC
  5
1AC
330
2
100
AcDbEntity
  8
0
100
AcDbCircle
 10
-0.8574999999997033
 20
1.696250000000077
 30
0.0
 40
0.05
100
AcDbArc
 50
90.0
 51
154.158067238145
  0
LINE
  5
1AD
330
2
100
AcDbEntity
  8
0
100
AcDbLine
 10
-0.8125
 20
2.614029400264514
 30
0.0
 11
-0.7917005594447346
 21
2.585754971612374
 31
0.0
  0
ARC
  5
1AE
330
2
100
AcDbEntity
  8
0
100
AcDbCircle
 10
-0.8531216819596921
 20
2.540571919380767
 30
0.0
 40
0.07625
100
AcDbArc
 50
15.00000000003474
 51
36.3392133744043
  0
ARC
  5
1AF
330
2
100
AcDbEntity
  8
0
100
AcDbCircle
 10
-0.8574999999997033
 20
2.258750000000076
 30
0.0
 40
0.05
100
AcDbArc
 50
90.0
 51
154.158067238145
  0
ARC
  5
1B0
330
2
100
AcDbEntity
  8
0
100
AcDbCircle
 10
-0.6100000000000065
 20
3.49023504259331
 30
0.0
 40
1.002500000000003
100
AcDbArc
 50
180.0
 51
214.9999999999976
1001
_DIE112SSJYHX
1002
{
1000
comp_type
1000
DBL24
1000
material
1000
D-2
1000
thickness
1040
1.25
1000
mount
1000
SBP10
1000
mntlay
1000
DIE_SUB_PLATE
1002
}
  0
LINE
  5
1B1
330
2
100
AcDbEntity
  8
0
100
AcDbLine
 10
0.5838716692541635
 20
1.600360522024729
 30
0.0
 11
0.7794698377051059
 21
2.560306871569878
 31
0.0
  0
ARC
  5
1B2
330
2
100
AcDbEntity
  8
0
100
AcDbCircle
 10
0.8574999999994475
 20
1.696250000000489
 30
0.0
 40
0.05
100
AcDbArc
 50
25.84193276185503
 51
90.0
  0
LINE
  5
1B3
330
2
100
AcDbEntity
  8
0
100
AcDbLine
 10
0.8124999999999432
 20
2.614029400264514
 30
0.0
 11
0.7917005594446778
 21
2.585754971612374
 31
0.0
  0
ARC
  5
1B4
330
2
100
AcDbEntity
  8
0
100
AcDbCircle
 10
0.8531216819596352
 20
2.540571919380767
 30
0.0
 40
0.07625
100
AcDbArc
 50
143.6607866255957
 51
164.9999999999652
  0
ARC
  5
1B5
330
2
100
AcDbEntity
  8
0
100
AcDbCircle
 10
0.8574999999996464
 20
2.258750000000076
 30
0.0
 40
0.05
100
AcDbArc
 50
25.84193276185503
 51
90.0
  0
LINE
  5
1B6
330
2
100
AcDbEntity
  8
0
100
AcDbLine
 10
-0.8624999999999972
 20
5.246506350946083
 30
0.0
 11
-0.8125
 21
5.246506350946083
 31
0.0
  0
LINE
  5
1B7
330
2
100
AcDbEntity
  8
0
100
AcDbLine
 10
-0.8624999999999972
 20
5.029999999999975
 30
0.0
 11
-0.8125
 21
5.029999999999975
 31
0.0
  0
LINE
  5
1B8
330
2
100
AcDbEntity
  8
0
100
AcDbLine
 10
0.8125000000000071
 20
5.246506350946083
 30
0.0
 11
0.8625000000000114
 21
5.246506350946083
 31
0.0
  0
LINE
  5
1B9
330
2
100
AcDbEntity
  8
0
100
AcDbLine
 10
0.8125000000000071
 20
5.029999999999975
 30
0.0
 11
0.8625000000000114
 21
5.029999999999975
 31
0.0
  0
LINE
  5
1BA
330
2
100
AcDbEntity
  8
0
100
AcDbLine
 10
1.612500000000036
 20
3.458235042592873
 30
0.0
 11
1.612500000000154
 21
4.383928752719099
 31
0.0
  0
ARC
  5
1BB
330
2
100
AcDbEntity
  8
0
100
AcDbCircle
 10
0.6099999999999426
 20
3.49023504259331
 30
0.0
 40
1.002500000000009
100
AcDbArc
 50
325.0000000000027
 51
0.0
1001
_DIE112SSJYHX
1002
{
1000
comp_type
1000
DBL24
1000
material
1000
D-2
1000
thickness
1040
1.25
1000
mount
1000
SBP10
1000
mntlay
1000
DIE_SUB_PLATE
1002
}
  0
ARC
  5
1BC
330
2
100
AcDbEntity
  8
0
100
AcDbCircle
 10
2.110000000000156
 20
4.383928752719099
 30
0.0
 40
0.4975
100
AcDbArc
 50
135.0000000000188
 51
180.0
1001
_DIE112SSJYHX
1002
{
1000
comp_type
1000
DBL24
1000
material
1000
D-2
1000
thickness
1040
1.25
1000
mount
1000
SBP10
1000
mntlay
1000
DIE_SUB_PLATE
1002
}
  0
CIRCLE
  5
1BD
330
2
100
AcDbEntity
  8
0
  6
Continuous
100
AcDbCircle
 10
1.737500000000019
 20
5.089999999999973
 30
0.0
 40
0.0855
  0
LINE
  5
1BE
330
2
100
AcDbEntity
  8
0
100
AcDbLine
 10
1.758214376359732
 20
4.735714376359292
 30
0.0
 11
1.840321157546477
 21
4.817821157546243
 31
0.0
  0
ARC
  5
1BF
330
2
100
AcDbEntity
  8
0
100
AcDbCircle
 10
1.485000000000149
 20
5.173142315092322
 30
0.0
 40
0.5025000000000081
100
AcDbArc
 50
315.0000000000194
 51
359.9999999999998
1001
_DIE112SSJYHX
1002
{
1000
comp_type
1000
DBL24
1000
material
1000
D-2
1000
thickness
1040
1.25
1000
mount
1000
SBP10
1000
mntlay
1000
DIE_SUB_PLATE
1002
}
  0
LINE
  5
1C0
330
2
100
AcDbEntity
  8
0
100
AcDbLine
 10
0.8625000000000114
 20
11.59099999999998
 30
0.0
 11
1.112500000000011
 21
11.59099999999998
 31
0.0
  0
LINE
  5
1C1
330
2
100
AcDbEntity
  8
0
100
AcDbLine
 10
0.8125000000000071
 20
11.10466374223516
 30
0.0
 11
1.069864720043661
 21
11.52519722692674
 31
0.0
  0
LINE
  5
1C2
330
2
100
AcDbEntity
  8
0
100
AcDbLine
 10
0.8625000000000114
 20
11.09099999999998
 30
0.0
 11
1.112500000000011
 21
11.49907763843374
 31
0.0
  0
LINE
  5
1C3
330
2
100
AcDbEntity
  8
0
100
AcDbLine
 10
-0.8624999999999972
 20
11.09099999999998
 30
0.0
 11
-1.112499999999997
 21
11.49907763843374
 31
0.0
  0
LINE
  5
1C4
330
2
100
AcDbEntity
  8
0
100
AcDbLine
 10
-0.8125
 20
11.10466374223516
 30
0.0
 11
-1.069864720043654
 21
11.52519722692674
 31
0.0
  0
LINE
  5
1C5
330
2
100
AcDbEntity
  8
0
100
AcDbLine
 10
-0.8624999999999972
 20
11.23903399102906
 30
0.0
 11
-0.8624999999999972
 21
11.59099999999998
 31
0.0
  0
LINE
  5
1C6
330
2
100
AcDbEntity
  8
0
100
AcDbLine
 10
0.8625000000000114
 20
11.23903399102906
 30
0.0
 11
0.8625000000000114
 21
11.59099999999998
 31
0.0
  0
LINE
  5
1C7
330
2
100
AcDbEntity
  8
0
100
AcDbLine
 10
-1.987500000000019
 20
11.34099999999998
 30
0.0
 11
-1.737500000000019
 21
11.59099999999998
 31
0.0
  0
CIRCLE
  5
1C8
330
2
100
AcDbEntity
  8
0
  6
Continuous
100
AcDbCircle
 10
-1.737500000000019
 20
10.84099999999997
 30
0.0
 40
0.0855
  0
CIRCLE
  5
1C9
330
2
100
AcDbEntity
  8
0
  6
Continuous
100
AcDbCircle
 10
-1.737500000000019
 20
9.715999999999976
 30
0.0
 40
0.0855
  0
CIRCLE
  5
1CA
330
2
100
AcDbEntity
  8
0
  6
Continuous
100
AcDbCircle
 10
-1.737500000000019
 20
7.403499999999976
 30
0.0
 40
0.0855
  0
CIRCLE
  5
1CB
330
2
100
AcDbEntity
  8
0
  6
Continuous
100
AcDbCircle
 10
-1.476746538668365
 20
8.424071796640089
 30
0.0
 40
0.0855
  0
LINE
  5
1CC
330
2
100
AcDbEntity
  8
0
100
AcDbLine
 10
-1.187250000000169
 20
9.898388347647963
 30
0.0
 11
-1.187250000000162
 21
10.65349999999998
 31
0.0
  0
LINE
  5
1CD
330
2
100
AcDbEntity
  8
0
100
AcDbLine
 10
-1.375250000000165
 20
10.65349999999998
 30
0.0
 11
-1.375250000000165
 21
9.898388347648297
 31
0.0
  0
LINE
  5
1CE
330
2
100
AcDbEntity
  8
0
100
AcDbLine
 10
-1.281249999999837
 20
9.778499999999976
 30
0.0
 11
-1.20555582617601
 21
9.854194173823803
 31
0.0
  0
LINE
  5
1CF
330
2
100
AcDbEntity
  8
0
100
AcDbLine
 10
-1.281250000000163
 20
9.778499999999976
 30
0.0
 11
-1.356944173824324
 21
9.854194173824137
 31
0.0
  0
ARC
  5
1D0
330
2
100
AcDbEntity
  8
0
100
AcDbCircle
 10
-1.312750000000172
 20
9.898388347648297
 30
0.0
 40
0.0625
100
AcDbArc
 50
180.0
 51
224.9999999999999
  0
ARC
  5
1D1
330
2
100
AcDbEntity
  8
0
100
AcDbCircle
 10
-1.249750000000169
 20
9.898388347647963
 30
0.0
 40
0.0625
100
AcDbArc
 50
314.9999999999995
 51
359.9999999999998
  0
ARC
  5
1D2
330
2
100
AcDbEntity
  8
0
100
AcDbCircle
 10
-0.8124999999999929
 20
11.09099999999998
 30
0.0
 40
0.15625
100
AcDbArc
 50
137.3276934388401
 51
251.3370751150561
  0
ARC
  5
1D3
330
2
100
AcDbEntity
  8
0
100
AcDbCircle
 10
-0.8124999999999929
 20
11.09099999999998
 30
0.0
 40
0.15625
100
AcDbArc
 50
108.6629248849441
 51
118.8501228964894
  0
ARC
  5
1D4
330
2
100
AcDbEntity
  8
0
100
AcDbCircle
 10
0.8125000000000071
 20
11.09099999999998
 30
0.0
 40
0.15625
100
AcDbArc
 50
61.14987710351321
 51
71.33707511505588
  0
ARC
  5
1D5
330
2
100
AcDbEntity
  8
0
100
AcDbCircle
 10
0.8125000000000071
 20
11.09099999999998
 30
0.0
 40
0.15625
100
AcDbArc
 50
288.6629248849412
 51
42.67230656116108
  0
LINE
  5
1D6
330
2
100
AcDbEntity
  8
0
100
AcDbLine
 10
-0.8624999999999972
 20
11.59099999999998
 30
0.0
 11
-1.112499999999997
 21
11.59099999999998
 31
0.0
  0
LINE
  5
1D7
330
2
100
AcDbEntity
  8
0
100
AcDbLine
 10
-1.112499999999997
 20
12.01599999999997
 30
0.0
 11
-1.487500000000019
 21
12.01599999999997
 31
0.0
  0
LINE
  5
1D8
330
2
100
AcDbEntity
  8
0
100
AcDbLine
 10
-1.487500000000004
 20
11.59099999999997
 30
0.0
 11
-1.487500000000019
 21
12.01599999999997
 31
0.0
  0
LINE
  5
1D9
330
2
100
AcDbEntity
  8
0
100
AcDbLine
 10
-1.487500000000019
 20
11.59099999999998
 30
0.0
 11
-1.737500000000019
 21
11.59099999999998
 31
0.0
  0
LINE
  5
1DB
330
2
100
AcDbEntity
  8
0
100
AcDbLine
 10
-1.112499999999997
 20
11.59099999999998
 30
0.0
 11
-1.112499999999997
 21
12.01599999999997
 31
0.0
  0
LINE
  5
1DC
330
2
100
AcDbEntity
  8
0
100
AcDbLine
 10
-1.112499999999997
 20
11.49907763843374
 30
0.0
 11
-1.069864720043654
 21
11.52519722692674
 31
0.0
  0
LINE
  5
1DD
330
2
100
AcDbEntity
  8
0
100
AcDbLine
 10
1.987500000000019
 20
11.34099999999998
 30
0.0
 11
1.737500000000019
 21
11.59099999999998
 31
0.0
  0
CIRCLE
  5
1DE
330
2
100
AcDbEntity
  8
0
  6
Continuous
100
AcDbCircle
 10
1.737500000000019
 20
7.403499999999976
 30
0.0
 40
0.0855
  0
CIRCLE
  5
1DF
330
2
100
AcDbEntity
  8
0
  6
Continuous
100
AcDbCircle
 10
1.476746538668373
 20
8.424071796640089
 30
0.0
 40
0.0855
  0
LINE
  5
1E0
330
2
100
AcDbEntity
  8
0
100
AcDbLine
 10
1.187250000000176
 20
9.898388347647963
 30
0.0
 11
1.187250000000169
 21
10.65349999999998
 31
0.0
  0
LINE
  5
1E1
330
2
100
AcDbEntity
  8
0
100
AcDbLine
 10
1.375250000000172
 20
10.65349999999998
 30
0.0
 11
1.375250000000172
 21
9.898388347648297
 31
0.0
  0
CIRCLE
  5
1E2
330
2
100
AcDbEntity
  8
0
  6
Continuous
100
AcDbCircle
 10
1.737500000000019
 20
9.715999999999976
 30
0.0
 40
0.0855
  0
LINE
  5
1E3
330
2
100
AcDbEntity
  8
0
100
AcDbLine
 10
1.281249999999844
 20
9.778499999999976
 30
0.0
 11
1.205555826176017
 21
9.854194173823803
 31
0.0
  0
LINE
  5
1E4
330
2
100
AcDbEntity
  8
0
100
AcDbLine
 10
1.281250000000171
 20
9.778499999999976
 30
0.0
 11
1.356944173824331
 21
9.854194173824137
 31
0.0
  0
ARC
  5
1E5
330
2
100
AcDbEntity
  8
0
100
AcDbCircle
 10
1.312750000000172
 20
9.898388347648297
 30
0.0
 40
0.0625
100
AcDbArc
 50
315.0000000000001
 51
0.000000000000007
  0
ARC
  5
1E6
330
2
100
AcDbEntity
  8
0
100
AcDbCircle
 10
1.249750000000176
 20
9.898388347647963
 30
0.0
 40
0.0625
100
AcDbArc
 50
180.0000000000002
 51
225.0000000000005
  0
CIRCLE
  5
1E7
330
2
100
AcDbEntity
  8
0
  6
Continuous
100
AcDbCircle
 10
1.737500000000019
 20
10.84099999999997
 30
0.0
 40
0.0855
  0
LINE
  5
1E8
330
2
100
AcDbEntity
  8
0
100
AcDbLine
 10
1.112500000000004
 20
12.01599999999997
 30
0.0
 11
1.487500000000011
 21
12.01599999999998
 31
0.0
  0
LINE
  5
1EA
330
2
100
AcDbEntity
  8
0
100
AcDbLine
 10
1.112500000000011
 20
11.59099999999998
 30
0.0
 11
1.112500000000011
 21
12.01599999999997
 31
0.0
  0
LINE
  5
1EB
330
2
100
AcDbEntity
  8
0
100
AcDbLine
 10
1.112500000000011
 20
11.49907763843374
 30
0.0
 11
1.069864720043661
 21
11.52519722692674
 31
0.0
  0
LINE
  5
1EC
330
2
100
AcDbEntity
  8
0
100
AcDbLine
 10
1.487500000000019
 20
11.59099999999998
 30
0.0
 11
1.487500000000019
 21
12.01599999999998
 31
0.0
  0
LINE
  5
1ED
330
2
100
AcDbEntity
  8
0
100
AcDbLine
 10
1.487500000000019
 20
11.59099999999998
 30
0.0
 11
1.737500000000019
 21
11.59099999999998
 31
0.0
  0
LINE
  5
1EE
330
2
100
AcDbEntity
  8
0
100
AcDbLine
 10
1.113006455071828
 20
18.80687963188258
 30
0.0
 11
0.8165000000000138
 21
18.80687963188258
 31
0.0
  0
LINE
  5
1EF
330
2
100
AcDbEntity
  8
0
100
AcDbLine
 10
0.8630064550718073
 20
18.04698413167571
 30
0.0
 11
1.113006455071819
 21
18.29698413167571
 31
0.0
  0
LINE
  5
1F0
330
2
100
AcDbEntity
  8
0
100
AcDbLine
 10
0.8165000000000005
 20
18.04698413167571
 30
0.0
 11
1.066500000000012
 21
18.29698413167571
 31
0.0
  0
LINE
  5
1F1
330
2
100
AcDbEntity
  8
0
100
AcDbLine
 10
0.9085000000000143
 20
18.87198413167575
 30
0.0
 11
1.987500000000026
 21
18.87198413167574
 31
0.0
  0
LINE
  5
1F2
330
2
100
AcDbEntity
  8
0
100
AcDbLine
 10
0.9085000000000143
 20
18.91798413167575
 30
0.0
 11
1.274225413175444
 21
18.91798413167575
 31
0.0
  0
LINE
  5
1F3
330
2
100
AcDbEntity
  8
0
100
AcDbLine
 10
-1.649225413175458
 20
18.91798413167575
 30
0.0
 11
-1.987500000000019
 21
18.91798413167573
 31
0.0
  0
LINE
  5
1F4
330
2
100
AcDbEntity
  8
0
100
AcDbLine
 10
-0.9085000000000072
 20
18.87198413167575
 30
0.0
 11
-1.987500000000019
 21
18.87198413167574
 31
0.0
  0
LINE
  5
1F5
330
2
100
AcDbEntity
  8
0
100
AcDbLine
 10
-1.987500000000019
 20
18.91798413167573
 30
0.0
 11
-1.987500000000019
 21
18.87198413167574
 31
0.0
  0
ARC
  5
1F6
330
2
100
AcDbEntity
  8
0
100
AcDbCircle
 10
0.9085000000000143
 20
18.82598413167575
 30
0.0
 40
0.046
100
AcDbArc
 50
89.9999999999997
 51
179.9999999999999
  0
ARC
  5
1F7
330
2
100
AcDbEntity
  8
0
100
AcDbCircle
 10
0.9085000000000143
 20
18.82598413167575
 30
0.0
 40
0.092
100
AcDbArc
 50
89.9999999999997
 51
179.9999999999999
  0
LINE
  5
1F8
330
2
100
AcDbEntity
  8
0
100
AcDbLine
 10
-1.187250000000168
 20
18.50042624240796
 30
0.0
 11
-1.187250000000164
 21
18.87198413167575
 31
0.0
  0
LINE
  5
1F9
330
2
100
AcDbEntity
  8
0
100
AcDbLine
 10
-1.375250000000165
 20
18.87198413167575
 30
0.0
 11
-1.375250000000165
 21
18.50042624240797
 31
0.0
  0
ARC
  5
1FA
330
2
100
AcDbEntity
  8
0
100
AcDbCircle
 10
-0.9085000000000072
 20
18.82598413167575
 30
0.0
 40
0.046
100
AcDbArc
 50
0.0000000000000833
 51
90.0000000000003
  0
ARC
  5
1FB
330
2
100
AcDbEntity
  8
0
100
AcDbCircle
 10
-0.9085000000000072
 20
18.82598413167575
 30
0.0
 40
0.092
100
AcDbArc
 50
0.0000000000000833
 51
90.0000000000003
  0
LINE
  5
1FC
330
2
100
AcDbEntity
  8
0
100
AcDbLine
 10
-0.7227810187644614
 20
16.66798413167575
 30
0.0
 11
0.7227810187644685
 21
16.66798413167575
 31
0.0
  0
LINE
  5
1FD
330
2
100
AcDbEntity
  8
0
100
AcDbLine
 10
-0.7227810187644614
 20
18.66798413167574
 30
0.0
 11
0.7227810187644685
 21
18.66798413167574
 31
0.0
  0
ARC
  5
1FE
330
2
100
AcDbEntity
  8
0
100
AcDbCircle
 10
-0.8164760974644452
 20
17.66798413167575
 30
0.0
 40
0.1874999999999982
100
AcDbArc
 50
270.0
 51
90.0
  0
ARC
  5
1FF
330
2
100
AcDbEntity
  8
0
100
AcDbCircle
 10
-0.8165000000000049
 20
17.66798413167575
 30
0.0
 40
0.1874999999999982
100
AcDbArc
 50
270.0
 51
90.0
  0
LINE
  5
200
330
2
100
AcDbEntity
  8
0
100
AcDbLine
 10
-0.8165000000000049
 20
17.74948413167575
 30
0.0
 11
-0.8165000000000049
 21
17.49448413167575
 31
0.0
  0
LINE
  5
201
330
2
100
AcDbEntity
  8
0
100
AcDbLine
 10
-0.8165000000000049
 20
16.66798413167575
 30
0.0
 11
-0.8165000000000049
 21
18.82598413167575
 31
0.0
  0
LINE
  5
202
330
2
100
AcDbEntity
  8
0
100
AcDbLine
 10
-0.8625000000000043
 20
16.66798413167576
 30
0.0
 11
-0.8625000000000069
 21
18.04698413167573
 31
0.0
  0
LINE
  5
203
330
2
100
AcDbEntity
  8
0
100
AcDbLine
 10
-0.8165000000000049
 20
16.66798413167575
 30
0.0
 11
-0.8625000000000043
 21
16.66798413167576
 31
0.0
  0
LINE
  5
204
330
2
100
AcDbEntity
  8
0
100
AcDbLine
 10
-0.8165000000000049
 20
16.73048413167574
 30
0.0
 11
-0.7852810187644614
 21
16.73048413167574
 31
0.0
  0
ARC
  5
205
330
2
100
AcDbEntity
  8
0
100
AcDbCircle
 10
-0.7852810187644614
 20
16.66798413167574
 30
0.0
 40
0.0625
100
AcDbArc
 50
0.0000000000032639
 51
90.0
  0
ARC
  5
206
330
2
100
AcDbEntity
  8
0
100
AcDbCircle
 10
-0.9241643350179629
 20
17.46798413167571
 30
0.0
 40
0.1875
100
AcDbArc
 50
306.8698976458377
 51
8.981623935599469
  0
LINE
  5
207
330
2
100
AcDbEntity
  8
0
100
AcDbLine
 10
-0.8163903678130282
 20
17.39548413167574
 30
0.0
 11
-0.8625000000000043
 21
17.39548413167575
 31
0.0
  0
LINE
  5
208
330
2
100
AcDbEntity
  8
0
100
AcDbLine
 10
-0.8672580522697189
 20
17.124258275837
 30
0.0
 11
-0.8672580522697189
 21
17.124258275837
 31
0.0
  0
LINE
  5
209
330
2
100
AcDbEntity
  8
0
  6
Continuous
100
AcDbLine
 10
-0.9167739731101285
 20
17.21219287772675
 30
0.0
 11
-0.9172581758671576
 21
17.12437369892987
 31
0.0
  0
ARC
  5
20A
330
2
100
AcDbEntity
  8
0
100
AcDbCircle
 10
-0.8667747330966229
 20
17.21191720024723
 30
0.0
 40
0.0500000000000078
100
AcDbArc
 50
85.09552954204182
 51
179.684095277772
  0
ARC
  5
20B
330
2
100
AcDbEntity
  8
0
100
AcDbCircle
 10
-0.8672589358536538
 20
17.12409802145036
 30
0.0
 40
0.0500000000000078
100
AcDbArc
 50
179.6840952777882
 51
274.2726610135184
  0
LINE
  5
20C
330
2
100
AcDbEntity
  8
0
100
AcDbLine
 10
-0.8630064550718117
 20
18.04698413167573
 30
0.0
 11
-1.113006455071819
 21
18.29698413167573
 31
0.0
  0
LINE
  5
20D
330
2
100
AcDbEntity
  8
0
100
AcDbLine
 10
-1.113006455071819
 20
18.8068796318826
 30
0.0
 11
-0.8165000000000049
 21
18.8068796318826
 31
0.0
  0
LINE
  5
20E
330
2
100
AcDbEntity
  8
0
100
AcDbLine
 10
-0.8165000000000049
 20
18.04698413167573
 30
0.0
 11
-1.066500000000012
 21
18.29698413167573
 31
0.0
  0
LINE
  5
20F
330
2
100
AcDbEntity
  8
0
  6
Continuous
100
AcDbLine
 10
-1.113006455071819
 20
18.29698413167573
 30
0.0
 11
-1.066500000000012
 21
18.29698413167573
 31
0.0
  0
ELLIPSE
  5
210
330
2
100
AcDbEntity
  8
0
  6
Continuous
100
AcDbEllipse
 10
-1.281250000000166
 20
18.50042624240813
 30
0.0
 11
-0.09399999999999853
 21
1.705302565824240E-13
 31
0.0
210
0.0
220
0.0
230
1.0
 40
0.194197817966139
 41
0.0
 42
3.141592653589793
  0
LINE
  5
211
330
2
100
AcDbEntity
  8
0
100
AcDbLine
 10
-1.113006455071819
 20
18.29698413167573
 30
0.0
 11
-1.113006455071819
 21
18.8068796318826
 31
0.0
  0
LINE
  5
212
330
2
100
AcDbEntity
  8
0
100
AcDbLine
 10
-1.063006455071822
 20
18.29349058674754
 30
0.0
 11
-1.063006455071822
 21
18.8068796318826
 31
0.0
  0
ARC
  5
213
330
2
100
AcDbEntity
  8
0
100
AcDbCircle
 10
-0.9241643350179629
 20
17.86798413167569
 30
0.0
 40
0.1875
100
AcDbArc
 50
351.018376064427
 51
53.13010235415406
  0
LINE
  5
214
330
2
100
AcDbEntity
  8
0
  6
Continuous
100
AcDbLine
 10
-0.8630064550718117
 20
18.04698413167573
 30
0.0
 11
-0.8165000000000049
 21
18.04698413167573
 31
0.0
  0
LINE
  5
215
330
2
100
AcDbEntity
  8
0
100
AcDbLine
 10
-0.8165000000000049
 20
17.62198413167575
 30
0.0
 11
-0.8625000000000043
 21
17.62198413167574
 31
0.0
  0
POINT
  5
216
330
2
100
AcDbEntity
  8
0
  6
ByBlock
 62
     0
100
AcDbPoint
 10
-0.8165000000000049
 20
17.74948413167575
 30
0.0
  0
LINE
  5
217
330
2
100
AcDbEntity
  8
0
100
AcDbLine
 10
-0.8165000000000049
 20
18.60548413167574
 30
0.0
 11
-0.7852810187644614
 21
18.60548413167574
 31
0.0
  0
ARC
  5
218
330
2
100
AcDbEntity
  8
0
100
AcDbCircle
 10
-0.7852810187644614
 20
18.66798413167574
 30
0.0
 40
0.0625
100
AcDbArc
 50
270.0
 51
0.000000000000007
  0
LINE
  5
219
330
2
100
AcDbEntity
  8
0
100
AcDbLine
 10
-0.8625000000000087
 20
18.8068796318826
 30
0.0
 11
-0.8625000000000078
 21
18.82598413167575
 31
0.0
  0
ARC
  5
21A
330
2
100
AcDbEntity
  8
0
100
AcDbCircle
 10
0.8165239025355646
 20
17.66798413167575
 30
0.0
 40
0.1874999999999982
100
AcDbArc
 50
90.0
 51
270.0
  0
ARC
  5
21B
330
2
100
AcDbEntity
  8
0
100
AcDbCircle
 10
0.1140307212516074
 20
17.60856498132897
 30
0.0
 40
0.0390625
100
AcDbArc
 50
269.9999999999999
 51
30.0000000000028
  0
ARC
  5
21C
330
2
100
AcDbEntity
  8
0
100
AcDbCircle
 10
-0.1208786693721002
 20
17.60856498159371
 30
0.0
 40
0.0390625
100
AcDbArc
 50
149.9999999999975
 51
269.9999999999993
  0
ARC
  5
21D
330
2
100
AcDbEntity
  8
0
100
AcDbCircle
 10
0.090539782185644
 20
17.61937707718183
 30
0.0
 40
0.03125
100
AcDbArc
 50
269.9999999999999
 51
30.0000000000028
  0
ARC
  5
21E
330
2
100
AcDbEntity
  8
0
100
AcDbCircle
 10
-0.0973877303133222
 20
17.61937707739363
 30
0.0
 40
0.03125
100
AcDbArc
 50
149.9999999999975
 51
269.9999999999993
  0
LINE
  5
21F
330
2
100
AcDbEntity
  8
0
100
AcDbLine
 10
0.816500000000012
 20
16.66798413167575
 30
0.0
 11
0.816500000000012
 21
18.82598413167575
 31
0.0
  0
LINE
  5
220
330
2
100
AcDbEntity
  8
0
100
AcDbLine
 10
0.8625000000000114
 20
16.66798413167576
 30
0.0
 11
0.8625000000000132
 21
18.04698413167571
 31
0.0
  0
LINE
  5
221
330
2
100
AcDbEntity
  8
0
100
AcDbLine
 10
-0.1208786694080324
 20
17.56950248161335
 30
0.0
 11
0.1140307212516127
 21
17.56950248132898
 31
0.0
  0
LINE
  5
222
330
2
100
AcDbEntity
  8
0
100
AcDbLine
 10
-0.0973877303420672
 20
17.58812707740934
 30
0.0
 11
0.0905397821856475
 21
17.58812707718185
 31
0.0
  0
LINE
  5
223
330
2
100
AcDbEntity
  8
0
100
AcDbLine
 10
0.816500000000012
 20
16.73048413167574
 30
0.0
 11
0.7852810187644685
 21
16.73048413167574
 31
0.0
  0
ARC
  5
224
330
2
100
AcDbEntity
  8
0
100
AcDbCircle
 10
0.7852810187644685
 20
16.66798413167574
 30
0.0
 40
0.0625
100
AcDbArc
 50
90.0
 51
179.9999999999967
  0
LINE
  5
225
330
2
100
AcDbEntity
  8
0
100
AcDbLine
 10
0.816500000000012
 20
16.66798413167575
 30
0.0
 11
0.8625000000000114
 21
16.66798413167576
 31
0.0
  0
ARC
  5
226
330
2
100
AcDbEntity
  8
0
100
AcDbCircle
 10
0.9242121400890824
 20
17.46798413167571
 30
0.0
 40
0.1875
100
AcDbArc
 50
171.0183760644005
 51
233.1301023541622
  0
LINE
  5
227
330
2
100
AcDbEntity
  8
0
100
AcDbLine
 10
0.8163903678130353
 20
17.39548413167574
 30
0.0
 11
0.8625000000000114
 21
17.39548413167575
 31
0.0
  0
LINE
  5
228
330
2
100
AcDbEntity
  8
0
  6
Continuous
100
AcDbLine
 10
0.9167739731101356
 20
17.21219287772675
 30
0.0
 11
0.9172581758671647
 21
17.12437369892987
 31
0.0
  0
ARC
  5
229
330
2
100
AcDbEntity
  8
0
100
AcDbCircle
 10
0.8672589358536609
 20
17.12409802145036
 30
0.0
 40
0.0500000000000078
100
AcDbArc
 50
265.7273389864816
 51
0.3159047222117708
  0
LINE
  5
22A
330
2
100
AcDbEntity
  8
0
100
AcDbLine
 10
0.867258052269726
 20
17.124258275837
 30
0.0
 11
0.867258052269726
 21
17.124258275837
 31
0.0
  0
ARC
  5
22B
330
2
100
AcDbEntity
  8
0
100
AcDbCircle
 10
0.86677473309663
 20
17.21191720024723
 30
0.0
 40
0.0500000000000078
100
AcDbArc
 50
0.3159047222280552
 51
94.90447045795818
  0
ARC
  5
22C
330
2
100
AcDbEntity
  8
0
100
AcDbCircle
 10
-0.0034239739838409
 20
17.8120024815937
 30
0.0
 40
0.0390625
100
AcDbArc
 50
30.00000000000072
 51
150.0000000000025
  0
ARC
  5
22D
330
2
100
AcDbEntity
  8
0
100
AcDbCircle
 10
-0.0034239740027147
 20
17.78212707739362
 30
0.0
 40
0.03125
100
AcDbArc
 50
30.00000000000072
 51
150.0000000000025
  0
LINE
  5
22E
330
2
100
AcDbEntity
  8
0
100
AcDbLine
 10
-0.1547077866960684
 20
17.62809623161335
 30
0.0
 11
-0.0372530913191742
 21
17.8315337315937
 31
0.0
  0
LINE
  5
22F
330
2
100
AcDbEntity
  8
0
100
AcDbLine
 10
-0.1244510241724974
 20
17.63500207740934
 30
0.0
 11
-0.0304872678709813
 21
17.79775207739362
 31
0.0
  0
LINE
  5
230
330
2
100
AcDbEntity
  8
0
100
AcDbLine
 10
0.0304051433514836
 20
17.83153373159369
 30
0.0
 11
0.1478598385869354
 21
17.62809623132897
 31
0.0
  0
LINE
  5
231
330
2
100
AcDbEntity
  8
0
100
AcDbLine
 10
0.0236393198655449
 20
17.79775207739361
 30
0.0
 11
0.1176030760539071
 21
17.63500207718184
 31
0.0
  0
ARC
  5
232
330
2
100
AcDbEntity
  8
0
100
AcDbCircle
 10
0.9242121400890824
 20
17.86798413167569
 30
0.0
 40
0.1875
100
AcDbArc
 50
126.8698976458459
 51
188.981623935573
  0
LINE
  5
233
330
2
100
AcDbEntity
  8
0
  6
Continuous
100
AcDbLine
 10
0.8630064550718073
 20
18.04698413167571
 30
0.0
 11
0.8165000000000005
 21
18.04698413167571
 31
0.0
  0
LINE
  5
234
330
2
100
AcDbEntity
  8
0
100
AcDbLine
 10
0.816500000000012
 20
17.62198413167575
 30
0.0
 11
0.8625000000000114
 21
17.62198413167574
 31
0.0
  0
LINE
  5
235
330
2
100
AcDbEntity
  8
0
100
AcDbLine
 10
0.862500000000014
 20
18.80687963188258
 30
0.0
 11
0.8625000000000149
 21
18.82598413167575
 31
0.0
  0
LINE
  5
236
330
2
100
AcDbEntity
  8
0
100
AcDbLine
 10
0.816500000000012
 20
18.60548413167574
 30
0.0
 11
0.7852810187644685
 21
18.60548413167574
 31
0.0
  0
ARC
  5
237
330
2
100
AcDbEntity
  8
0
100
AcDbCircle
 10
0.7852810187644685
 20
18.66798413167574
 30
0.0
 40
0.0625
100
AcDbArc
 50
180.0
 51
270.0
  0
LINE
  5
238
330
2
100
AcDbEntity
  8
0
100
AcDbLine
 10
-0.9085000000000072
 20
18.91798413167575
 30
0.0
 11
-1.274225413175437
 21
18.91798413167575
 31
0.0
  0
LINE
  5
239
330
2
100
AcDbEntity
  8
0
  6
Continuous
100
AcDbLine
 10
-1.367975413175447
 20
19.60548413167573
 30
0.0
 11
-1.274225413175437
 21
19.04298413167574
 31
0.0
  0
LINE
  5
23A
330
2
100
AcDbEntity
  8
0
  6
Continuous
100
AcDbLine
 10
-1.649225413175458
 20
19.04298413167574
 30
0.0
 11
-1.555475413175447
 21
19.60548413167573
 31
0.0
  0
LINE
  5
23B
330
2
100
AcDbEntity
  8
0
100
AcDbLine
 10
-1.737500000000011
 20
18.91798413167574
 30
0.0
 11
-1.737500000000011
 21
18.87198413167574
 31
0.0
  0
LINE
  5
23C
330
2
100
AcDbEntity
  8
0
  6
Continuous
100
AcDbLine
 10
-1.649225413175458
 20
19.04298413167574
 30
0.0
 11
-1.649225413175458
 21
18.87198413167575
 31
0.0
  0
LINE
  5
23D
330
2
100
AcDbEntity
  8
0
  6
Continuous
100
AcDbLine
 10
-1.274225413175437
 20
19.04298413167574
 30
0.0
 11
-1.274225413175437
 21
18.87198413167575
 31
0.0
  0
LINE
  5
23E
330
2
100
AcDbEntity
  8
0
  6
Continuous
100
AcDbLine
 10
-1.555475413175447
 20
19.60548413167573
 30
0.0
 11
-1.367975413175447
 21
19.60548413167573
 31
0.0
  0
LINE
  5
23F
330
2
100
AcDbEntity
  8
0
100
AcDbLine
 10
1.375250000000172
 20
18.87198413167575
 30
0.0
 11
1.375250000000172
 21
18.50042624240797
 31
0.0
  0
LINE
  5
240
330
2
100
AcDbEntity
  8
0
100
AcDbLine
 10
1.187250000000175
 20
18.50042624240796
 30
0.0
 11
1.187250000000171
 21
18.87198413167575
 31
0.0
  0
LINE
  5
241
330
2
100
AcDbEntity
  8
0
  6
Continuous
100
AcDbLine
 10
1.113006455071819
 20
18.29698413167571
 30
0.0
 11
1.066500000000012
 21
18.29698413167571
 31
0.0
  0
LINE
  5
242
330
2
100
AcDbEntity
  8
0
100
AcDbLine
 10
1.063006455071822
 20
18.29349058674752
 30
0.0
 11
1.063006455071831
 21
18.80687963188258
 31
0.0
  0
LINE
  5
243
330
2
100
AcDbEntity
  8
0
100
AcDbLine
 10
1.113006455071819
 20
18.29698413167571
 30
0.0
 11
1.113006455071828
 21
18.80687963188258
 31
0.0
  0
ELLIPSE
  5
244
330
2
100
AcDbEntity
  8
0
  6
Continuous
100
AcDbEllipse
 10
1.281250000000174
 20
18.50042624240813
 30
0.0
 11
-0.09399999999999853
 21
1.705302565824240E-13
 31
0.0
210
0.0
220
0.0
230
1.0
 40
0.194197817966139
 41
0.0
 42
3.141592653589793
  0
LINE
  5
245
330
2
100
AcDbEntity
  8
0
100
AcDbLine
 10
1.649225413175465
 20
18.91798413167575
 30
0.0
 11
1.987500000000026
 21
18.91798413167573
 31
0.0
  0
LINE
  5
246
330
2
100
AcDbEntity
  8
0
  6
Continuous
100
AcDbLine
 10
1.367975413175454
 20
19.60548413167573
 30
0.0
 11
1.274225413175444
 21
19.04298413167574
 31
0.0
  0
LINE
  5
247
330
2
100
AcDbEntity
  8
0
  6
Continuous
100
AcDbLine
 10
1.649225413175465
 20
19.04298413167574
 30
0.0
 11
1.555475413175454
 21
19.60548413167573
 31
0.0
  0
LINE
  5
248
330
2
100
AcDbEntity
  8
0
  6
Continuous
100
AcDbLine
 10
1.274225413175444
 20
19.04298413167574
 30
0.0
 11
1.274225413175444
 21
18.87198413167575
 31
0.0
  0
LINE
  5
249
330
2
100
AcDbEntity
  8
0
  6
Continuous
100
AcDbLine
 10
1.649225413175465
 20
19.04298413167574
 30
0.0
 11
1.649225413175465
 21
18.87198413167575
 31
0.0
  0
LINE
  5
24A
330
2
100
AcDbEntity
  8
0
100
AcDbLine
 10
1.737500000000019
 20
18.91798413167574
 30
0.0
 11
1.737500000000019
 21
18.87198413167574
 31
0.0
  0
LINE
  5
24B
330
2
100
AcDbEntity
  8
0
  6
Continuous
100
AcDbLine
 10
1.555475413175454
 20
19.60548413167573
 30
0.0
 11
1.367975413175454
 21
19.60548413167573
 31
0.0
  0
LINE
  5
24C
330
2
100
AcDbEntity
  8
0
100
AcDbLine
 10
1.987500000000026
 20
18.91798413167573
 30
0.0
 11
1.987500000000026
 21
18.87198413167574
 31
0.0
  0
LINE
  5
24D
330
2
100
AcDbEntity
  8
0
100
AcDbLine
 10
9.006731823897766
 20
4.403225077265663
 30
0.0
 11
8.843981823865001
 21
4.497188833332501
 31
0.0
  0
LINE
  5
24E
330
2
100
AcDbEntity
  8
0
100
AcDbLine
 10
9.006731823865017
 20
4.645279177624172
 30
0.0
 11
8.843981823865001
 21
4.551315421069031
 31
0.0
  0
ARC
  5
24F
330
2
100
AcDbEntity
  8
0
100
AcDbCircle
 10
8.497635372068565
 20
5.206874548139506
 30
0.0
 40
0.5025
100
AcDbArc
 50
314.9999999999999
 51
0.0
  0
LINE
  5
251
330
2
100
AcDbEntity
  8
0
100
AcDbLine
 10
8.824403139021506
 20
1.020260584575221
 30
0.0
 11
8.974403139021483
 21
1.043000000000001
 31
0.0
  0
ARC
  5
252
330
2
100
AcDbEntity
  8
0
100
AcDbCircle
 10
8.824403139021449
 20
1.155499999999956
 30
0.0
 40
0.1875
100
AcDbArc
 50
216.8698976458378
 51
323.130102354154
  0
LINE
  5
253
330
2
100
AcDbEntity
  8
0
100
AcDbLine
 10
8.974403139021369
 20
1.042999999999887
 30
0.0
 11
8.824403139021392
 21
1.217999999999842
 31
0.0
  0
ARC
  5
254
330
2
100
AcDbEntity
  8
0
100
AcDbCircle
 10
8.624403139021489
 20
1.442328618174591
 30
0.0
 40
0.1874999999999982
100
AcDbArc
 50
0.0
 51
180.0
  0
ARC
  5
255
330
2
100
AcDbEntity
  8
0
100
AcDbCircle
 10
8.121903139021576
 20
1.586138852532367
 30
0.0
 40
0.4975
100
AcDbArc
 50
144.9999999999964
 51
180.0
1001
_DIE112SSJYHX
1002
{
1000
comp_type
1000
DBL24
1000
material
1000
D-2
1000
thickness
1040
1.25
1000
mount
1000
SBP10
1000
mntlay
1000
DIE_SUB_PLATE
1002
}
  0
LINE
  5
257
330
2
100
AcDbEntity
  8
0
  6
HIDDEN2
100
AcDbLine
 10
8.030653139021489
 20
0.0729999999999738
 30
0.0
 11
8.03065313902146
 21
1.635499999999952
 31
0.0
  0
LINE
  5
258
330
2
100
AcDbEntity
  8
0
  6
HIDDEN2
100
AcDbLine
 10
8.218153139021482
 20
0.0729999999999738
 30
0.0
 11
8.21815313902146
 21
1.635499999999952
 31
0.0
  0
ARC
  5
259
330
2
100
AcDbEntity
  8
0
100
AcDbCircle
 10
8.624403139021489
 20
1.442328618174591
 30
0.0
 40
0.1874999999999982
100
AcDbArc
 50
0.0
 51
180.0
  0
LINE
  5
25A
330
2
100
AcDbEntity
  8
0
100
AcDbLine
 10
7.624403139021347
 20
0.2034999999999325
 30
0.0
 11
7.624403139021574
 21
1.586138852532367
 31
0.0
  0
LINE
  5
25E
330
2
100
AcDbEntity
  8
0
100
AcDbLine
 10
8.424403139021528
 20
0.7452605845752434
 30
0.0
 11
8.574403139021506
 21
0.7680000000000238
 31
0.0
  0
ARC
  5
25F
330
2
100
AcDbEntity
  8
0
100
AcDbCircle
 10
8.424403139021472
 20
0.8804999999999783
 30
0.0
 40
0.1875
100
AcDbArc
 50
216.8698976458378
 51
323.130102354154
  0
LINE
  5
260
330
2
100
AcDbEntity
  8
0
100
AcDbLine
 10
8.574403139021392
 20
0.7679999999999101
 30
0.0
 11
8.424403139021415
 21
0.9429999999999783
 31
0.0
  0
LINE
  5
261
330
2
100
AcDbEntity
  8
0
100
AcDbLine
 10
8.424403139021528
 20
0.7452605845752434
 30
0.0
 11
8.274403139021494
 21
0.7679999999999101
 31
0.0
  0
LINE
  5
262
330
2
100
AcDbEntity
  8
0
100
AcDbLine
 10
8.424403139021528
 20
0.7452605845752434
 30
0.0
 11
8.424403139021415
 21
0.9429999999998646
 31
0.0
  0
LINE
  5
263
330
2
100
AcDbEntity
  8
0
100
AcDbLine
 10
8.424403139021415
 20
0.9429999999999783
 30
0.0
 11
8.274403139021437
 21
0.7679999999999101
 31
0.0
  0
LINE
  5
264
330
2
100
AcDbEntity
  8
0
100
AcDbLine
 10
8.751903139021486
 20
1.317328618174583
 30
0.0
 11
8.496903139021491
 21
1.317328618174583
 31
0.0
  0
ARC
  5
265
330
2
100
AcDbEntity
  8
0
100
AcDbCircle
 10
8.496903139021491
 20
1.377328618174586
 30
0.0
 40
0.06
100
AcDbArc
 50
180.0000000000001
 51
269.9999999999996
  0
POINT
  5
266
330
2
100
AcDbEntity
  8
0
  6
ByBlock
 62
     0
100
AcDbPoint
 10
8.751903139021486
 20
1.317328618174583
 30
0.0
  0
ARC
  5
267
330
2
100
AcDbEntity
  8
0
100
AcDbCircle
 10
8.751903139021486
 20
1.377328618174586
 30
0.0
 40
0.06
100
AcDbArc
 50
270.0000000000002
 51
359.9999999999999
  0
LINE
  5
268
330
2
100
AcDbEntity
  8
0
100
AcDbLine
 10
8.824403139021506
 20
1.020260584575221
 30
0.0
 11
8.674403139021472
 21
1.042999999999887
 31
0.0
  0
LINE
  5
269
330
2
100
AcDbEntity
  8
0
100
AcDbLine
 10
8.824403139021392
 20
1.217999999999842
 30
0.0
 11
8.674403139021415
 21
1.042999999999887
 31
0.0
  0
LINE
  5
26A
330
2
100
AcDbEntity
  8
0
100
AcDbLine
 10
8.824403139021506
 20
1.020260584575221
 30
0.0
 11
8.824403139021392
 21
1.217999999999842
 31
0.0
  0
LINE
  5
26B
330
2
100
AcDbEntity
  8
0
100
AcDbLine
 10
8.624403139021574
 20
3.487235042592939
 30
0.0
 11
8.62513537206879
 21
4.417660985765945
 31
0.0
  0
LINE
  5
26C
330
2
100
AcDbEntity
  8
0
100
AcDbLine
 10
7.714374996987822
 20
1.871493129617038
 30
0.0
 11
8.443103063421312
 21
2.912224665151047
 31
0.0
  0
ARC
  5
26D
330
2
100
AcDbEntity
  8
0
  6
HIDDEN2
100
AcDbCircle
 10
8.12440313902146
 20
1.635499999999952
 30
0.0
 40
0.09375
100
AcDbArc
 50
0.0
 51
180.0
  0
POINT
  5
26E
330
2
100
AcDbEntity
  8
0
  6
ByBlock
 62
     0
100
AcDbPoint
 10
7.624403139021489
 20
1.747999999999969
 30
0.0
  0
POINT
  5
26F
330
2
100
AcDbEntity
  8
0
  6
ByBlock
 62
     0
100
AcDbPoint
 10
8.624403139021489
 20
1.629828618174587
 30
0.0
  0
POINT
  5
270
330
2
100
AcDbEntity
  8
0
  6
ByBlock
 62
     0
100
AcDbPoint
 10
8.624403139021489
 20
1.629828618174587
 30
0.0
  0
POINT
  5
271
330
2
100
AcDbEntity
  8
0
  6
ByBlock
 62
     0
100
AcDbPoint
 10
8.624403139021489
 20
1.629828618174587
 30
0.0
  0
POINT
  5
272
330
2
100
AcDbEntity
  8
0
  6
ByBlock
 62
     0
100
AcDbPoint
 10
8.624403139021489
 20
1.629828618174587
 30
0.0
  0
ARC
  5
273
330
2
100
AcDbEntity
  8
0
100
AcDbCircle
 10
7.621903139021562
 20
3.487235042592939
 30
0.0
 40
1.002500000000012
100
AcDbArc
 50
325.0000000000025
 51
359.9999999999998
1001
_DIE112SSJYHX
1002
{
1000
comp_type
1000
DBL24
1000
material
1000
D-2
1000
thickness
1040
1.25
1000
mount
1000
SBP10
1000
mntlay
1000
DIE_SUB_PLATE
1002
}
  0
ARC
  5
274
330
2
100
AcDbEntity
  8
0
100
AcDbCircle
 10
9.122635372068793
 20
4.417660985765945
 30
0.0
 40
0.4975000000000007
100
AcDbArc
 50
135.0000000000189
 51
180.0
1001
_DIE112SSJYHX
1002
{
1000
comp_type
1000
DBL24
1000
material
1000
D-2
1000
thickness
1040
1.25
1000
mount
1000
SBP10
1000
mntlay
1000
DIE_SUB_PLATE
1002
}
  0
ARC
  5
275
330
2
100
AcDbEntity
  8
0
100
AcDbCircle
 10
8.859606823865001
 20
4.524252127200764
 30
0.0
 40
0.03125
100
AcDbArc
 50
119.9999999999971
 51
240.0
  0
LINE
  5
276
330
2
100
AcDbEntity
  8
0
100
AcDbLine
 10
8.770849748428155
 20
4.769446609406639
 30
0.0
 11
8.852956529614822
 21
4.851553390593306
 31
0.0
  0
LINE
  5
277
330
2
100
AcDbEntity
  8
0
100
AcDbLine
 10
9.874403139021489
 20
11.91599999999997
 30
0.0
 11
9.874403139021489
 21
2.105037001685483
 31
0.0
  0
LINE
  5
278
330
2
100
AcDbEntity
  8
0
100
AcDbLine
 10
9.824403139021491
 20
11.91599999999998
 30
0.0
 11
9.824403139021491
 21
2.033629601348386
 31
0.0
  0
LINE
  5
279
330
2
100
AcDbEntity
  8
0
100
AcDbLine
 10
8.999403139021489
 20
4.997999999999971
 30
0.0
 11
8.999403139021482
 21
11.27519722692673
 31
0.0
  0
ARC
  5
27A
330
2
100
AcDbEntity
  8
0
100
AcDbCircle
 10
10.12190313902158
 20
1.586138852532367
 30
0.0
 40
0.4975
100
AcDbArc
 50
144.9999999999964
 51
180.0
1001
_DIE112SSJYHX
1002
{
1000
comp_type
1000
DBL24
1000
material
1000
D-2
1000
thickness
1040
1.25
1000
mount
1000
SBP10
1000
mntlay
1000
DIE_SUB_PLATE
1002
}
  0
LINE
  5
27B
330
2
100
AcDbEntity
  8
0
  6
HIDDEN2
100
AcDbLine
 10
9.03065313902146
 20
2.197999999999954
 30
0.0
 11
9.030653139021489
 21
0.0729999999999738
 31
0.0
  0
LINE
  5
27C
330
2
100
AcDbEntity
  8
0
  6
HIDDEN2
100
AcDbLine
 10
9.21815313902146
 20
2.197999999999954
 30
0.0
 11
9.218153139021489
 21
0.0729999999999738
 31
0.0
  0
LINE
  5
27D
330
2
100
AcDbEntity
  8
0
100
AcDbLine
 10
9.624403139021574
 20
1.586138852532367
 30
0.0
 11
9.624403139021574
 21
0.2034999999999325
 31
0.0
  0
ARC
  5
285
330
2
100
AcDbEntity
  8
0
  6
HIDDEN2
100
AcDbCircle
 10
9.12440313902146
 20
2.197999999999954
 30
0.0
 40
0.09375
100
AcDbArc
 50
0.0
 51
180.0
  0
LINE
  5
286
330
2
100
AcDbEntity
  8
0
100
AcDbLine
 10
9.714374996987537
 20
1.871493129617244
 30
0.0
 11
9.874403139021347
 21
2.100037001685447
 31
0.0
  0
ARC
  5
287
330
2
100
AcDbEntity
  8
0
100
AcDbCircle
 10
9.022356823865017
 20
4.430288371134697
 30
0.0
 40
0.03125
100
AcDbArc
 50
240.0000000000007
 51
0.0000000000024427
  0
ARC
  5
288
330
2
100
AcDbEntity
  8
0
100
AcDbCircle
 10
9.022356823865017
 20
4.618215883755905
 30
0.0
 40
0.03125
100
AcDbArc
 50
359.9999999999974
 51
119.9999999999993
  0
LINE
  5
289
330
2
100
AcDbEntity
  8
0
100
AcDbLine
 10
9.053603139021483
 20
4.430768255661487
 30
0.0
 11
9.053603139021497
 21
4.618695768264548
 31
0.0
  0
LINE
  5
28A
330
2
100
AcDbEntity
  8
0
100
AcDbLine
 10
9.824403139021491
 20
5.246506350946083
 30
0.0
 11
9.874403139021489
 21
5.246506350946083
 31
0.0
  0
LINE
  5
28B
330
2
100
AcDbEntity
  8
0
100
AcDbLine
 10
9.824403139021491
 20
5.029999999999975
 30
0.0
 11
9.874403139021489
 21
5.029999999999975
 31
0.0
  0
LINE
  5
28C
330
2
100
AcDbEntity
  8
0
100
AcDbLine
 10
9.759298639228355
 20
11.52519722692674
 30
0.0
 11
9.759298639228355
 21
11.21872651447523
 31
0.0
  0
LINE
  5
28D
330
2
100
AcDbEntity
  8
0
100
AcDbLine
 10
8.999403139021482
 20
11.27519722692673
 30
0.0
 11
9.249403139021489
 21
11.52519722692674
 31
0.0
  0
LINE
  5
28E
330
2
100
AcDbEntity
  8
0
  6
Continuous
100
AcDbLine
 10
9.824403139021488
 20
10.26899235226182
 30
0.0
 11
9.559083767143981
 21
10.00367298038432
 31
0.0
  0
LINE
  5
28F
330
2
100
AcDbEntity
  8
0
  6
Continuous
100
AcDbLine
 10
9.814930050956058
 20
10.32457308806556
 30
0.0
 11
9.5265568552094
 21
10.0361998923189
 31
0.0
  0
LINE
  5
290
330
2
100
AcDbEntity
  8
0
  6
Continuous
100
AcDbLine
 10
9.581498153948182
 20
9.92002135001054
 30
0.0
 11
9.822979610520456
 21
9.855316588734905
 31
0.0
  0
LINE
  5
291
330
2
100
AcDbEntity
  8
0
  6
Continuous
100
AcDbLine
 10
9.569592477873464
 20
9.875588762001247
 30
0.0
 11
9.811073934445737
 21
9.810884000725604
 31
0.0
  0
ARC
  5
292
330
2
100
AcDbEntity
  8
0
  6
Continuous
100
AcDbCircle
 10
9.594439106203318
 20
9.96831764132499
 30
0.0
 40
0.05
100
AcDbArc
 50
135.0000000000019
 51
255.0000000000004
  0
ARC
  5
293
330
2
100
AcDbEntity
  8
0
  6
Continuous
100
AcDbCircle
 10
9.594439106203318
 20
9.96831764132499
 30
0.0
 40
0.096
100
AcDbArc
 50
135.0000000000019
 51
254.9999999999993
  0
LINE
  5
294
330
2
100
AcDbEntity
  8
0
  6
Continuous
100
AcDbLine
 10
9.822979610520456
 20
9.855316588734933
 30
0.0
 11
9.811073934445751
 21
9.81088400072564
 31
0.0
  0
LINE
  5
295
330
2
100
AcDbEntity
  8
0
100
AcDbLine
 10
8.999403139021482
 20
11.09099999999997
 30
0.0
 11
9.693048639228366
 21
11.09099999999998
 31
0.0
  0
ARC
  5
296
330
2
100
AcDbEntity
  8
0
  6
Continuous
100
AcDbCircle
 10
9.782403139021476
 20
10.35710000000014
 30
0.0
 40
0.046
100
AcDbArc
 50
315.0000000000002
 51
335.9293853774835
  0
ARC
  5
297
330
2
100
AcDbEntity
  8
0
  6
Continuous
100
AcDbCircle
 10
9.759667578525249
 20
10.36350162342253
 30
0.0
 40
0.1148432675996877
100
AcDbArc
 50
315.1652224024733
 51
351.5634350384797
  0
ARC
  5
298
330
2
100
AcDbEntity
  8
0
100
AcDbCircle
 10
9.849298639228366
 20
11.09099999999998
 30
0.0
 40
0.15625
100
AcDbArc
 50
125.1696929238603
 51
260.831921102219
  0
LINE
  5
299
330
2
100
AcDbEntity
  8
0
100
AcDbLine
 10
9.924403139021486
 20
11.96599999999998
 30
0.0
 11
10.49940313902149
 21
11.96599999999998
 31
0.0
  0
LINE
  5
29A
330
2
100
AcDbEntity
  8
0
100
AcDbLine
 10
9.924403139021493
 20
12.01599999999997
 30
0.0
 11
10.49940313902149
 21
12.01599999999997
 31
0.0
  0
LINE
  5
29B
330
2
100
AcDbEntity
  8
0
100
AcDbLine
 10
9.249403139021489
 20
11.52519722692674
 30
0.0
 11
9.759298639228355
 21
11.52519722692674
 31
0.0
  0
LINE
  5
29C
330
2
100
AcDbEntity
  8
0
100
AcDbLine
 10
9.199403139021491
 20
11.47519722692674
 30
0.0
 11
9.759298639228355
 21
11.47519722692674
 31
0.0
  0
ARC
  5
29D
330
2
100
AcDbEntity
  8
0
100
AcDbCircle
 10
9.924403139021486
 20
11.91599999999997
 30
0.0
 40
0.05
100
AcDbArc
 50
90.0
 51
180.0
  0
ARC
  5
29E
330
2
100
AcDbEntity
  8
0
100
AcDbCircle
 10
9.924403139021493
 20
11.91599999999998
 30
0.0
 40
0.1
100
AcDbArc
 50
90.0
 51
180.0
  0
LINE
  5
29F
330
2
100
AcDbEntity
  8
0
100
AcDbLine
 10
10.49940313902149
 20
12.01599999999997
 30
0.0
 11
10.49940313902149
 21
11.96599999999998
 31
0.0
  0
LINE
  5
2A0
330
2
100
AcDbEntity
  8
0
  6
Continuous
100
AcDbLine
 10
-1.365256426651637
 20
11.71599999999995
 30
0.0
 11
-1.2347435733484
 21
11.71599999999995
 31
0.0
  0
LINE
  5
2A1
330
2
100
AcDbEntity
  8
0
  6
Continuous
100
AcDbLine
 10
-1.2347435733484
 20
11.71599999999995
 30
0.0
 11
-1.2347435733484
 21
11.46599999999995
 31
0.0
  0
LINE
  5
2A2
330
2
100
AcDbEntity
  8
0
  6
Continuous
100
AcDbLine
 10
-1.2347435733484
 20
11.46599999999995
 30
0.0
 11
-1.365256426651637
 21
11.46599999999995
 31
0.0
  0
LINE
  5
2A3
330
2
100
AcDbEntity
  8
0
  6
Continuous
100
AcDbLine
 10
-1.365256426651637
 20
11.46599999999995
 30
0.0
 11
-1.365256426651637
 21
11.71599999999995
 31
0.0
  0
LINE
  5
2A4
330
2
100
AcDbEntity
  8
0
  6
Continuous
100
AcDbLine
 10
1.2347435733484
 20
11.71599999999999
 30
0.0
 11
1.365256426651637
 21
11.71599999999999
 31
0.0
  0
LINE
  5
2A5
330
2
100
AcDbEntity
  8
0
  6
Continuous
100
AcDbLine
 10
1.365256426651637
 20
11.71599999999999
 30
0.0
 11
1.365256426651637
 21
11.46599999999999
 31
0.0
  0
LINE
  5
2A6
330
2
100
AcDbEntity
  8
0
  6
Continuous
100
AcDbLine
 10
1.365256426651637
 20
11.46599999999999
 30
0.0
 11
1.2347435733484
 21
11.46599999999999
 31
0.0
  0
LINE
  5
2A7
330
2
100
AcDbEntity
  8
0
  6
Continuous
100
AcDbLine
 10
1.2347435733484
 20
11.46599999999999
 30
0.0
 11
1.2347435733484
 21
11.71599999999999
 31
0.0
  0
LINE
  5
2A8
330
2
100
AcDbEntity
  8
0
100
AcDbLine
 10
8.811903139021489
 20
1.377328618174586
 30
0.0
 11
8.810650942070929
 21
1.74347841297651
 31
0.0
  0
LINE
  5
2A9
330
2
100
AcDbEntity
  8
0
100
AcDbLine
 10
8.810650942070929
 20
1.74347841297651
 30
0.0
 11
8.807784514370773
 21
1.831155638876561
 31
0.0
  0
LINE
  5
2AA
330
2
100
AcDbEntity
  8
0
100
AcDbLine
 10
8.807784514370773
 20
1.831155638876561
 30
0.0
 11
8.803514944570729
 21
1.911230283776487
 31
0.0
  0
LINE
  5
2AB
330
2
100
AcDbEntity
  8
0
100
AcDbLine
 10
8.803514944570729
 20
1.911230283776487
 30
0.0
 11
8.798135289570887
 21
1.984392941076404
 31
0.0
  0
LINE
  5
2AC
330
2
100
AcDbEntity
  8
0
100
AcDbLine
 10
8.798135289570887
 20
1.984392941076404
 30
0.0
 11
8.791866094070933
 21
2.05125784047652
 31
0.0
  0
LINE
  5
2AD
330
2
100
AcDbEntity
  8
0
100
AcDbLine
 10
8.791866094070933
 20
2.05125784047652
 30
0.0
 11
8.784873126470806
 21
2.11238556737646
 31
0.0
  0
LINE
  5
2AE
330
2
100
AcDbEntity
  8
0
100
AcDbLine
 10
8.784873126470806
 20
2.11238556737646
 30
0.0
 11
8.777283216070877
 21
2.168260034176566
 31
0.0
  0
LINE
  5
2AF
330
2
100
AcDbEntity
  8
0
100
AcDbLine
 10
8.777283216070877
 20
2.168260034176566
 30
0.0
 11
8.769191778370946
 21
2.219311956276552
 31
0.0
  0
LINE
  5
2B0
330
2
100
AcDbEntity
  8
0
100
AcDbLine
 10
8.769191778370946
 20
2.219311956276552
 30
0.0
 11
8.76067224437093
 21
2.26590559817657
 31
0.0
  0
LINE
  5
2B1
330
2
100
AcDbEntity
  8
0
100
AcDbLine
 10
8.76067224437093
 20
2.26590559817657
 30
0.0
 11
8.751771365370864
 21
2.308392250376411
 31
0.0
  0
LINE
  5
2B2
330
2
100
AcDbEntity
  8
0
100
AcDbLine
 10
8.751771365370864
 20
2.308392250376411
 30
0.0
 11
8.7425191756709
 21
2.347066008976409
 31
0.0
  0
LINE
  5
2B3
330
2
100
AcDbEntity
  8
0
100
AcDbLine
 10
8.7425191756709
 20
2.347066008976409
 30
0.0
 11
8.732929749770896
 21
2.382173799276526
 31
0.0
  0
LINE
  5
2B4
330
2
100
AcDbEntity
  8
0
100
AcDbLine
 10
8.732929749770896
 20
2.382173799276526
 30
0.0
 11
8.722998986370889
 21
2.413925059676441
 31
0.0
  0
LINE
  5
2B5
330
2
100
AcDbEntity
  8
0
100
AcDbLine
 10
8.722998986370889
 20
2.413925059676441
 30
0.0
 11
8.712705191870832
 21
2.442481908776582
 31
0.0
  0
LINE
  5
2B6
330
2
100
AcDbEntity
  8
0
100
AcDbLine
 10
8.712705191870832
 20
2.442481908776582
 30
0.0
 11
8.701998840170795
 21
2.467970441876442
 31
0.0
  0
LINE
  5
2B7
330
2
100
AcDbEntity
  8
0
100
AcDbLine
 10
8.701998840170795
 20
2.467970441876442
 30
0.0
 11
8.690787464570853
 21
2.490474375976529
 31
0.0
  0
LINE
  5
2B8
330
2
100
AcDbEntity
  8
0
100
AcDbLine
 10
8.690787464570853
 20
2.490474375976529
 30
0.0
 11
8.678961820170848
 21
2.509932307376513
 31
0.0
  0
LINE
  5
2B9
330
2
100
AcDbEntity
  8
0
100
AcDbLine
 10
8.678961820170848
 20
2.509932307376513
 30
0.0
 11
8.66638397107095
 21
2.526126267376522
 31
0.0
  0
LINE
  5
2BA
330
2
100
AcDbEntity
  8
0
100
AcDbLine
 10
8.66638397107095
 20
2.526126267376522
 30
0.0
 11
8.652908902170843
 21
2.538605805476546
 31
0.0
  0
LINE
  5
2BB
330
2
100
AcDbEntity
  8
0
100
AcDbLine
 10
8.652908902170843
 20
2.538605805476546
 30
0.0
 11
8.638757180370753
 21
2.546510903376539
 31
0.0
  0
LINE
  5
2BC
330
2
100
AcDbEntity
  8
0
100
AcDbLine
 10
8.638757180370753
 20
2.546510903376539
 30
0.0
 11
8.624634250970807
 21
2.549224003176615
 31
0.0
  0
LINE
  5
2BD
330
2
100
AcDbEntity
  8
0
100
AcDbLine
 10
8.624634250970807
 20
2.549224003176615
 30
0.0
 11
8.610436719670865
 21
2.546786956776597
 31
0.0
  0
LINE
  5
2BE
330
2
100
AcDbEntity
  8
0
100
AcDbLine
 10
8.610436719670865
 20
2.546786956776597
 30
0.0
 11
8.596194593570822
 21
2.539096936376492
 31
0.0
  0
LINE
  5
2BF
330
2
100
AcDbEntity
  8
0
100
AcDbLine
 10
8.596194593570822
 20
2.539096936376492
 30
0.0
 11
8.582648507670733
 21
2.526783372976407
 31
0.0
  0
LINE
  5
2C0
330
2
100
AcDbEntity
  8
0
100
AcDbLine
 10
8.582648507670733
 20
2.526783372976407
 30
0.0
 11
8.569986841070936
 21
2.510681044676513
 31
0.0
  0
LINE
  5
2C1
330
2
100
AcDbEntity
  8
0
100
AcDbLine
 10
8.569986841070936
 20
2.510681044676513
 30
0.0
 11
8.558090631170948
 21
2.491278693576415
 31
0.0
  0
LINE
  5
2C2
330
2
100
AcDbEntity
  8
0
100
AcDbLine
 10
8.558090631170948
 20
2.491278693576415
 30
0.0
 11
8.54681769027075
 21
2.468802209376573
 31
0.0
  0
LINE
  5
2C3
330
2
100
AcDbEntity
  8
0
100
AcDbLine
 10
8.54681769027075
 20
2.468802209376573
 30
0.0
 11
8.536057877270928
 21
2.443321751476443
 31
0.0
  0
LINE
  5
2C4
330
2
100
AcDbEntity
  8
0
100
AcDbLine
 10
8.536057877270928
 20
2.443321751476443
 30
0.0
 11
8.525718333970922
 21
2.414761808576596
 31
0.0
  0
LINE
  5
2C5
330
2
100
AcDbEntity
  8
0
100
AcDbLine
 10
8.525718333970922
 20
2.414761808576596
 30
0.0
 11
8.515746687570804
 21
2.382995059576498
 31
0.0
  0
LINE
  5
2C6
330
2
100
AcDbEntity
  8
0
100
AcDbLine
 10
8.515746687570804
 20
2.382995059576498
 30
0.0
 11
8.506120799570731
 21
2.347862359176471
 31
0.0
  0
LINE
  5
2C7
330
2
100
AcDbEntity
  8
0
100
AcDbLine
 10
8.506120799570731
 20
2.347862359176471
 30
0.0
 11
8.496835803870731
 21
2.309155018076464
 31
0.0
  0
LINE
  5
2C8
330
2
100
AcDbEntity
  8
0
100
AcDbLine
 10
8.496835803870731
 20
2.309155018076464
 30
0.0
 11
8.487905309570856
 21
2.266626791876544
 31
0.0
  0
LINE
  5
2C9
330
2
100
AcDbEntity
  8
0
100
AcDbLine
 10
8.487905309570856
 20
2.266626791876544
 30
0.0
 11
8.479359250570774
 21
2.219985305676456
 31
0.0
  0
LINE
  5
2CA
330
2
100
AcDbEntity
  8
0
100
AcDbLine
 10
8.479359250570774
 20
2.219985305676456
 30
0.0
 11
8.471243806170882
 21
2.168877662876522
 31
0.0
  0
LINE
  5
2CB
330
2
100
AcDbEntity
  8
0
100
AcDbLine
 10
8.471243806170882
 20
2.168877662876522
 30
0.0
 11
8.463632465370942
 21
2.112940624576478
 31
0.0
  0
LINE
  5
2CC
330
2
100
AcDbEntity
  8
0
100
AcDbLine
 10
8.463632465370942
 20
2.112940624576478
 30
0.0
 11
8.456620541470834
 21
2.051742866876449
 31
0.0
  0
LINE
  5
2CD
330
2
100
AcDbEntity
  8
0
100
AcDbLine
 10
8.456620541470834
 20
2.051742866876449
 30
0.0
 11
8.450334904470815
 21
1.984799814376512
 31
0.0
  0
LINE
  5
2CE
330
2
100
AcDbEntity
  8
0
100
AcDbLine
 10
8.450334904470815
 20
1.984799814376512
 30
0.0
 11
8.444941546270734
 21
1.911550791076589
 31
0.0
  0
LINE
  5
2CF
330
2
100
AcDbEntity
  8
0
100
AcDbLine
 10
8.444941546270734
 20
1.911550791076589
 30
0.0
 11
8.440661295270779
 21
1.831380101876556
 31
0.0
  0
LINE
  5
2D0
330
2
100
AcDbEntity
  8
0
100
AcDbLine
 10
8.440661295270779
 20
1.831380101876556
 30
0.0
 11
8.43778777887092
 21
1.743596414776556
 31
0.0
  0
LINE
  5
2D1
330
2
100
AcDbEntity
  8
0
100
AcDbLine
 10
8.43778777887092
 20
1.743596414776556
 30
0.0
 11
8.436903139021489
 21
1.377328618174586
 31
0.0
  0
LINE
  5
2D6
330
2
100
AcDbEntity
  8
0
100
AcDbLine
 10
-9.874403139021482
 20
11.91599999999997
 30
0.0
 11
-9.874403139021482
 21
2.105037001685483
 31
0.0
  0
LINE
  5
2D7
330
2
100
AcDbEntity
  8
0
100
AcDbLine
 10
-9.824403139021484
 20
11.91599999999998
 30
0.0
 11
-9.824403139021484
 21
2.033629601348386
 31
0.0
  0
LINE
  5
2D8
330
2
100
AcDbEntity
  8
0
100
AcDbLine
 10
-8.999403139021482
 20
4.997999999999971
 30
0.0
 11
-8.999403139021474
 21
11.27519722692673
 31
0.0
  0
LINE
  5
2D9
330
2
100
AcDbEntity
  8
0
  6
HIDDEN2
100
AcDbLine
 10
-8.030653139021482
 20
0.0729999999999738
 30
0.0
 11
-8.030653139021453
 21
1.635499999999952
 31
0.0
  0
LINE
  5
2DA
330
2
100
AcDbEntity
  8
0
  6
HIDDEN2
100
AcDbLine
 10
-8.218153139021474
 20
0.0729999999999738
 30
0.0
 11
-8.218153139021453
 21
1.635499999999952
 31
0.0
  0
LINE
  5
2DB
330
2
100
AcDbEntity
  8
0
100
AcDbLine
 10
-7.624403139021339
 20
0.2034999999999325
 30
0.0
 11
-7.624403139021567
 21
1.586138852532367
 31
0.0
  0
LINE
  5
2DC
330
2
100
AcDbEntity
  8
0
  6
HIDDEN2
100
AcDbLine
 10
-9.030653139021453
 20
2.197999999999954
 30
0.0
 11
-9.030653139021482
 21
0.0729999999999738
 31
0.0
  0
LINE
  5
2DD
330
2
100
AcDbEntity
  8
0
  6
HIDDEN2
100
AcDbLine
 10
-9.218153139021453
 20
2.197999999999954
 30
0.0
 11
-9.218153139021482
 21
0.0729999999999738
 31
0.0
  0
LINE
  5
2DE
330
2
100
AcDbEntity
  8
0
100
AcDbLine
 10
-9.624403139021567
 20
1.586138852532367
 30
0.0
 11
-9.624403139021567
 21
0.2034999999999325
 31
0.0
  0
LINE
  5
2E3
330
2
100
AcDbEntity
  8
0
100
AcDbLine
 10
-8.424403139021521
 20
0.7452605845752434
 30
0.0
 11
-8.574403139021499
 21
0.7680000000000238
 31
0.0
  0
LINE
  5
2E4
330
2
100
AcDbEntity
  8
0
100
AcDbLine
 10
-8.574403139021385
 20
0.7679999999999101
 30
0.0
 11
-8.424403139021408
 21
0.9429999999999783
 31
0.0
  0
ARC
  5
2E5
330
2
100
AcDbEntity
  8
0
100
AcDbCircle
 10
-8.424403139021464
 20
0.8804999999999783
 30
0.0
 40
0.1875
100
AcDbArc
 50
216.869897645846
 51
323.1301023541623
  0
LINE
  5
2E6
330
2
100
AcDbEntity
  8
0
100
AcDbLine
 10
-8.424403139021521
 20
0.7452605845752434
 30
0.0
 11
-8.424403139021408
 21
0.9429999999998646
 31
0.0
  0
LINE
  5
2E7
330
2
100
AcDbEntity
  8
0
100
AcDbLine
 10
-8.424403139021521
 20
0.7452605845752434
 30
0.0
 11
-8.274403139021487
 21
0.7679999999999101
 31
0.0
  0
LINE
  5
2E8
330
2
100
AcDbEntity
  8
0
100
AcDbLine
 10
-8.424403139021408
 20
0.9429999999999783
 30
0.0
 11
-8.27440313902143
 21
0.7679999999999101
 31
0.0
  0
ARC
  5
2F0
330
2
100
AcDbEntity
  8
0
100
AcDbCircle
 10
-8.497635372068558
 20
5.206874548139506
 30
0.0
 40
0.5025
100
AcDbArc
 50
180.0
 51
225.0000000000001
  0
LINE
  5
2F1
330
2
100
AcDbEntity
  8
0
100
AcDbLine
 10
-9.006731823897759
 20
4.403225077265663
 30
0.0
 11
-8.843981823864993
 21
4.497188833332501
 31
0.0
  0
LINE
  5
2F2
330
2
100
AcDbEntity
  8
0
100
AcDbLine
 10
-9.00673182386501
 20
4.645279177624172
 30
0.0
 11
-8.843981823864993
 21
4.551315421069031
 31
0.0
  0
LINE
  5
2F3
330
2
100
AcDbEntity
  8
0
100
AcDbLine
 10
-8.824403139021499
 20
1.020260584575221
 30
0.0
 11
-8.974403139021476
 21
1.043000000000001
 31
0.0
  0
ARC
  5
2F4
330
2
100
AcDbEntity
  8
0
100
AcDbCircle
 10
-8.824403139021442
 20
1.155499999999956
 30
0.0
 40
0.1875
100
AcDbArc
 50
216.869897645846
 51
323.1301023541623
  0
LINE
  5
2F5
330
2
100
AcDbEntity
  8
0
100
AcDbLine
 10
-8.974403139021362
 20
1.042999999999887
 30
0.0
 11
-8.824403139021385
 21
1.217999999999842
 31
0.0
  0
ARC
  5
2F6
330
2
100
AcDbEntity
  8
0
100
AcDbCircle
 10
-7.621903139021555
 20
3.487235042592939
 30
0.0
 40
1.002500000000012
100
AcDbArc
 50
180.0000000000002
 51
214.9999999999975
1001
_DIE112SSJYHX
1002
{
1000
comp_type
1000
DBL24
1000
material
1000
D-2
1000
thickness
1040
1.25
1000
mount
1000
SBP10
1000
mntlay
1000
DIE_SUB_PLATE
1002
}
  0
LINE
  5
2F7
330
2
100
AcDbEntity
  8
0
100
AcDbLine
 10
-7.714374996987814
 20
1.871493129617038
 30
0.0
 11
-8.443103063421305
 21
2.912224665151047
 31
0.0
  0
ARC
  5
2F8
330
2
100
AcDbEntity
  8
0
100
AcDbCircle
 10
-8.121903139021569
 20
1.586138852532367
 30
0.0
 40
0.4975
100
AcDbArc
 50
0.000000000000007
 51
35.00000000000366
1001
_DIE112SSJYHX
1002
{
1000
comp_type
1000
DBL24
1000
material
1000
D-2
1000
thickness
1040
1.25
1000
mount
1000
SBP10
1000
mntlay
1000
DIE_SUB_PLATE
1002
}
  0
POINT
  5
2F9
330
2
100
AcDbEntity
  8
0
  6
ByBlock
 62
     0
100
AcDbPoint
 10
-7.624403139021482
 20
1.747999999999969
 30
0.0
  0
LINE
  5
2FA
330
2
100
AcDbEntity
  8
0
100
AcDbLine
 10
-8.77728321607087
 20
2.168260034176566
 30
0.0
 11
-8.769191778370939
 21
2.219311956276552
 31
0.0
  0
LINE
  5
2FB
330
2
100
AcDbEntity
  8
0
100
AcDbLine
 10
-8.479359250570766
 20
2.219985305676456
 30
0.0
 11
-8.471243806170875
 21
2.168877662876522
 31
0.0
  0
LINE
  5
2FC
330
2
100
AcDbEntity
  8
0
100
AcDbLine
 10
-8.450334904470807
 20
1.984799814376512
 30
0.0
 11
-8.444941546270727
 21
1.911550791076589
 31
0.0
  0
ARC
  5
2FD
330
2
100
AcDbEntity
  8
0
100
AcDbCircle
 10
-8.496903139021484
 20
1.377328618174586
 30
0.0
 40
0.06
100
AcDbArc
 50
270.0000000000004
 51
359.9999999999999
  0
ARC
  5
2FE
330
2
100
AcDbEntity
  8
0
100
AcDbCircle
 10
-8.624403139021482
 20
1.442328618174591
 30
0.0
 40
0.1874999999999982
100
AcDbArc
 50
0.000000000000007
 51
180.0
  0
ARC
  5
2FF
330
2
100
AcDbEntity
  8
0
100
AcDbCircle
 10
-8.624403139021482
 20
1.442328618174591
 30
0.0
 40
0.1874999999999982
100
AcDbArc
 50
0.000000000000007
 51
180.0
  0
LINE
  5
300
330
2
100
AcDbEntity
  8
0
100
AcDbLine
 10
-8.437787778870913
 20
1.743596414776556
 30
0.0
 11
-8.436903139021482
 21
1.377328618174586
 31
0.0
  0
ARC
  5
301
330
2
100
AcDbEntity
  8
0
  6
HIDDEN2
100
AcDbCircle
 10
-8.124403139021453
 20
1.635499999999952
 30
0.0
 40
0.09375
100
AcDbArc
 50
0.000000000000007
 51
180.0
  0
LINE
  5
302
330
2
100
AcDbEntity
  8
0
100
AcDbLine
 10
-8.444941546270727
 20
1.911550791076589
 30
0.0
 11
-8.440661295270772
 21
1.831380101876556
 31
0.0
  0
LINE
  5
303
330
2
100
AcDbEntity
  8
0
100
AcDbLine
 10
-8.440661295270772
 20
1.831380101876556
 30
0.0
 11
-8.437787778870913
 21
1.743596414776556
 31
0.0
  0
LINE
  5
304
330
2
100
AcDbEntity
  8
0
100
AcDbLine
 10
-8.811903139021482
 20
1.377328618174586
 30
0.0
 11
-8.810650942070922
 21
1.74347841297651
 31
0.0
  0
LINE
  5
305
330
2
100
AcDbEntity
  8
0
100
AcDbLine
 10
-8.824403139021499
 20
1.020260584575221
 30
0.0
 11
-8.674403139021464
 21
1.042999999999887
 31
0.0
  0
LINE
  5
306
330
2
100
AcDbEntity
  8
0
100
AcDbLine
 10
-8.824403139021385
 20
1.217999999999842
 30
0.0
 11
-8.674403139021408
 21
1.042999999999887
 31
0.0
  0
LINE
  5
307
330
2
100
AcDbEntity
  8
0
100
AcDbLine
 10
-8.751903139021479
 20
1.317328618174583
 30
0.0
 11
-8.496903139021484
 21
1.317328618174583
 31
0.0
  0
POINT
  5
308
330
2
100
AcDbEntity
  8
0
  6
ByBlock
 62
     0
100
AcDbPoint
 10
-8.751903139021479
 20
1.317328618174583
 30
0.0
  0
ARC
  5
309
330
2
100
AcDbEntity
  8
0
100
AcDbCircle
 10
-8.751903139021479
 20
1.377328618174586
 30
0.0
 40
0.06
100
AcDbArc
 50
180.0000000000001
 51
269.9999999999998
  0
LINE
  5
30A
330
2
100
AcDbEntity
  8
0
100
AcDbLine
 10
-8.824403139021499
 20
1.020260584575221
 30
0.0
 11
-8.824403139021385
 21
1.217999999999842
 31
0.0
  0
POINT
  5
30B
330
2
100
AcDbEntity
  8
0
  6
ByBlock
 62
     0
100
AcDbPoint
 10
-8.624403139021482
 20
1.629828618174587
 30
0.0
  0
POINT
  5
30C
330
2
100
AcDbEntity
  8
0
  6
ByBlock
 62
     0
100
AcDbPoint
 10
-8.624403139021482
 20
1.629828618174587
 30
0.0
  0
POINT
  5
30D
330
2
100
AcDbEntity
  8
0
  6
ByBlock
 62
     0
100
AcDbPoint
 10
-8.624403139021482
 20
1.629828618174587
 30
0.0
  0
POINT
  5
30E
330
2
100
AcDbEntity
  8
0
  6
ByBlock
 62
     0
100
AcDbPoint
 10
-8.624403139021482
 20
1.629828618174587
 30
0.0
  0
LINE
  5
30F
330
2
100
AcDbEntity
  8
0
100
AcDbLine
 10
-8.471243806170875
 20
2.168877662876522
 30
0.0
 11
-8.463632465370935
 21
2.112940624576478
 31
0.0
  0
LINE
  5
310
330
2
100
AcDbEntity
  8
0
100
AcDbLine
 10
-8.463632465370935
 20
2.112940624576478
 30
0.0
 11
-8.456620541470826
 21
2.051742866876449
 31
0.0
  0
LINE
  5
311
330
2
100
AcDbEntity
  8
0
100
AcDbLine
 10
-8.456620541470826
 20
2.051742866876449
 30
0.0
 11
-8.450334904470807
 21
1.984799814376512
 31
0.0
  0
LINE
  5
312
330
2
100
AcDbEntity
  8
0
100
AcDbLine
 10
-8.810650942070922
 20
1.74347841297651
 30
0.0
 11
-8.807784514370766
 21
1.831155638876561
 31
0.0
  0
LINE
  5
313
330
2
100
AcDbEntity
  8
0
100
AcDbLine
 10
-8.807784514370766
 20
1.831155638876561
 30
0.0
 11
-8.803514944570722
 21
1.911230283776487
 31
0.0
  0
LINE
  5
314
330
2
100
AcDbEntity
  8
0
100
AcDbLine
 10
-8.803514944570722
 20
1.911230283776487
 30
0.0
 11
-8.79813528957088
 21
1.984392941076404
 31
0.0
  0
LINE
  5
315
330
2
100
AcDbEntity
  8
0
100
AcDbLine
 10
-8.79813528957088
 20
1.984392941076404
 30
0.0
 11
-8.791866094070926
 21
2.05125784047652
 31
0.0
  0
LINE
  5
316
330
2
100
AcDbEntity
  8
0
100
AcDbLine
 10
-8.791866094070926
 20
2.05125784047652
 30
0.0
 11
-8.784873126470799
 21
2.11238556737646
 31
0.0
  0
LINE
  5
317
330
2
100
AcDbEntity
  8
0
100
AcDbLine
 10
-8.784873126470799
 20
2.11238556737646
 30
0.0
 11
-8.77728321607087
 21
2.168260034176566
 31
0.0
  0
LINE
  5
318
330
2
100
AcDbEntity
  8
0
100
AcDbLine
 10
-8.701998840170788
 20
2.467970441876442
 30
0.0
 11
-8.690787464570846
 21
2.490474375976529
 31
0.0
  0
LINE
  5
319
330
2
100
AcDbEntity
  8
0
100
AcDbLine
 10
-8.690787464570846
 20
2.490474375976529
 30
0.0
 11
-8.678961820170841
 21
2.509932307376513
 31
0.0
  0
LINE
  5
31A
330
2
100
AcDbEntity
  8
0
100
AcDbLine
 10
-8.678961820170841
 20
2.509932307376513
 30
0.0
 11
-8.666383971070943
 21
2.526126267376522
 31
0.0
  0
LINE
  5
31B
330
2
100
AcDbEntity
  8
0
100
AcDbLine
 10
-8.666383971070943
 20
2.526126267376522
 30
0.0
 11
-8.652908902170836
 21
2.538605805476546
 31
0.0
  0
LINE
  5
31C
330
2
100
AcDbEntity
  8
0
100
AcDbLine
 10
-8.652908902170836
 20
2.538605805476546
 30
0.0
 11
-8.638757180370746
 21
2.546510903376539
 31
0.0
  0
LINE
  5
31D
330
2
100
AcDbEntity
  8
0
100
AcDbLine
 10
-8.6246342509708
 20
2.549224003176615
 30
0.0
 11
-8.610436719670858
 21
2.546786956776597
 31
0.0
  0
LINE
  5
31E
330
2
100
AcDbEntity
  8
0
100
AcDbLine
 10
-8.610436719670858
 20
2.546786956776597
 30
0.0
 11
-8.596194593570814
 21
2.539096936376492
 31
0.0
  0
LINE
  5
31F
330
2
100
AcDbEntity
  8
0
100
AcDbLine
 10
-8.596194593570814
 20
2.539096936376492
 30
0.0
 11
-8.582648507670726
 21
2.526783372976407
 31
0.0
  0
LINE
  5
320
330
2
100
AcDbEntity
  8
0
100
AcDbLine
 10
-8.582648507670726
 20
2.526783372976407
 30
0.0
 11
-8.569986841070929
 21
2.510681044676513
 31
0.0
  0
LINE
  5
321
330
2
100
AcDbEntity
  8
0
100
AcDbLine
 10
-8.569986841070929
 20
2.510681044676513
 30
0.0
 11
-8.558090631170941
 21
2.491278693576415
 31
0.0
  0
LINE
  5
322
330
2
100
AcDbEntity
  8
0
100
AcDbLine
 10
-8.558090631170941
 20
2.491278693576415
 30
0.0
 11
-8.546817690270743
 21
2.468802209376573
 31
0.0
  0
LINE
  5
323
330
2
100
AcDbEntity
  8
0
100
AcDbLine
 10
-8.546817690270743
 20
2.468802209376573
 30
0.0
 11
-8.53605787727092
 21
2.443321751476443
 31
0.0
  0
LINE
  5
324
330
2
100
AcDbEntity
  8
0
100
AcDbLine
 10
-8.53605787727092
 20
2.443321751476443
 30
0.0
 11
-8.525718333970914
 21
2.414761808576596
 31
0.0
  0
LINE
  5
325
330
2
100
AcDbEntity
  8
0
100
AcDbLine
 10
-8.525718333970914
 20
2.414761808576596
 30
0.0
 11
-8.515746687570797
 21
2.382995059576498
 31
0.0
  0
LINE
  5
326
330
2
100
AcDbEntity
  8
0
100
AcDbLine
 10
-8.515746687570797
 20
2.382995059576498
 30
0.0
 11
-8.506120799570724
 21
2.347862359176471
 31
0.0
  0
LINE
  5
327
330
2
100
AcDbEntity
  8
0
100
AcDbLine
 10
-8.506120799570724
 20
2.347862359176471
 30
0.0
 11
-8.496835803870724
 21
2.309155018076464
 31
0.0
  0
LINE
  5
328
330
2
100
AcDbEntity
  8
0
100
AcDbLine
 10
-8.496835803870724
 20
2.309155018076464
 30
0.0
 11
-8.487905309570849
 21
2.266626791876544
 31
0.0
  0
LINE
  5
329
330
2
100
AcDbEntity
  8
0
100
AcDbLine
 10
-8.487905309570849
 20
2.266626791876544
 30
0.0
 11
-8.479359250570766
 21
2.219985305676456
 31
0.0
  0
LINE
  5
32A
330
2
100
AcDbEntity
  8
0
100
AcDbLine
 10
-8.638757180370746
 20
2.546510903376539
 30
0.0
 11
-8.6246342509708
 21
2.549224003176615
 31
0.0
  0
LINE
  5
32B
330
2
100
AcDbEntity
  8
0
100
AcDbLine
 10
-8.769191778370939
 20
2.219311956276552
 30
0.0
 11
-8.760672244370923
 21
2.26590559817657
 31
0.0
  0
LINE
  5
32C
330
2
100
AcDbEntity
  8
0
100
AcDbLine
 10
-8.760672244370923
 20
2.26590559817657
 30
0.0
 11
-8.751771365370857
 21
2.308392250376411
 31
0.0
  0
LINE
  5
32D
330
2
100
AcDbEntity
  8
0
100
AcDbLine
 10
-8.751771365370857
 20
2.308392250376411
 30
0.0
 11
-8.742519175670893
 21
2.347066008976409
 31
0.0
  0
LINE
  5
32E
330
2
100
AcDbEntity
  8
0
100
AcDbLine
 10
-8.742519175670893
 20
2.347066008976409
 30
0.0
 11
-8.732929749770889
 21
2.382173799276526
 31
0.0
  0
LINE
  5
32F
330
2
100
AcDbEntity
  8
0
100
AcDbLine
 10
-8.732929749770889
 20
2.382173799276526
 30
0.0
 11
-8.722998986370882
 21
2.413925059676441
 31
0.0
  0
LINE
  5
330
330
2
100
AcDbEntity
  8
0
100
AcDbLine
 10
-8.722998986370882
 20
2.413925059676441
 30
0.0
 11
-8.712705191870825
 21
2.442481908776582
 31
0.0
  0
LINE
  5
331
330
2
100
AcDbEntity
  8
0
100
AcDbLine
 10
-8.712705191870825
 20
2.442481908776582
 30
0.0
 11
-8.701998840170788
 21
2.467970441876442
 31
0.0
  0
ARC
  5
332
330
2
100
AcDbEntity
  8
0
100
AcDbCircle
 10
-9.122635372068785
 20
4.417660985765945
 30
0.0
 40
0.4975000000000007
100
AcDbArc
 50
0.000000000000007
 51
44.99999999998108
1001
_DIE112SSJYHX
1002
{
1000
comp_type
1000
DBL24
1000
material
1000
D-2
1000
thickness
1040
1.25
1000
mount
1000
SBP10
1000
mntlay
1000
DIE_SUB_PLATE
1002
}
  0
LINE
  5
333
330
2
100
AcDbEntity
  8
0
100
AcDbLine
 10
-8.624403139021567
 20
3.487235042592939
 30
0.0
 11
-8.625135372068783
 21
4.417660985765945
 31
0.0
  0
ARC
  5
334
330
2
100
AcDbEntity
  8
0
100
AcDbCircle
 10
-8.859606823864993
 20
4.524252127200764
 30
0.0
 40
0.03125
100
AcDbArc
 50
299.9999999999999
 51
60.00000000000286
  0
LINE
  5
335
330
2
100
AcDbEntity
  8
0
100
AcDbLine
 10
-8.770849748428148
 20
4.769446609406639
 30
0.0
 11
-8.852956529614815
 21
4.851553390593306
 31
0.0
  0
LINE
  5
336
330
2
100
AcDbEntity
  8
0
100
AcDbLine
 10
-9.71437499698753
 20
1.871493129617244
 30
0.0
 11
-9.874403139021339
 21
2.100037001685447
 31
0.0
  0
ARC
  5
337
330
2
100
AcDbEntity
  8
0
100
AcDbCircle
 10
-10.12190313902157
 20
1.586138852532367
 30
0.0
 40
0.4975
100
AcDbArc
 50
0.000000000000007
 51
35.00000000000366
1001
_DIE112SSJYHX
1002
{
1000
comp_type
1000
DBL24
1000
material
1000
D-2
1000
thickness
1040
1.25
1000
mount
1000
SBP10
1000
mntlay
1000
DIE_SUB_PLATE
1002
}
  0
ARC
  5
338
330
2
100
AcDbEntity
  8
0
  6
HIDDEN2
100
AcDbCircle
 10
-9.124403139021453
 20
2.197999999999954
 30
0.0
 40
0.09375
100
AcDbArc
 50
0.000000000000007
 51
180.0
  0
ARC
  5
339
330
2
100
AcDbEntity
  8
0
100
AcDbCircle
 10
-9.02235682386501
 20
4.618215883755905
 30
0.0
 40
0.03125
100
AcDbArc
 50
60.0000000000007
 51
180.0000000000026
  0
ARC
  5
33A
330
2
100
AcDbEntity
  8
0
100
AcDbCircle
 10
-9.02235682386501
 20
4.430288371134697
 30
0.0
 40
0.03125
100
AcDbArc
 50
179.9999999999976
 51
299.9999999999993
  0
LINE
  5
33B
330
2
100
AcDbEntity
  8
0
100
AcDbLine
 10
-9.053603139021476
 20
4.430768255661487
 30
0.0
 11
-9.05360313902149
 21
4.618695768264548
 31
0.0
  0
LINE
  5
33C
330
2
100
AcDbEntity
  8
0
100
AcDbLine
 10
-9.824403139021484
 20
5.246506350946083
 30
0.0
 11
-9.874403139021482
 21
5.246506350946083
 31
0.0
  0
LINE
  5
33D
330
2
100
AcDbEntity
  8
0
100
AcDbLine
 10
-9.824403139021484
 20
5.029999999999975
 30
0.0
 11
-9.874403139021482
 21
5.029999999999975
 31
0.0
  0
LINE
  5
33E
330
2
100
AcDbEntity
  8
0
  6
Continuous
100
AcDbLine
 10
-9.824403139021481
 20
10.26899235226182
 30
0.0
 11
-9.559083767143974
 21
10.00367298038432
 31
0.0
  0
LINE
  5
33F
330
2
100
AcDbEntity
  8
0
  6
Continuous
100
AcDbLine
 10
-9.81493005095605
 20
10.32457308806556
 30
0.0
 11
-9.526556855209392
 21
10.0361998923189
 31
0.0
  0
LINE
  5
340
330
2
100
AcDbEntity
  8
0
  6
Continuous
100
AcDbLine
 10
-9.581498153948175
 20
9.92002135001054
 30
0.0
 11
-9.822979610520449
 21
9.855316588734905
 31
0.0
  0
LINE
  5
341
330
2
100
AcDbEntity
  8
0
  6
Continuous
100
AcDbLine
 10
-9.569592477873457
 20
9.875588762001247
 30
0.0
 11
-9.81107393444573
 21
9.810884000725604
 31
0.0
  0
ARC
  5
342
330
2
100
AcDbEntity
  8
0
  6
Continuous
100
AcDbCircle
 10
-9.594439106203311
 20
9.96831764132499
 30
0.0
 40
0.05
100
AcDbArc
 50
284.9999999999996
 51
44.99999999999807
  0
ARC
  5
343
330
2
100
AcDbEntity
  8
0
  6
Continuous
100
AcDbCircle
 10
-9.594439106203311
 20
9.96831764132499
 30
0.0
 40
0.096
100
AcDbArc
 50
285.0000000000007
 51
44.99999999999807
  0
LINE
  5
344
330
2
100
AcDbEntity
  8
0
  6
Continuous
100
AcDbLine
 10
-9.822979610520449
 20
9.855316588734933
 30
0.0
 11
-9.811073934445744
 21
9.81088400072564
 31
0.0
  0
ARC
  5
345
330
2
100
AcDbEntity
  8
0
  6
Continuous
100
AcDbCircle
 10
-9.782403139021469
 20
10.35710000000014
 30
0.0
 40
0.046
100
AcDbArc
 50
204.0706146225166
 51
224.9999999999999
  0
ARC
  5
346
330
2
100
AcDbEntity
  8
0
  6
Continuous
100
AcDbCircle
 10
-9.759667578525242
 20
10.36350162342253
 30
0.0
 40
0.1148432675996877
100
AcDbArc
 50
188.4365649615204
 51
224.8347775975267
  0
LINE
  5
347
330
2
100
AcDbEntity
  8
0
100
AcDbLine
 10
-9.924403139021479
 20
11.96599999999998
 30
0.0
 11
-10.49940313902148
 21
11.96599999999998
 31
0.0
  0
LINE
  5
348
330
2
100
AcDbEntity
  8
0
100
AcDbLine
 10
-9.924403139021486
 20
12.01599999999997
 30
0.0
 11
-10.49940313902148
 21
12.01599999999997
 31
0.0
  0
LINE
  5
349
330
2
100
AcDbEntity
  8
0
100
AcDbLine
 10
-8.999403139021474
 20
11.09099999999997
 30
0.0
 11
-9.693048639228358
 21
11.09099999999998
 31
0.0
  0
LINE
  5
34A
330
2
100
AcDbEntity
  8
0
100
AcDbLine
 10
-9.249403139021482
 20
11.52519722692674
 30
0.0
 11
-9.759298639228348
 21
11.52519722692674
 31
0.0
  0
LINE
  5
34B
330
2
100
AcDbEntity
  8
0
100
AcDbLine
 10
-9.199403139021484
 20
11.47519722692674
 30
0.0
 11
-9.759298639228348
 21
11.47519722692674
 31
0.0
  0
LINE
  5
34C
330
2
100
AcDbEntity
  8
0
100
AcDbLine
 10
-8.999403139021474
 20
11.27519722692673
 30
0.0
 11
-9.249403139021482
 21
11.52519722692674
 31
0.0
  0
LINE
  5
34D
330
2
100
AcDbEntity
  8
0
100
AcDbLine
 10
-9.759298639228348
 20
11.52519722692674
 30
0.0
 11
-9.759298639228348
 21
11.21872651447523
 31
0.0
  0
ARC
  5
34E
330
2
100
AcDbEntity
  8
0
100
AcDbCircle
 10
-9.849298639228358
 20
11.09099999999998
 30
0.0
 40
0.15625
100
AcDbArc
 50
279.168078897781
 51
54.8303070761397
  0
ARC
  5
34F
330
2
100
AcDbEntity
  8
0
100
AcDbCircle
 10
-9.924403139021479
 20
11.91599999999997
 30
0.0
 40
0.05
100
AcDbArc
 50
0.000000000000007
 51
90.0
  0
ARC
  5
350
330
2
100
AcDbEntity
  8
0
100
AcDbCircle
 10
-9.924403139021486
 20
11.91599999999998
 30
0.0
 40
0.1
100
AcDbArc
 50
0.000000000000007
 51
90.0
  0
LINE
  5
351
330
2
100
AcDbEntity
  8
0
100
AcDbLine
 10
-10.49940313902148
 20
12.01599999999997
 30
0.0
 11
-10.49940313902148
 21
11.96599999999998
 31
0.0
  0
LINE
  5
370
330
2
100
AcDbEntity
  8
0
100
AcDbLine
 10
-7.624403139021474
 20
0.0729999999999734
 30
0.0
 11
-8.032282188611795
 21
0.0729999999999734
 31
0.0
  0
LINE
  5
371
330
2
100
AcDbEntity
  8
0
100
AcDbLine
 10
-8.218153139021474
 20
0.0729999999999734
 30
0.0
 11
-9.031467663816613
 21
0.0729999999999734
 31
0.0
  0
LINE
  5
372
330
2
100
AcDbEntity
  8
0
100
AcDbLine
 10
-9.217338614226293
 20
0.0729999999999734
 30
0.0
 11
-9.624403139021474
 21
0.0729999999999734
 31
0.0
  0
LINE
  5
373
330
2
100
AcDbEntity
  8
0
100
AcDbLine
 10
-7.624403139021474
 20
0.1229999999999777
 30
0.0
 11
-7.624403139021474
 21
0.0729999999999734
 31
0.0
  0
LINE
  5
374
330
2
100
AcDbEntity
  8
0
  6
Continuous
100
AcDbLine
 10
-7.624403139021474
 20
0.1229999999999777
 30
0.0
 11
-7.709756814982015
 21
0.1229999999999795
 31
0.0
  0
ARC
  5
375
330
2
100
AcDbEntity
  8
0
100
AcDbCircle
 10
-7.624403139021339
 20
0.1179999999999325
 30
0.0
 40
0.0855
100
AcDbArc
 50
90.0
 51
211.7568638592875
  0
LINE
  5
376
330
2
100
AcDbEntity
  8
0
  6
Continuous
100
AcDbLine
 10
-9.539049463060891
 20
0.1229999999999706
 30
0.0
 11
-9.624403139021482
 21
0.1229999999999724
 31
0.0
  0
ARC
  5
377
330
2
100
AcDbEntity
  8
0
100
AcDbCircle
 10
-9.624403139021567
 20
0.1179999999999325
 30
0.0
 40
0.0855
100
AcDbArc
 50
328.2431361407129
 51
90.0
  0
POINT
  5
378
330
2
100
AcDbEntity
  8
0
  6
ByBlock
100
AcDbPoint
 10
-9.624403139021482
 20
0.1229999999999724
 30
0.0
 50
180.0
  0
POINT
  5
379
330
2
100
AcDbEntity
  8
0
  6
ByBlock
100
AcDbPoint
 10
-9.624403139021482
 20
0.1229999999999724
 30
0.0
 50
180.0
  0
POINT
  5
37A
330
2
100
AcDbEntity
  8
0
  6
ByBlock
100
AcDbPoint
 10
-9.624403139021482
 20
0.1229999999999724
 30
0.0
 50
180.0
  0
POINT
  5
37B
330
2
100
AcDbEntity
  8
0
  6
ByBlock
100
AcDbPoint
 10
-9.624403139021482
 20
0.1229999999999724
 30
0.0
 50
180.0
  0
LINE
  5
37C
330
2
100
AcDbEntity
  8
0
100
AcDbLine
 10
-9.624403139021482
 20
0.1229999999999724
 30
0.0
 11
-9.624403139021474
 21
0.0729999999999734
 31
0.0
  0
LINE
  5
37D
330
2
100
AcDbEntity
  8
0
  6
HIDDEN
100
AcDbLine
 10
-9.539049463060891
 20
0.1229999999999706
 30
0.0
 11
-7.709756814982015
 21
0.1229999999999795
 31
0.0
  0
ARC
  5
37E
330
2
100
AcDbEntity
  8
0
100
AcDbCircle
 10
-9.124403139021453
 20
0.0853312589969534
 30
0.0
 40
0.09375
100
AcDbArc
 50
180.0
 51
0.0
  0
ARC
  5
37F
330
2
100
AcDbEntity
  8
0
100
AcDbCircle
 10
-8.125217663816635
 20
0.0853312589969534
 30
0.0
 40
0.09375
100
AcDbArc
 50
180.0
 51
0.0
  0
LINE
  5
395
330
2
100
AcDbEntity
  8
0
100
AcDbLine
 10
9.624403139021439
 20
0.0729999999999734
 30
0.0
 11
9.216524089431118
 21
0.0729999999999734
 31
0.0
  0
LINE
  5
396
330
2
100
AcDbEntity
  8
0
100
AcDbLine
 10
9.030653139021439
 20
0.0729999999999734
 30
0.0
 11
8.2173386142263
 21
0.0729999999999734
 31
0.0
  0
LINE
  5
397
330
2
100
AcDbEntity
  8
0
100
AcDbLine
 10
8.031467663816621
 20
0.0729999999999734
 30
0.0
 11
7.624403139021439
 21
0.0729999999999734
 31
0.0
  0
LINE
  5
398
330
2
100
AcDbEntity
  8
0
100
AcDbLine
 10
9.624403139021439
 20
0.1229999999999777
 30
0.0
 11
9.624403139021439
 21
0.0729999999999734
 31
0.0
  0
LINE
  5
399
330
2
100
AcDbEntity
  8
0
  6
Continuous
100
AcDbLine
 10
9.624403139021439
 20
0.1229999999999777
 30
0.0
 11
9.539049463060898
 21
0.1229999999999795
 31
0.0
  0
ARC
  5
39A
330
2
100
AcDbEntity
  8
0
100
AcDbCircle
 10
9.624403139021574
 20
0.1179999999999325
 30
0.0
 40
0.0855
100
AcDbArc
 50
90.0
 51
211.7568638592875
  0
LINE
  5
39B
330
2
100
AcDbEntity
  8
0
  6
Continuous
100
AcDbLine
 10
7.709756814982022
 20
0.1229999999999706
 30
0.0
 11
7.624403139021432
 21
0.1229999999999724
 31
0.0
  0
ARC
  5
39C
330
2
100
AcDbEntity
  8
0
100
AcDbCircle
 10
7.624403139021347
 20
0.1179999999999325
 30
0.0
 40
0.0855
100
AcDbArc
 50
328.2431361407129
 51
90.0
  0
POINT
  5
39D
330
2
100
AcDbEntity
  8
0
  6
ByBlock
100
AcDbPoint
 10
7.624403139021432
 20
0.1229999999999724
 30
0.0
 50
180.0
  0
POINT
  5
39E
330
2
100
AcDbEntity
  8
0
  6
ByBlock
100
AcDbPoint
 10
7.624403139021432
 20
0.1229999999999724
 30
0.0
 50
180.0
  0
POINT
  5
39F
330
2
100
AcDbEntity
  8
0
  6
ByBlock
100
AcDbPoint
 10
7.624403139021432
 20
0.1229999999999724
 30
0.0
 50
180.0
  0
POINT
  5
3A0
330
2
100
AcDbEntity
  8
0
  6
ByBlock
100
AcDbPoint
 10
7.624403139021432
 20
0.1229999999999724
 30
0.0
 50
180.0
  0
LINE
  5
3A1
330
2
100
AcDbEntity
  8
0
100
AcDbLine
 10
7.624403139021432
 20
0.1229999999999724
 30
0.0
 11
7.624403139021439
 21
0.0729999999999734
 31
0.0
  0
LINE
  5
3A2
330
2
100
AcDbEntity
  8
0
  6
HIDDEN
100
AcDbLine
 10
7.709756814982022
 20
0.1229999999999706
 30
0.0
 11
9.539049463060898
 21
0.1229999999999795
 31
0.0
  0
ARC
  5
3A3
330
2
100
AcDbEntity
  8
0
100
AcDbCircle
 10
8.12440313902146
 20
0.0853312589969534
 30
0.0
 40
0.09375
100
AcDbArc
 50
180.0
 51
0.0
  0
ARC
  5
3A4
330
2
100
AcDbEntity
  8
0
100
AcDbCircle
 10
9.123588614226279
 20
0.0853312589969534
 30
0.0
 40
0.09375
100
AcDbArc
 50
180.0
 51
0.0
  0
LINE
  5
3A5
330
2
100
AcDbEntity
  8
0
  6
HIDDEN
100
AcDbLine
 10
-1.112499999999997
 20
11.96599999999998
 30
0.0
 11
-1.487500000000019
 21
11.96599999999998
 31
0.0
  0
LINE
  5
3A6
330
2
100
AcDbEntity
  8
0
  6
HIDDEN
100
AcDbLine
 10
1.112500000000004
 20
11.96599999999998
 30
0.0
 11
1.487500000000011
 21
11.96599999999998
 31
0.0
  0
LINE
  5
3A7
330
2
100
AcDbEntity
  8
0
  6
HIDDEN
100
AcDbLine
 10
-1.649225413175458
 20
18.91798413167575
 30
0.0
 11
-1.274225413175437
 21
18.91798413167575
 31
0.0
  0
LINE
  5
3A8
330
2
100
AcDbEntity
  8
0
  6
HIDDEN
100
AcDbLine
 10
1.274225413175444
 20
18.91798413167575
 30
0.0
 11
1.649225413175465
 21
18.91798413167575
 31
0.0
  0
ENDSEC
  0
SECTION
  2
OBJECTS
  0
DICTIONARY
  5
9
330
0
100
AcDbDictionary
281
     1
  3
ACAD_COLOR
350
355
  3
ACAD_GROUP
350
23
  3
ACAD_LAYOUT
350
D
  3
ACAD_MATERIAL
350
354
  3
ACAD_MLINESTYLE
350
24
  3
ACAD_PLOTSETTINGS
350
25
  3
ACAD_PLOTSTYLENAME
350
8
  3
ACAD_TABLESTYLE
350
356
  3
ACDBHEADERROUNDTRIPXREC
350
3BA
  3
AcDbVariableDictionary
350
16D
  0
DICTIONARY
  5
355
102
{ACAD_REACTORS
330
9
102
}
330
9
100
AcDbDictionary
281
     1
  0
DICTIONARY
  5
23
102
{ACAD_REACTORS
330
9
102
}
330
9
100
AcDbDictionary
281
     1
  0
DICTIONARY
  5
D
102
{ACAD_REACTORS
330
9
102
}
330
9
100
AcDbDictionary
281
     1
  3
Layout1
350
13
  3
Model
350
C
  0
DICTIONARY
  5
354
102
{ACAD_REACTORS
330
9
102
}
330
9
100
AcDbDictionary
281
     1
  0
DICTIONARY
  5
24
102
{ACAD_REACTORS
330
9
102
}
330
9
100
AcDbDictionary
281
     1
  3
STANDARD
350
27
  0
DICTIONARY
  5
25
102
{ACAD_REACTORS
330
9
102
}
330
9
100
AcDbDictionary
281
     1
  0
ACDBDICTIONARYWDFLT
  5
8
102
{ACAD_REACTORS
330
9
102
}
330
9
100
AcDbDictionary
281
     1
  3
Normal
350
7
100
AcDbDictionaryWithDefault
340
7
  0
DICTIONARY
  5
356
102
{ACAD_REACTORS
330
9
102
}
330
9
100
AcDbDictionary
281
     1
  3
Standard
350
357
  0
DICTIONARY
  5
3BA
102
{ACAD_REACTORS
330
9
102
}
330
9
100
AcDbDictionary
281
     1
  3
COLORDICT
350
3BB
  3
MATERIALDICT
350
3BC
  0
DICTIONARY
  5
16D
102
{ACAD_REACTORS
330
9
102
}
330
9
100
AcDbDictionary
281
     1
  3
CTABLESTYLE
350
3B7
  3
HIDETEXT
350
3B9
  0
LAYOUT
  5
13
102
{ACAD_REACTORS
330
D
102
}
102
{ACAD_XDICTIONARY
360
3BD
102
}
330
D
100
AcDbPlotSettings
  1

  2
HP LaserJet 2100 Series PS
  4

  6

 40
0.0
 41
0.0
 42
0.0
 43
0.0
 44
0.0
 45
0.0
 46
0.0
 47
0.0
 48
0.0
 49
0.0
140
0.0
141
0.0
142
1.0
143
1.0
 70
   688
 72
     0
 73
     0
 74
     5
  7

 75
    16
147
1.0
148
0.0
149
0.0
100
AcDbLayout
  1
Layout1
 70
     0
 71
     1
 10
0.0
 20
0.0
 11
12.0
 21
9.0
 12
0.0
 22
0.0
 32
0.0
 14
1.000000000000000E+20
 24
1.000000000000000E+20
 34
1.000000000000000E+20
 15
-1.000000000000000E+20
 25
-1.000000000000000E+20
 35
-1.000000000000000E+20
146
0.0
 13
0.0
 23
0.0
 33
0.0
 16
1.0
 26
0.0
 36
0.0
 17
0.0
 27
1.0
 37
0.0
 76
     0
330
E
  0
LAYOUT
  5
C
102
{ACAD_REACTORS
330
D
102
}
102
{ACAD_XDICTIONARY
360
3BF
102
}
330
D
100
AcDbPlotSettings
  1

  2
HP LaserJet 2100 Series PS
  4
Letter
  6

 40
5.365749835968018
 41
5.386905193328857
 42
5.386917114257813
 43
5.365753173828125
 44
215.8999938964844
 45
279.3999938964844
 46
0.0
 47
0.0
 48
0.0
 49
0.0
140
0.0
141
0.0
142
1.0
143
1.0
 70
 11952
 72
     0
 73
     1
 74
     0
  7

 75
     0
147
1.0
148
-109.2120479562036
149
4.761312409500627
100
AcDbLayout
  1
Model
 70
     1
 71
     0
 10
0.0
 20
0.0
 11
12.0
 21
9.0
 12
0.0
 22
0.0
 32
0.0
 14
0.0
 24
0.0
 34
0.0
 15
0.0
 25
0.0
 35
0.0
146
0.0
 13
0.0
 23
0.0
 33
0.0
 16
1.0
 26
0.0
 36
0.0
 17
0.0
 27
1.0
 37
0.0
 76
     0
330
2
  0
MLINESTYLE
  5
27
102
{ACAD_REACTORS
330
24
102
}
330
24
100
AcDbMlineStyle
  2
STANDARD
 70
     0
  3

 62
   256
 51
90.0
 52
90.0
 71
     2
 49
0.5
 62
   256
  6
BYLAYER
 49
-0.5
 62
   256
  6
BYLAYER
  0
ACDBPLACEHOLDER
  5
7
102
{ACAD_REACTORS
330
8
102
}
330
8
  0
ACAD_PROXY_OBJECT
  5
357
102
{ACAD_REACTORS
330
356
102
}
330
356
100
AcDbProxyObject
 90
      499
 91
      561
 95
   983063
 70
     0
 93
     1841
310
4214DD185B99185C9928B81E85EB51B8AE3F2E07A17AD46E2B8FC02B5E8DC0F42B1CFD028000000C1008070000C3001FDFF8000000C1003FBFF000000182007F7FE00000030400FEFFC00000060801FDFF8000000C1003FBFF00000018200000000000000681FA0B0000001820100E000186003FBFF000000182007F7FE000
310
00030400FEFFC00000060801FDFF8000000C1003FBFF000000182007F7FE000000304000AD7A3703D0AC73F4160000003040201C00030C007F7FE00000030400FEFFC00000060801FDFF8000000C1003FBFF000000182007F7FE00000030400FEFFC000000608000
340
16
340
16
340
16
 94
        0
  0
XRECORD
  5
3BB
102
{ACAD_REACTORS
330
3BA
102
}
330
3BA
100
AcDbXrecord
340
355
  0
XRECORD
  5
3BC
102
{ACAD_REACTORS
330
3BA
102
}
330
3BA
100
AcDbXrecord
340
354
  0
DICTIONARYVAR
  5
3B7
102
{ACAD_REACTORS
330
16D
102
}
330
16D
100
DictionaryVariables
280
     0
  1
STANDARD
  0
DICTIONARYVAR
  5
3B9
102
{ACAD_REACTORS
330
16D
102
}
330
16D
100
DictionaryVariables
280
     0
  1
1
  0
DICTIONARY
  5
3BD
330
13
100
AcDbDictionary
280
     1
281
     1
  3
ACAD_XREC_ROUNDTRIP
360
3BE
  0
DICTIONARY
  5
3BF
330
C
100
AcDbDictionary
280
     1
281
     1
  3
ACAD_XREC_ROUNDTRIP
360
3C0
  0
XRECORD
  5
3BE
102
{ACAD_REACTORS
330
3BD
102
}
330
3BD
100
AcDbXrecord
102
SHADEPLOT
 70
     0
102
SHADEPLOTRESLEVEL
 70
     2
102
SHADEPLOTCUSTOMDPI
 70
   300
  0
XRECORD
  5
3C0
102
{ACAD_REACTORS
330
3BF
102
}
330
3BF
100
AcDbXrecord
102
SHADEPLOT
 70
     0
102
SHADEPLOTRESLEVEL
 70
     2
102
SHADEPLOTCUSTOMDPI
 70
   300
  0
ENDSEC
  0
EOF
