  0
SECTION
  2
HEADER
  9
$ACADVER
  1
AC1015
  9
$ACADMAINTVER
 70
     6
  9
$DWGCODEPAGE
  3
ANSI_1252
  9
$INSBASE
 10
0.0
 20
0.0
 30
0.0
  9
$EXTMIN
 10
-10.06959966122814
 20
-0.0414187410030461
 30
0.0
  9
$EXTMAX
 10
10.06959966122815
 20
18.95713407493508
 30
0.0
  9
$LIMMIN
 10
0.0
 20
0.0
  9
$LIMMAX
 10
24.0
 20
31.5
  9
$ORTHOMODE
 70
     1
  9
$REGENMODE
 70
     1
  9
$FILLMODE
 70
     1
  9
$QTEXTMODE
 70
     0
  9
$MIRRTEXT
 70
     0
  9
$LTSCALE
 40
0.6
  9
$ATTMODE
 70
     1
  9
$TEXTSIZE
 40
0.27
  9
$TRACEWID
 40
0.05
  9
$TEXTSTYLE
  7
STANDARD
  9
$CLAYER
  8
0
  9
$CELTYPE
  6
HIDDEN
  9
$CECOLOR
 62
   256
  9
$CELTSCALE
 40
1.0
  9
$DISPSILH
 70
     0
  9
$DIMSCALE
 40
3.0
  9
$DIMASZ
 40
0.125
  9
$DIMEXO
 40
0.062
  9
$DIMDLI
 40
0.375
  9
$DIMRND
 40
0.0
  9
$DIMDLE
 40
0.0
  9
$DIMEXE
 40
0.08
  9
$DIMTP
 40
0.0313
  9
$DIMTM
 40
0.0
  9
$DIMTXT
 40
0.09
  9
$DIMCEN
 40
-0.03125
  9
$DIMTSZ
 40
0.0
  9
$DIMTOL
 70
     0
  9
$DIMLIM
 70
     0
  9
$DIMTIH
 70
     1
  9
$DIMTOH
 70
     1
  9
$DIMSE1
 70
     0
  9
$DIMSE2
 70
     0
  9
$DIMTAD
 70
     0
  9
$DIMZIN
 70
     0
  9
$DIMBLK
  1

  9
$DIMASO
 70
     1
  9
$DIMSHO
 70
     0
  9
$DIMPOST
  1

  9
$DIMAPOST
  1

  9
$DIMALT
 70
     0
  9
$DIMALTD
 70
     2
  9
$DIMALTF
 40
25.4
  9
$DIMLFAC
 40
1.0
  9
$DIMTOFL
 70
     0
  9
$DIMTVP
 40
0.0
  9
$DIMTIX
 70
     0
  9
$DIMSOXD
 70
     0
  9
$DIMSAH
 70
     0
  9
$DIMBLK1
  1

  9
$DIMBLK2
  1

  9
$DIMSTYLE
  2
STANDARD
  9
$DIMCLRD
 70
     0
  9
$DIMCLRE
 70
     0
  9
$DIMCLRT
 70
     0
  9
$DIMTFAC
 40
1.0
  9
$DIMGAP
 40
0.09
  9
$DIMJUST
 70
     0
  9
$DIMSD1
 70
     0
  9
$DIMSD2
 70
     0
  9
$DIMTOLJ
 70
     1
  9
$DIMTZIN
 70
     0
  9
$DIMALTZ
 70
     0
  9
$DIMALTTZ
 70
     0
  9
$DIMUPT
 70
     1
  9
$DIMDEC
 70
     5
  9
$DIMTDEC
 70
     4
  9
$DIMALTU
 70
     2
  9
$DIMALTTD
 70
     2
  9
$DIMTXSTY
  7
STANDARD
  9
$DIMAUNIT
 70
     0
  9
$DIMADEC
 70
     0
  9
$DIMALTRND
 40
0.0
  9
$DIMAZIN
 70
     0
  9
$DIMDSEP
 70
    46
  9
$DIMATFIT
 70
     3
  9
$DIMFRAC
 70
     2
  9
$DIMLDRBLK
  1

  9
$DIMLUNIT
 70
     5
  9
$DIMLWD
 70
    -2
  9
$DIMLWE
 70
    -2
  9
$DIMTMOVE
 70
     2
  9
$LUNITS
 70
     2
  9
$LUPREC
 70
     4
  9
$SKETCHINC
 40
0.1
  9
$FILLETRAD
 40
0.0
  9
$AUNITS
 70
     0
  9
$AUPREC
 70
     0
  9
$MENU
  1
ACAD
  9
$ELEVATION
 40
0.0
  9
$PELEVATION
 40
0.0
  9
$THICKNESS
 40
0.0
  9
$LIMCHECK
 70
     0
  9
$CHAMFERA
 40
0.0
  9
$CHAMFERB
 40
0.0
  9
$CHAMFERC
 40
0.0
  9
$CHAMFERD
 40
0.0
  9
$SKPOLY
 70
     0
  9
$TDCREATE
 40
2449436.829454167
  9
$TDUCREATE
 40
2449437.1627875
  9
$TDUPDATE
 40
2454166.949408657
  9
$TDUUPDATE
 40
2454167.282741991
  9
$TDINDWG
 40
1.2605848032
  9
$TDUSRTIMER
 40
1.2605848032
  9
$USRTIMER
 70
     1
  9
$ANGBASE
 50
0.0
  9
$ANGDIR
 70
     0
  9
$PDMODE
 70
     0
  9
$PDSIZE
 40
0.0
  9
$PLINEWID
 40
0.0
  9
$SPLFRAME
 70
     0
  9
$SPLINETYPE
 70
     6
  9
$SPLINESEGS
 70
     8
  9
$HANDSEED
  5
3B0
  9
$SURFTAB1
 70
     6
  9
$SURFTAB2
 70
     6
  9
$SURFTYPE
 70
     6
  9
$SURFU
 70
     6
  9
$SURFV
 70
     6
  9
$UCSBASE
  2

  9
$UCSNAME
  2

  9
$UCSORG
 10
0.0
 20
0.0
 30
0.0
  9
$UCSXDIR
 10
1.0
 20
0.0
 30
0.0
  9
$UCSYDIR
 10
0.0
 20
1.0
 30
0.0
  9
$UCSORTHOREF
  2

  9
$UCSORTHOVIEW
 70
     0
  9
$UCSORGTOP
 10
0.0
 20
0.0
 30
0.0
  9
$UCSORGBOTTOM
 10
0.0
 20
0.0
 30
0.0
  9
$UCSORGLEFT
 10
0.0
 20
0.0
 30
0.0
  9
$UCSORGRIGHT
 10
0.0
 20
0.0
 30
0.0
  9
$UCSORGFRONT
 10
0.0
 20
0.0
 30
0.0
  9
$UCSORGBACK
 10
0.0
 20
0.0
 30
0.0
  9
$PUCSBASE
  2

  9
$PUCSNAME
  2

  9
$PUCSORG
 10
0.0
 20
0.0
 30
0.0
  9
$PUCSXDIR
 10
1.0
 20
0.0
 30
0.0
  9
$PUCSYDIR
 10
0.0
 20
1.0
 30
0.0
  9
$PUCSORTHOREF
  2

  9
$PUCSORTHOVIEW
 70
     0
  9
$PUCSORGTOP
 10
0.0
 20
0.0
 30
0.0
  9
$PUCSORGBOTTOM
 10
0.0
 20
0.0
 30
0.0
  9
$PUCSORGLEFT
 10
0.0
 20
0.0
 30
0.0
  9
$PUCSORGRIGHT
 10
0.0
 20
0.0
 30
0.0
  9
$PUCSORGFRONT
 10
0.0
 20
0.0
 30
0.0
  9
$PUCSORGBACK
 10
0.0
 20
0.0
 30
0.0
  9
$USERI1
 70
     0
  9
$USERI2
 70
     0
  9
$USERI3
 70
     0
  9
$USERI4
 70
     0
  9
$USERI5
 70
     0
  9
$USERR1
 40
0.0
  9
$USERR2
 40
0.0
  9
$USERR3
 40
0.0
  9
$USERR4
 40
0.0
  9
$USERR5
 40
0.0
  9
$WORLDVIEW
 70
     1
  9
$SHADEDGE
 70
     3
  9
$SHADEDIF
 70
    70
  9
$TILEMODE
 70
     1
  9
$MAXACTVP
 70
    16
  9
$PINSBASE
 10
0.0
 20
0.0
 30
0.0
  9
$PLIMCHECK
 70
     0
  9
$PEXTMIN
 10
1.000000000000000E+20
 20
1.000000000000000E+20
 30
1.000000000000000E+20
  9
$PEXTMAX
 10
-1.000000000000000E+20
 20
-1.000000000000000E+20
 30
-1.000000000000000E+20
  9
$PLIMMIN
 10
0.0
 20
0.0
  9
$PLIMMAX
 10
12.0
 20
9.0
  9
$UNITMODE
 70
     0
  9
$VISRETAIN
 70
     0
  9
$PLINEGEN
 70
     0
  9
$PSLTSCALE
 70
     0
  9
$TREEDEPTH
 70
  3020
  9
$CMLSTYLE
  2
STANDARD
  9
$CMLJUST
 70
     0
  9
$CMLSCALE
 40
1.0
  9
$PROXYGRAPHICS
 70
     1
  9
$MEASUREMENT
 70
     0
  9
$CELWEIGHT
370
    -1
  9
$ENDCAPS
280
     0
  9
$JOINSTYLE
280
     0
  9
$LWDISPLAY
290
     0
  9
$INSUNITS
 70
     0
  9
$HYPERLINKBASE
  1

  9
$STYLESHEET
  1

  9
$XEDIT
290
     1
  9
$CEPSNTYPE
380
     0
  9
$PSTYLEMODE
290
     1
  9
$FINGERPRINTGUID
  2
{7E1BADCE-439C-11D5-BE3F-00508B5FCD51}
  9
$VERSIONGUID
  2
{BDB516E4-DF91-4FF3-BB65-5BF4ED33803D}
  9
$EXTNAMES
290
     1
  9
$PSVPSCALE
 40
0.0
  9
$OLESTARTUP
290
     0
  0
ENDSEC
  0
SECTION
  2
CLASSES
  0
CLASS
  1
DICTIONARYVAR
  2
AcDbDictionaryVar
  3
AutoCAD 2000
 90
        0
280
     0
281
     0
  0
CLASS
  1
LWPOLYLINE
  2
AcDbPolyline
  3
AutoCAD 2000
 90
        0
280
     0
281
     1
  0
CLASS
  1
ACDBDICTIONARYWDFLT
  2
AcDbDictionaryWithDefault
  3
AutoCAD 2000
 90
        0
280
     0
281
     0
  0
CLASS
  1
ACDBPLACEHOLDER
  2
AcDbPlaceHolder
  3
ObjectDBX Classes
 90
        0
280
     0
281
     0
  0
CLASS
  1
LAYOUT
  2
AcDbLayout
  3
ObjectDBX Classes
 90
        0
280
     0
281
     0
  0
CLASS
  1
LONG_TRANSACTION
  2
AcDbLongTransaction
  3
ObjectDBX Classes
 90
   -65536
280
     1
281
     0
  0
CLASS
  1
LWPOLYLINE
  2
AcDbPolyline
  3
AutoCAD 2000
 90
        0
280
     0
281
     1
  0
CLASS
  1
HATCH
  2
AcDbHatch
  3
AutoCAD 2000
 90
        0
280
     0
281
     1
  0
CLASS
  1
XRECORD
  2
AcDbXrecord
  3
AutoCAD 2000
 90
        0
280
     0
281
     0
  0
CLASS
  1
LONG_TRANSACTION
  2
AcDbLongTransaction
  3
ObjectDBX Classes
 90
   -65536
280
     1
281
     0
  0
CLASS
  1
LWPOLYLINE
  2
AcDbPolyline
  3
AutoCAD 2000
 90
        0
280
     0
281
     1
  0
CLASS
  1
HATCH
  2
AcDbHatch
  3
AutoCAD 2000
 90
        0
280
     0
281
     1
  0
CLASS
  1
XRECORD
  2
AcDbXrecord
  3
AutoCAD 2000
 90
        0
280
     0
281
     0
  0
CLASS
  1
LONG_TRANSACTION
  2
AcDbLongTransaction
  3
ObjectDBX Classes
 90
   -65536
280
     1
281
     0
  0
CLASS
  1
LWPOLYLINE
  2
AcDbPolyline
  3
AutoCAD 2000
 90
        0
280
     0
281
     1
  0
CLASS
  1
HATCH
  2
AcDbHatch
  3
AutoCAD 2000
 90
        0
280
     0
281
     1
  0
CLASS
  1
XRECORD
  2
AcDbXrecord
  3
AutoCAD 2000
 90
        0
280
     0
281
     0
  0
CLASS
  1
OLE2FRAME
  2
AcDbOle2Frame
  3
AutoCAD 2000
 90
        0
280
     0
281
     1
  0
CLASS
  1
LONG_TRANSACTION
  2
AcDbLongTransaction
  3
ObjectDBX Classes
 90
   -65536
280
     1
281
     0
  0
CLASS
  1
LWPOLYLINE
  2
AcDbPolyline
  3
AutoCAD 2000
 90
        0
280
     0
281
     1
  0
CLASS
  1
HATCH
  2
AcDbHatch
  3
AutoCAD 2000
 90
        0
280
     0
281
     1
  0
CLASS
  1
XRECORD
  2
AcDbXrecord
  3
AutoCAD 2000
 90
        0
280
     0
281
     0
  0
CLASS
  1
LONG_TRANSACTION
  2
AcDbLongTransaction
  3
ObjectDBX Classes
 90
   -65536
280
     1
281
     0
  0
CLASS
  1
LWPOLYLINE
  2
AcDbPolyline
  3
AutoCAD 2000
 90
        0
280
     0
281
     1
  0
CLASS
  1
HATCH
  2
AcDbHatch
  3
AutoCAD 2000
 90
        0
280
     0
281
     1
  0
CLASS
  1
XRECORD
  2
AcDbXrecord
  3
AutoCAD 2000
 90
        0
280
     0
281
     0
  0
CLASS
  1
LONG_TRANSACTION
  2
AcDbLongTransaction
  3
ObjectDBX Classes
 90
   -65536
280
     1
281
     0
  0
CLASS
  1
LWPOLYLINE
  2
AcDbPolyline
  3
AutoCAD 2000
 90
        0
280
     0
281
     1
  0
CLASS
  1
HATCH
  2
AcDbHatch
  3
AutoCAD 2000
 90
        0
280
     0
281
     1
  0
CLASS
  1
XRECORD
  2
AcDbXrecord
  3
AutoCAD 2000
 90
        0
280
     0
281
     0
  0
CLASS
  1
LONG_TRANSACTION
  2
AcDbLongTransaction
  3
ObjectDBX Classes
 90
   -65536
280
     1
281
     0
  0
CLASS
  1
LWPOLYLINE
  2
AcDbPolyline
  3
AutoCAD 2000
 90
        0
280
     0
281
     1
  0
CLASS
  1
HATCH
  2
AcDbHatch
  3
AutoCAD 2000
 90
        0
280
     0
281
     1
  0
CLASS
  1
XRECORD
  2
AcDbXrecord
  3
AutoCAD 2000
 90
        0
280
     0
281
     0
  0
CLASS
  1
LONG_TRANSACTION
  2
AcDbLongTransaction
  3
ObjectDBX Classes
 90
   -65536
280
     1
281
     0
  0
CLASS
  1
LWPOLYLINE
  2
AcDbPolyline
  3
AutoCAD 2000
 90
        0
280
     0
281
     1
  0
CLASS
  1
HATCH
  2
AcDbHatch
  3
AutoCAD 2000
 90
        0
280
     0
281
     1
  0
CLASS
  1
XRECORD
  2
AcDbXrecord
  3
AutoCAD 2000
 90
        0
280
     0
281
     0
  0
CLASS
  1
LONG_TRANSACTION
  2
AcDbLongTransaction
  3
ObjectDBX Classes
 90
   -65536
280
     1
281
     0
  0
CLASS
  1
LWPOLYLINE
  2
AcDbPolyline
  3
AutoCAD 2000
 90
        0
280
     0
281
     1
  0
CLASS
  1
HATCH
  2
AcDbHatch
  3
AutoCAD 2000
 90
        0
280
     0
281
     1
  0
CLASS
  1
XRECORD
  2
AcDbXrecord
  3
AutoCAD 2000
 90
        0
280
     0
281
     0
  0
CLASS
  1
LONG_TRANSACTION
  2
AcDbLongTransaction
  3
ObjectDBX Classes
 90
   -65536
280
     1
281
     0
  0
CLASS
  1
LWPOLYLINE
  2
AcDbPolyline
  3
AutoCAD 2000
 90
        0
280
     0
281
     1
  0
CLASS
  1
HATCH
  2
AcDbHatch
  3
AutoCAD 2000
 90
        0
280
     0
281
     1
  0
CLASS
  1
XRECORD
  2
AcDbXrecord
  3
AutoCAD 2000
 90
        0
280
     0
281
     0
  0
CLASS
  1
LONG_TRANSACTION
  2
AcDbLongTransaction
  3
ObjectDBX Classes
 90
   -65536
280
     1
281
     0
  0
CLASS
  1
LWPOLYLINE
  2
AcDbPolyline
  3
AutoCAD 2000
 90
        0
280
     0
281
     1
  0
CLASS
  1
HATCH
  2
AcDbHatch
  3
AutoCAD 2000
 90
        0
280
     0
281
     1
  0
CLASS
  1
XRECORD
  2
AcDbXrecord
  3
AutoCAD 2000
 90
        0
280
     0
281
     0
  0
CLASS
  1
LONG_TRANSACTION
  2
AcDbLongTransaction
  3
ObjectDBX Classes
 90
   -65536
280
     1
281
     0
  0
CLASS
  1
LWPOLYLINE
  2
AcDbPolyline
  3
AutoCAD 2000
 90
        0
280
     0
281
     1
  0
CLASS
  1
HATCH
  2
AcDbHatch
  3
AutoCAD 2000
 90
        0
280
     0
281
     1
  0
CLASS
  1
XRECORD
  2
AcDbXrecord
  3
AutoCAD 2000
 90
        0
280
     0
281
     0
  0
CLASS
  1
LONG_TRANSACTION
  2
AcDbLongTransaction
  3
ObjectDBX Classes
 90
   -65536
280
     1
281
     0
  0
CLASS
  1
LWPOLYLINE
  2
AcDbPolyline
  3
AutoCAD 2000
 90
        0
280
     0
281
     1
  0
CLASS
  1
HATCH
  2
AcDbHatch
  3
AutoCAD 2000
 90
        0
280
     0
281
     1
  0
CLASS
  1
XRECORD
  2
AcDbXrecord
  3
AutoCAD 2000
 90
        0
280
     0
281
     0
  0
CLASS
  1
LONG_TRANSACTION
  2
AcDbLongTransaction
  3
ObjectDBX Classes
 90
   -65536
280
     1
281
     0
  0
CLASS
  1
LWPOLYLINE
  2
AcDbPolyline
  3
AutoCAD 2000
 90
        0
280
     0
281
     1
  0
CLASS
  1
HATCH
  2
AcDbHatch
  3
AutoCAD 2000
 90
        0
280
     0
281
     1
  0
CLASS
  1
XRECORD
  2
AcDbXrecord
  3
AutoCAD 2000
 90
        0
280
     0
281
     0
  0
CLASS
  1
TABLESTYLE
  2
AcDbTableStyle
  3
ObjectDBX Classes
 90
     2047
280
     1
281
     0
  0
ENDSEC
  0
SECTION
  2
TABLES
  0
TABLE
  2
VPORT
  5
1D
330
0
100
AcDbSymbolTable
 70
     3
  0
VPORT
  5
3A2
330
1D
100
AcDbSymbolTableRecord
100
AcDbViewportTableRecord
  2
*Active
 70
     0
 10
0.0
 20
0.0
 11
1.0
 21
1.0
 12
9.825525461869354
 22
10.33871681789292
 13
0.0
 23
0.0
 14
0.063
 24
0.063
 15
0.25
 25
0.25
 16
0.0
 26
0.0
 36
1.0
 17
0.0
 27
0.0
 37
0.0
 40
31.93722865565894
 41
1.814583333333333
 42
50.0
 43
0.0
 44
0.0
 50
0.0
 51
0.0
 71
     0
 72
   100
 73
     1
 74
     0
 75
     0
 76
     0
 77
     0
 78
     1
281
     0
 65
     1
110
0.0
120
0.0
130
0.0
111
1.0
121
0.0
131
0.0
112
0.0
122
1.0
132
0.0
 79
     0
146
0.0
  0
ENDTAB
  0
TABLE
  2
LTYPE
  5
18
330
0
100
AcDbSymbolTable
 70
     3
  0
LTYPE
  5
19
330
18
100
AcDbSymbolTableRecord
100
AcDbLinetypeTableRecord
  2
BYBLOCK
 70
     0
  3

 72
    65
 73
     0
 40
0.0
  0
LTYPE
  5
1A
330
18
100
AcDbSymbolTableRecord
100
AcDbLinetypeTableRecord
  2
BYLAYER
 70
     0
  3

 72
    65
 73
     0
 40
0.0
  0
LTYPE
  5
A
330
18
100
AcDbSymbolTableRecord
100
AcDbLinetypeTableRecord
  2
CONTINUOUS
 70
     0
  3
Solid line
 72
    65
 73
     0
 40
0.0
  0
LTYPE
  5
35
330
18
100
AcDbSymbolTableRecord
100
AcDbLinetypeTableRecord
  2
HIDDEN2
 70
     0
  3
Hidden (.5x) _ _ _ _ _ _ _ _ _ _ _ _ _ _ _ _ _
 72
    65
 73
     2
 40
0.1875
 49
0.125
 74
     0
 49
-0.0625
 74
     0
  0
LTYPE
  5
34F
330
18
100
AcDbSymbolTableRecord
100
AcDbLinetypeTableRecord
  2
HIDDEN
 70
     0
  3
Hidden __ __ __ __ __ __ __ __ __ __ __ __ __ _
 72
    65
 73
     2
 40
0.375
 49
0.25
 74
     0
 49
-0.125
 74
     0
  0
ENDTAB
  0
TABLE
  2
LAYER
  5
14
330
0
100
AcDbSymbolTable
 70
     1
  0
LAYER
  5
6
330
14
100
AcDbSymbolTableRecord
100
AcDbLayerTableRecord
  2
0
 70
     0
 62
     7
  6
CONTINUOUS
370
    -3
390
7
  0
ENDTAB
  0
TABLE
  2
STYLE
  5
15
330
0
100
AcDbSymbolTable
 70
     1
  0
STYLE
  5
16
330
15
100
AcDbSymbolTableRecord
100
AcDbTextStyleTableRecord
  2
STANDARD
 70
     0
 40
0.0
 41
1.0
 50
0.0
 71
     0
 42
0.27
  3
TXT
  4

  0
ENDTAB
  0
TABLE
  2
VIEW
  5
1B
330
0
100
AcDbSymbolTable
 70
     0
  0
ENDTAB
  0
TABLE
  2
UCS
  5
1C
330
0
100
AcDbSymbolTable
 70
     0
  0
ENDTAB
  0
TABLE
  2
APPID
  5
1F
330
0
100
AcDbSymbolTable
 70
     2
  0
APPID
  5
20
330
1F
100
AcDbSymbolTableRecord
100
AcDbRegAppTableRecord
  2
ACAD
 70
     0
  0
APPID
  5
48
330
1F
100
AcDbSymbolTableRecord
100
AcDbRegAppTableRecord
  2
_DIE112SSJYHX
 70
     0
  0
ENDTAB
  0
TABLE
  2
DIMSTYLE
  5
21
330
0
100
AcDbSymbolTable
 70
     1
100
AcDbDimStyleTable
  0
DIMSTYLE
105
28
330
21
100
AcDbSymbolTableRecord
100
AcDbDimStyleTableRecord
  2
STANDARD
 70
     0
  3

  4

340
16
  0
ENDTAB
  0
TABLE
  2
BLOCK_RECORD
  5
1
330
0
100
AcDbSymbolTable
 70
     0
  0
BLOCK_RECORD
  5
2
330
1
100
AcDbSymbolTableRecord
100
AcDbBlockTableRecord
  2
*MODEL_SPACE
340
C
  0
BLOCK_RECORD
  5
E
330
1
100
AcDbSymbolTableRecord
100
AcDbBlockTableRecord
  2
*PAPER_SPACE
340
13
  0
ENDTAB
  0
ENDSEC
  0
SECTION
  2
BLOCKS
  0
BLOCK
  5
5
330
2
100
AcDbEntity
  8
0
100
AcDbBlockBegin
  2
*MODEL_SPACE
 70
     0
 10
0.0
 20
0.0
 30
0.0
  3
*MODEL_SPACE
  1

  4

  0
ENDBLK
  5
B
330
2
100
AcDbEntity
  8
0
100
AcDbBlockEnd
  0
BLOCK
  5
11
330
E
100
AcDbEntity
 67
     1
  8
0
100
AcDbBlockBegin
  2
*PAPER_SPACE
 70
     0
 10
0.0
 20
0.0
 30
0.0
  3
*PAPER_SPACE
  1

  4

  0
ENDBLK
  5
12
330
E
100
AcDbEntity
 67
     1
  8
0
100
AcDbBlockEnd
  0
ENDSEC
  0
SECTION
  2
ENTITIES
  0
LINE
  5
1EA
330
2
100
AcDbEntity
  8
0
100
AcDbLine
 10
0.8630064550718073
 20
1.795206296928562
 30
0.0
 11
1.113006455071819
 21
2.045206296928562
 31
0.0
  0
LINE
  5
1EB
330
2
100
AcDbEntity
  8
0
100
AcDbLine
 10
0.8165000000000005
 20
1.795206296928562
 30
0.0
 11
1.066500000000012
 21
2.045206296928562
 31
0.0
  0
LINE
  5
1EC
330
2
100
AcDbEntity
  8
0
100
AcDbLine
 10
1.113006455071828
 20
2.555101797135428
 30
0.0
 11
0.8165000000000138
 21
2.555101797135436
 31
0.0
  0
ARC
  5
1ED
330
2
100
AcDbEntity
  8
0
100
AcDbCircle
 10
0.86677473309663
 20
0.9601393655000763
 30
0.0
 40
0.0500000000000078
100
AcDbArc
 50
0.3159047222280552
 51
94.90447045795818
  0
ARC
  5
1EE
330
2
100
AcDbEntity
  8
0
100
AcDbCircle
 10
0.8672589358536609
 20
0.8723201867032131
 30
0.0
 40
0.0500000000000078
100
AcDbArc
 50
265.7273389864816
 51
0.3159047222117708
  0
LINE
  5
1EF
330
2
100
AcDbEntity
  8
0
100
AcDbLine
 10
0.9085000000000143
 20
2.6662062969286
 30
0.0
 11
1.274225413175444
 21
2.6662062969286
 31
0.0
  0
LINE
  5
1F0
330
2
100
AcDbEntity
  8
0
100
AcDbLine
 10
0.9085000000000143
 20
2.6202062969286
 30
0.0
 11
1.987500000000026
 21
2.620206296928586
 31
0.0
  0
LINE
  5
1F1
330
2
100
AcDbEntity
  8
0
100
AcDbLine
 10
-1.649225413175458
 20
2.666206296928593
 30
0.0
 11
-1.987500000000019
 21
2.666206296928586
 31
0.0
  0
LINE
  5
1F2
330
2
100
AcDbEntity
  8
0
100
AcDbLine
 10
-0.9085000000000072
 20
2.6202062969286
 30
0.0
 11
-1.987500000000019
 21
2.620206296928586
 31
0.0
  0
LINE
  5
1F3
330
2
100
AcDbEntity
  8
0
100
AcDbLine
 10
-1.987500000000019
 20
2.666206296928586
 30
0.0
 11
-1.987500000000019
 21
2.620206296928586
 31
0.0
  0
LINE
  5
1F4
330
2
100
AcDbEntity
  8
0
  6
Continuous
100
AcDbLine
 10
-1.367975413175447
 20
3.353706296928586
 30
0.0
 11
-1.274225413175437
 21
2.791206296928593
 31
0.0
  0
LINE
  5
1F5
330
2
100
AcDbEntity
  8
0
  6
Continuous
100
AcDbLine
 10
-1.649225413175458
 20
2.791206296928593
 30
0.0
 11
-1.555475413175447
 21
3.353706296928586
 31
0.0
  0
LINE
  5
1F6
330
2
100
AcDbEntity
  8
0
100
AcDbLine
 10
-0.7227810187644614
 20
2.416206296928593
 30
0.0
 11
0.7227810187644685
 21
2.416206296928593
 31
0.0
  0
LINE
  5
1F7
330
2
100
AcDbEntity
  8
0
100
AcDbLine
 10
-0.7227810187644614
 20
0.4162062969285927
 30
0.0
 11
0.7227810187644685
 21
0.4162062969285927
 31
0.0
  0
ARC
  5
1F8
330
2
100
AcDbEntity
  8
0
100
AcDbCircle
 10
-0.9241882375535218
 20
1.616206296928539
 30
0.0
 40
0.1875
100
AcDbArc
 50
351.018376064427
 51
53.13010235415397
  0
LINE
  5
1F9
330
2
100
AcDbEntity
  8
0
100
AcDbLine
 10
-0.8625000000000043
 20
0.4162062969286069
 30
0.0
 11
-0.8625000000000069
 21
1.795206296928576
 31
0.0
  0
LINE
  5
1FA
330
2
100
AcDbEntity
  8
0
100
AcDbLine
 10
-0.8165000000000049
 20
0.4162062969285998
 30
0.0
 11
-0.8165000000000049
 21
2.574206296928601
 31
0.0
  0
ARC
  5
1FB
330
2
100
AcDbEntity
  8
0
100
AcDbCircle
 10
-0.8667747330966229
 20
0.9601393655000763
 30
0.0
 40
0.0500000000000078
100
AcDbArc
 50
85.09552954204182
 51
179.684095277772
  0
LINE
  5
1FC
330
2
100
AcDbEntity
  8
0
100
AcDbLine
 10
-0.8165000000000049
 20
0.4162062969285998
 30
0.0
 11
-0.8625000000000043
 21
0.4162062969286069
 31
0.0
  0
LINE
  5
1FD
330
2
100
AcDbEntity
  8
0
100
AcDbLine
 10
-0.8672580522697189
 20
0.8724804410898486
 30
0.0
 11
-0.8672580522697189
 21
0.8724804410898486
 31
0.0
  0
ARC
  5
1FE
330
2
100
AcDbEntity
  8
0
100
AcDbCircle
 10
-0.8672589358536538
 20
0.8723201867032131
 30
0.0
 40
0.0500000000000078
100
AcDbArc
 50
179.6840952777882
 51
274.2726610135184
  0
LINE
  5
1FF
330
2
100
AcDbEntity
  8
0
  6
Continuous
100
AcDbLine
 10
-0.9167739731101285
 20
0.9604150429795979
 30
0.0
 11
-0.9172581758671576
 21
0.8725958641827205
 31
0.0
  0
ARC
  5
200
330
2
100
AcDbEntity
  8
0
100
AcDbCircle
 10
-0.7852810187644614
 20
0.4162062969285927
 30
0.0
 40
0.0625
100
AcDbArc
 50
0.0000000000032639
 51
90.0
  0
LINE
  5
201
330
2
100
AcDbEntity
  8
0
100
AcDbLine
 10
-0.8165000000000049
 20
0.4787062969285927
 30
0.0
 11
-0.7852810187644614
 21
0.4787062969285927
 31
0.0
  0
LINE
  5
202
330
2
100
AcDbEntity
  8
0
100
AcDbLine
 10
-0.8163903678130282
 20
1.143706296928592
 30
0.0
 11
-0.8625000000000043
 21
1.143706296928599
 31
0.0
  0
LINE
  5
203
330
2
100
AcDbEntity
  8
0
100
AcDbLine
 10
-0.8165000000000049
 20
1.3702062969286
 30
0.0
 11
-0.8625000000000043
 21
1.370206296928593
 31
0.0
  0
ARC
  5
204
330
2
100
AcDbEntity
  8
0
100
AcDbCircle
 10
-0.9241882375535218
 20
1.216206296928561
 30
0.0
 40
0.1875
100
AcDbArc
 50
306.8698976458378
 51
8.981623935599457
  0
POINT
  5
205
330
2
100
AcDbEntity
  8
0
  6
ByBlock
 62
     0
100
AcDbPoint
 10
-0.8165000000000049
 20
1.497706296928598
 30
0.0
  0
LINE
  5
206
330
2
100
AcDbEntity
  8
0
100
AcDbLine
 10
-0.8165000000000049
 20
1.497706296928598
 30
0.0
 11
-0.8165000000000049
 21
1.242706296928603
 31
0.0
  0
ARC
  5
207
330
2
100
AcDbEntity
  8
0
100
AcDbCircle
 10
-0.8165000000000049
 20
1.416206296928593
 30
0.0
 40
0.1874999999999982
100
AcDbArc
 50
270.0
 51
90.0
  0
LINE
  5
208
330
2
100
AcDbEntity
  8
0
100
AcDbLine
 10
-0.9085000000000072
 20
2.6662062969286
 30
0.0
 11
-1.274225413175437
 21
2.6662062969286
 31
0.0
  0
LINE
  5
209
330
2
100
AcDbEntity
  8
0
100
AcDbLine
 10
-1.375250000000165
 20
2.620206296928593
 30
0.0
 11
-1.375250000000165
 21
2.248648407660816
 31
0.0
  0
LINE
  5
20A
330
2
100
AcDbEntity
  8
0
100
AcDbLine
 10
-1.187250000000168
 20
2.248648407660809
 30
0.0
 11
-1.187250000000164
 21
2.620206296928593
 31
0.0
  0
ELLIPSE
  5
20B
330
2
100
AcDbEntity
  8
0
  6
Continuous
100
AcDbEllipse
 10
-1.281250000000166
 20
2.24864840766098
 30
0.0
 11
-0.09399999999999853
 21
1.705302565824240E-13
 31
0.0
210
0.0
220
0.0
230
1.0
 40
0.194197817966139
 41
0.0
 42
3.141592653589793
  0
LINE
  5
20C
330
2
100
AcDbEntity
  8
0
  6
Continuous
100
AcDbLine
 10
-1.649225413175458
 20
2.791206296928593
 30
0.0
 11
-1.649225413175458
 21
2.6202062969286
 31
0.0
  0
LINE
  5
20D
330
2
100
AcDbEntity
  8
0
100
AcDbLine
 10
-1.737500000000011
 20
2.666206296928593
 30
0.0
 11
-1.737500000000011
 21
2.620206296928593
 31
0.0
  0
LINE
  5
20E
330
2
100
AcDbEntity
  8
0
  6
Continuous
100
AcDbLine
 10
-1.274225413175437
 20
2.791206296928593
 30
0.0
 11
-1.274225413175437
 21
2.620206296928593
 31
0.0
  0
LINE
  5
20F
330
2
100
AcDbEntity
  8
0
100
AcDbLine
 10
-1.063006455071822
 20
2.041712752000393
 30
0.0
 11
-1.063006455071822
 21
2.55510179713545
 31
0.0
  0
LINE
  5
210
330
2
100
AcDbEntity
  8
0
100
AcDbLine
 10
-1.113006455071819
 20
2.045206296928583
 30
0.0
 11
-1.113006455071819
 21
2.55510179713545
 31
0.0
  0
LINE
  5
211
330
2
100
AcDbEntity
  8
0
100
AcDbLine
 10
-0.8165000000000049
 20
1.795206296928576
 30
0.0
 11
-1.066500000000012
 21
2.045206296928583
 31
0.0
  0
LINE
  5
212
330
2
100
AcDbEntity
  8
0
  6
Continuous
100
AcDbLine
 10
-0.8630064550718117
 20
1.795206296928576
 30
0.0
 11
-0.8165000000000049
 21
1.795206296928576
 31
0.0
  0
LINE
  5
213
330
2
100
AcDbEntity
  8
0
  6
Continuous
100
AcDbLine
 10
-1.113006455071819
 20
2.045206296928583
 30
0.0
 11
-1.066500000000012
 21
2.045206296928583
 31
0.0
  0
LINE
  5
214
330
2
100
AcDbEntity
  8
0
100
AcDbLine
 10
-0.8630064550718117
 20
1.795206296928576
 30
0.0
 11
-1.113006455071819
 21
2.045206296928583
 31
0.0
  0
LINE
  5
215
330
2
100
AcDbEntity
  8
0
100
AcDbLine
 10
-1.113006455071819
 20
2.55510179713545
 30
0.0
 11
-0.8165000000000049
 21
2.55510179713545
 31
0.0
  0
ARC
  5
216
330
2
100
AcDbEntity
  8
0
100
AcDbCircle
 10
-0.9085000000000072
 20
2.574206296928601
 30
0.0
 40
0.092
100
AcDbArc
 50
0.0000000000000833
 51
90.0000000000003
  0
LINE
  5
217
330
2
100
AcDbEntity
  8
0
100
AcDbLine
 10
-0.8625000000000087
 20
2.555101797135443
 30
0.0
 11
-0.8625000000000078
 21
2.574206296928601
 31
0.0
  0
ARC
  5
218
330
2
100
AcDbEntity
  8
0
100
AcDbCircle
 10
-0.9085000000000072
 20
2.574206296928601
 30
0.0
 40
0.046
100
AcDbArc
 50
0.0000000000000833
 51
90.0000000000003
  0
ARC
  5
219
330
2
100
AcDbEntity
  8
0
100
AcDbCircle
 10
-0.7852810187644614
 20
2.416206296928593
 30
0.0
 40
0.0625
100
AcDbArc
 50
270.0
 51
0.000000000000007
  0
LINE
  5
21A
330
2
100
AcDbEntity
  8
0
100
AcDbLine
 10
-0.8165000000000049
 20
2.353706296928593
 30
0.0
 11
-0.7852810187644614
 21
2.353706296928593
 31
0.0
  0
ARC
  5
21B
330
2
100
AcDbEntity
  8
0
100
AcDbCircle
 10
0.9241882375535218
 20
1.616206296928539
 30
0.0
 40
0.1875
100
AcDbArc
 50
126.869897645846
 51
188.9816239355731
  0
LINE
  5
21C
330
2
100
AcDbEntity
  8
0
100
AcDbLine
 10
0.8625000000000114
 20
0.4162062969286069
 30
0.0
 11
0.8625000000000132
 21
1.795206296928562
 31
0.0
  0
LINE
  5
21D
330
2
100
AcDbEntity
  8
0
100
AcDbLine
 10
0.816500000000012
 20
0.4162062969285998
 30
0.0
 11
0.816500000000012
 21
2.574206296928601
 31
0.0
  0
ARC
  5
21E
330
2
100
AcDbEntity
  8
0
100
AcDbCircle
 10
-0.0956468321414548
 20
1.358659322040424
 30
0.0
 40
0.03125
100
AcDbArc
 50
149.9999999999975
 51
269.9999999999993
  0
LINE
  5
21F
330
2
100
AcDbEntity
  8
0
100
AcDbLine
 10
-0.152966888524201
 20
1.367378476260143
 30
0.0
 11
-0.035512193147305
 21
1.570815976240496
 31
0.0
  0
ARC
  5
220
330
2
100
AcDbEntity
  8
0
100
AcDbCircle
 10
-0.1191377712002328
 20
1.347847226240504
 30
0.0
 40
0.0390625
100
AcDbArc
 50
149.9999999999975
 51
269.9999999999993
  0
LINE
  5
221
330
2
100
AcDbEntity
  8
0
100
AcDbLine
 10
-0.119137771236165
 20
1.308784726260143
 30
0.0
 11
0.1157716194234801
 21
1.308784725975777
 31
0.0
  0
LINE
  5
222
330
2
100
AcDbEntity
  8
0
100
AcDbLine
 10
-0.12271012600063
 20
1.374284322056134
 30
0.0
 11
-0.0287463696991139
 21
1.537034322040412
 31
0.0
  0
ARC
  5
223
330
2
100
AcDbEntity
  8
0
100
AcDbCircle
 10
0.1157716194234766
 20
1.347847225975762
 30
0.0
 40
0.0390625
100
AcDbArc
 50
269.9999999999999
 51
30.0000000000028
  0
ARC
  5
224
330
2
100
AcDbEntity
  8
0
100
AcDbCircle
 10
0.0922806803575114
 20
1.358659321828633
 30
0.0
 40
0.03125
100
AcDbArc
 50
269.9999999999999
 51
30.0000000000028
  0
LINE
  5
225
330
2
100
AcDbEntity
  8
0
100
AcDbLine
 10
-0.0956468321701998
 20
1.327409322056134
 30
0.0
 11
0.0922806803575149
 21
1.32740932182864
 31
0.0
  0
ARC
  5
226
330
2
100
AcDbEntity
  8
0
100
AcDbCircle
 10
-0.0016830758119752
 20
1.551284726240496
 30
0.0
 40
0.0390625
100
AcDbArc
 50
30.00000000000072
 51
150.0000000000025
  0
ARC
  5
227
330
2
100
AcDbEntity
  8
0
100
AcDbCircle
 10
-0.0016830758308473
 20
1.521409322040412
 30
0.0
 40
0.03125
100
AcDbArc
 50
30.00000000000072
 51
150.0000000000025
  0
LINE
  5
228
330
2
100
AcDbEntity
  8
0
100
AcDbLine
 10
0.032146041523351
 20
1.570815976240489
 30
0.0
 11
0.1496007367588028
 21
1.367378475975769
 31
0.0
  0
LINE
  5
229
330
2
100
AcDbEntity
  8
0
100
AcDbLine
 10
0.0253802180374123
 20
1.537034322040412
 30
0.0
 11
0.1193439742257745
 21
1.374284321828633
 31
0.0
  0
LINE
  5
22A
330
2
100
AcDbEntity
  8
0
100
AcDbLine
 10
0.867258052269726
 20
0.8724804410898486
 30
0.0
 11
0.867258052269726
 21
0.8724804410898486
 31
0.0
  0
LINE
  5
22B
330
2
100
AcDbEntity
  8
0
  6
Continuous
100
AcDbLine
 10
0.9167739731101356
 20
0.9604150429795979
 30
0.0
 11
0.9172581758671647
 21
0.8725958641827205
 31
0.0
  0
ARC
  5
22C
330
2
100
AcDbEntity
  8
0
100
AcDbCircle
 10
0.7852810187644685
 20
0.4162062969285927
 30
0.0
 40
0.0625
100
AcDbArc
 50
90.0
 51
179.9999999999967
  0
LINE
  5
22D
330
2
100
AcDbEntity
  8
0
100
AcDbLine
 10
0.816500000000012
 20
0.4787062969285927
 30
0.0
 11
0.7852810187644685
 21
0.4787062969285927
 31
0.0
  0
LINE
  5
22E
330
2
100
AcDbEntity
  8
0
100
AcDbLine
 10
0.816500000000012
 20
0.4162062969285998
 30
0.0
 11
0.8625000000000114
 21
0.4162062969286069
 31
0.0
  0
ARC
  5
22F
330
2
100
AcDbEntity
  8
0
100
AcDbCircle
 10
0.9241882375535218
 20
1.216206296928561
 30
0.0
 40
0.1875
100
AcDbArc
 50
171.0183760644005
 51
233.1301023541622
  0
ARC
  5
230
330
2
100
AcDbEntity
  8
0
100
AcDbCircle
 10
0.8165000000000049
 20
1.416206296928593
 30
0.0
 40
0.1874999999999982
100
AcDbArc
 50
90.0
 51
270.0
  0
LINE
  5
231
330
2
100
AcDbEntity
  8
0
100
AcDbLine
 10
0.8163903678130353
 20
1.143706296928592
 30
0.0
 11
0.8625000000000114
 21
1.143706296928599
 31
0.0
  0
LINE
  5
232
330
2
100
AcDbEntity
  8
0
100
AcDbLine
 10
0.816500000000012
 20
1.3702062969286
 30
0.0
 11
0.8625000000000114
 21
1.370206296928593
 31
0.0
  0
LINE
  5
233
330
2
100
AcDbEntity
  8
0
  6
Continuous
100
AcDbLine
 10
0.8630064550718073
 20
1.795206296928562
 30
0.0
 11
0.8165000000000005
 21
1.795206296928562
 31
0.0
  0
LINE
  5
234
330
2
100
AcDbEntity
  8
0
100
AcDbLine
 10
0.862500000000014
 20
2.555101797135428
 30
0.0
 11
0.8625000000000149
 21
2.574206296928601
 31
0.0
  0
ARC
  5
235
330
2
100
AcDbEntity
  8
0
100
AcDbCircle
 10
0.7852810187644685
 20
2.416206296928593
 30
0.0
 40
0.0625
100
AcDbArc
 50
180.0
 51
270.0
  0
LINE
  5
236
330
2
100
AcDbEntity
  8
0
100
AcDbLine
 10
0.816500000000012
 20
2.353706296928593
 30
0.0
 11
0.7852810187644685
 21
2.353706296928593
 31
0.0
  0
ARC
  5
237
330
2
100
AcDbEntity
  8
0
100
AcDbCircle
 10
0.9085000000000143
 20
2.574206296928601
 30
0.0
 40
0.092
100
AcDbArc
 50
89.9999999999997
 51
179.9999999999999
  0
ARC
  5
238
330
2
100
AcDbEntity
  8
0
100
AcDbCircle
 10
0.9085000000000143
 20
2.574206296928601
 30
0.0
 40
0.046
100
AcDbArc
 50
89.9999999999997
 51
179.9999999999999
  0
LINE
  5
239
330
2
100
AcDbEntity
  8
0
  6
Continuous
100
AcDbLine
 10
-1.555475413175447
 20
3.353706296928586
 30
0.0
 11
-1.367975413175447
 21
3.353706296928586
 31
0.0
  0
LINE
  5
23A
330
2
100
AcDbEntity
  8
0
  6
Continuous
100
AcDbLine
 10
1.649225413175465
 20
2.791206296928593
 30
0.0
 11
1.555475413175454
 21
3.353706296928586
 31
0.0
  0
LINE
  5
23B
330
2
100
AcDbEntity
  8
0
  6
Continuous
100
AcDbLine
 10
1.367975413175454
 20
3.353706296928586
 30
0.0
 11
1.274225413175444
 21
2.791206296928593
 31
0.0
  0
LINE
  5
23C
330
2
100
AcDbEntity
  8
0
100
AcDbLine
 10
1.113006455071819
 20
2.045206296928562
 30
0.0
 11
1.113006455071828
 21
2.555101797135428
 31
0.0
  0
LINE
  5
23D
330
2
100
AcDbEntity
  8
0
100
AcDbLine
 10
1.063006455071822
 20
2.041712752000372
 30
0.0
 11
1.063006455071831
 21
2.555101797135428
 31
0.0
  0
LINE
  5
23E
330
2
100
AcDbEntity
  8
0
100
AcDbLine
 10
1.375250000000172
 20
2.620206296928593
 30
0.0
 11
1.375250000000172
 21
2.248648407660816
 31
0.0
  0
LINE
  5
23F
330
2
100
AcDbEntity
  8
0
100
AcDbLine
 10
1.187250000000175
 20
2.248648407660809
 30
0.0
 11
1.187250000000171
 21
2.620206296928593
 31
0.0
  0
ELLIPSE
  5
240
330
2
100
AcDbEntity
  8
0
  6
Continuous
100
AcDbEllipse
 10
1.281250000000174
 20
2.248648407660973
 30
0.0
 11
-0.09399999999999853
 21
1.705302565824240E-13
 31
0.0
210
0.0
220
0.0
230
1.0
 40
0.194197817966139
 41
0.0
 42
3.141592653589793
  0
LINE
  5
241
330
2
100
AcDbEntity
  8
0
  6
Continuous
100
AcDbLine
 10
1.113006455071819
 20
2.045206296928562
 30
0.0
 11
1.066500000000012
 21
2.045206296928562
 31
0.0
  0
LINE
  5
242
330
2
100
AcDbEntity
  8
0
  6
Continuous
100
AcDbLine
 10
1.274225413175444
 20
2.791206296928593
 30
0.0
 11
1.274225413175444
 21
2.620206296928593
 31
0.0
  0
LINE
  5
243
330
2
100
AcDbEntity
  8
0
100
AcDbLine
 10
1.649225413175465
 20
2.666206296928593
 30
0.0
 11
1.987500000000026
 21
2.666206296928586
 31
0.0
  0
LINE
  5
244
330
2
100
AcDbEntity
  8
0
100
AcDbLine
 10
1.737500000000019
 20
2.666206296928593
 30
0.0
 11
1.737500000000019
 21
2.620206296928593
 31
0.0
  0
LINE
  5
245
330
2
100
AcDbEntity
  8
0
  6
Continuous
100
AcDbLine
 10
1.649225413175465
 20
2.791206296928593
 30
0.0
 11
1.649225413175465
 21
2.6202062969286
 31
0.0
  0
LINE
  5
246
330
2
100
AcDbEntity
  8
0
100
AcDbLine
 10
1.987500000000026
 20
2.666206296928586
 30
0.0
 11
1.987500000000026
 21
2.620206296928586
 31
0.0
  0
LINE
  5
247
330
2
100
AcDbEntity
  8
0
  6
Continuous
100
AcDbLine
 10
1.555475413175454
 20
3.353706296928586
 30
0.0
 11
1.367975413175454
 21
3.353706296928586
 31
0.0
  0
LINE
  5
387
330
2
100
AcDbEntity
  8
0
  6
HIDDEN
100
AcDbLine
 10
-1.649225413175458
 20
2.666206296928593
 30
0.0
 11
-1.274225413175437
 21
2.6662062969286
 31
0.0
  0
LINE
  5
388
330
2
100
AcDbEntity
  8
0
  6
HIDDEN
100
AcDbLine
 10
1.274225413175444
 20
2.6662062969286
 30
0.0
 11
1.649225413175465
 21
2.666206296928593
 31
0.0
  0
ENDSEC
  0
SECTION
  2
OBJECTS
  0
DICTIONARY
  5
9
330
0
100
AcDbDictionary
281
     1
  3
ACAD_COLOR
350
34A
  3
ACAD_GROUP
350
23
  3
ACAD_LAYOUT
350
D
  3
ACAD_MATERIAL
350
349
  3
ACAD_MLINESTYLE
350
24
  3
ACAD_PLOTSETTINGS
350
25
  3
ACAD_PLOTSTYLENAME
350
8
  3
ACAD_TABLESTYLE
350
34B
  3
ACDBHEADERROUNDTRIPXREC
350
3A9
  3
AcDbVariableDictionary
350
169
  0
DICTIONARY
  5
34A
102
{ACAD_REACTORS
330
9
102
}
330
9
100
AcDbDictionary
281
     1
  0
DICTIONARY
  5
23
102
{ACAD_REACTORS
330
9
102
}
330
9
100
AcDbDictionary
281
     1
  0
DICTIONARY
  5
D
102
{ACAD_REACTORS
330
9
102
}
330
9
100
AcDbDictionary
281
     1
  3
Layout1
350
13
  3
Model
350
C
  0
DICTIONARY
  5
349
102
{ACAD_REACTORS
330
9
102
}
330
9
100
AcDbDictionary
281
     1
  0
DICTIONARY
  5
24
102
{ACAD_REACTORS
330
9
102
}
330
9
100
AcDbDictionary
281
     1
  3
STANDARD
350
27
  0
DICTIONARY
  5
25
102
{ACAD_REACTORS
330
9
102
}
330
9
100
AcDbDictionary
281
     1
  0
ACDBDICTIONARYWDFLT
  5
8
102
{ACAD_REACTORS
330
9
102
}
330
9
100
AcDbDictionary
281
     1
  3
Normal
350
7
100
AcDbDictionaryWithDefault
340
7
  0
DICTIONARY
  5
34B
102
{ACAD_REACTORS
330
9
102
}
330
9
100
AcDbDictionary
281
     1
  3
Standard
350
34C
  0
DICTIONARY
  5
3A9
102
{ACAD_REACTORS
330
9
102
}
330
9
100
AcDbDictionary
281
     1
  3
COLORDICT
350
3AA
  3
MATERIALDICT
350
3AB
  0
DICTIONARY
  5
169
102
{ACAD_REACTORS
330
9
102
}
330
9
100
AcDbDictionary
281
     1
  3
CTABLESTYLE
350
397
  3
HIDETEXT
350
3A8
  0
LAYOUT
  5
13
102
{ACAD_REACTORS
330
D
102
}
102
{ACAD_XDICTIONARY
360
3AC
102
}
330
D
100
AcDbPlotSettings
  1

  2
HP LaserJet 2100 Series PS
  4

  6

 40
0.0
 41
0.0
 42
0.0
 43
0.0
 44
0.0
 45
0.0
 46
0.0
 47
0.0
 48
0.0
 49
0.0
140
0.0
141
0.0
142
1.0
143
1.0
 70
   688
 72
     0
 73
     0
 74
     5
  7

 75
    16
147
1.0
148
0.0
149
0.0
100
AcDbLayout
  1
Layout1
 70
     0
 71
     1
 10
0.0
 20
0.0
 11
12.0
 21
9.0
 12
0.0
 22
0.0
 32
0.0
 14
1.000000000000000E+20
 24
1.000000000000000E+20
 34
1.000000000000000E+20
 15
-1.000000000000000E+20
 25
-1.000000000000000E+20
 35
-1.000000000000000E+20
146
0.0
 13
0.0
 23
0.0
 33
0.0
 16
1.0
 26
0.0
 36
0.0
 17
0.0
 27
1.0
 37
0.0
 76
     0
330
E
  0
LAYOUT
  5
C
102
{ACAD_REACTORS
330
D
102
}
102
{ACAD_XDICTIONARY
360
3AE
102
}
330
D
100
AcDbPlotSettings
  1

  2
HP LaserJet 2100 Series PS
  4
Letter
  6

 40
5.365749835968018
 41
5.386905193328857
 42
5.386917114257813
 43
5.365753173828125
 44
215.8999938964844
 45
279.3999938964844
 46
0.0
 47
0.0
 48
0.0
 49
0.0
140
0.0
141
0.0
142
1.0
143
1.0
 70
 11952
 72
     0
 73
     1
 74
     0
  7

 75
     0
147
1.0
148
-51.34525308194984
149
5.032826400000006
100
AcDbLayout
  1
Model
 70
     1
 71
     0
 10
0.0
 20
0.0
 11
12.0
 21
9.0
 12
0.0
 22
0.0
 32
0.0
 14
0.0
 24
0.0
 34
0.0
 15
0.0
 25
0.0
 35
0.0
146
0.0
 13
0.0
 23
0.0
 33
0.0
 16
1.0
 26
0.0
 36
0.0
 17
0.0
 27
1.0
 37
0.0
 76
     0
330
2
  0
MLINESTYLE
  5
27
102
{ACAD_REACTORS
330
24
102
}
330
24
100
AcDbMlineStyle
  2
STANDARD
 70
     0
  3

 62
   256
 51
90.0
 52
90.0
 71
     2
 49
0.5
 62
   256
  6
BYLAYER
 49
-0.5
 62
   256
  6
BYLAYER
  0
ACDBPLACEHOLDER
  5
7
102
{ACAD_REACTORS
330
8
102
}
330
8
  0
ACAD_PROXY_OBJECT
  5
34C
102
{ACAD_REACTORS
330
34B
102
}
330
34B
100
AcDbProxyObject
 90
      499
 91
      562
 95
   983063
 70
     0
 93
     1841
310
4214DD185B99185C9928B81E85EB51B8AE3F2E07A17AD46E2B8FC02B5E8DC0F42B1CFD028000000C1008070000C3001FDFF8000000C1003FBFF000000182007F7FE00000030400FEFFC00000060801FDFF8000000C1003FBFF00000018200000000000000681FA0B0000001820100E000186003FBFF000000182007F7FE000
310
00030400FEFFC00000060801FDFF8000000C1003FBFF000000182007F7FE000000304000AD7A3703D0AC73F4160000003040201C00030C007F7FE00000030400FEFFC00000060801FDFF8000000C1003FBFF000000182007F7FE00000030400FEFFC000000608000
340
16
340
16
340
16
 94
        0
  0
XRECORD
  5
3AA
102
{ACAD_REACTORS
330
3A9
102
}
330
3A9
100
AcDbXrecord
340
34A
  0
XRECORD
  5
3AB
102
{ACAD_REACTORS
330
3A9
102
}
330
3A9
100
AcDbXrecord
340
349
  0
DICTIONARYVAR
  5
397
102
{ACAD_REACTORS
330
169
102
}
330
169
100
DictionaryVariables
280
     0
  1
STANDARD
  0
DICTIONARYVAR
  5
3A8
102
{ACAD_REACTORS
330
169
102
}
330
169
100
DictionaryVariables
280
     0
  1
1
  0
DICTIONARY
  5
3AC
330
13
100
AcDbDictionary
280
     1
281
     1
  3
ACAD_XREC_ROUNDTRIP
360
3AD
  0
DICTIONARY
  5
3AE
330
C
100
AcDbDictionary
280
     1
281
     1
  3
ACAD_XREC_ROUNDTRIP
360
3AF
  0
XRECORD
  5
3AD
102
{ACAD_REACTORS
330
3AC
102
}
330
3AC
100
AcDbXrecord
102
SHADEPLOT
 70
     0
102
SHADEPLOTRESLEVEL
 70
     2
102
SHADEPLOTCUSTOMDPI
 70
   300
  0
XRECORD
  5
3AF
102
{ACAD_REACTORS
330
3AE
102
}
330
3AE
100
AcDbXrecord
102
SHADEPLOT
 70
     0
102
SHADEPLOTRESLEVEL
 70
     2
102
SHADEPLOTCUSTOMDPI
 70
   300
  0
ENDSEC
  0
EOF
