  0
SECTION
  2
HEADER
  9
$ACADVER
  1
AC1015
  9
$ACADMAINTVER
 70
     6
  9
$DWGCODEPAGE
  3
ANSI_1252
  9
$INSBASE
 10
0.0
 20
0.0
 30
0.0
  9
$EXTMIN
 10
-10.07103552875138
 20
-0.0437515807531526
 30
-0.0000000000112498
  9
$EXTMAX
 10
10.07120673638109
 20
18.95908805721898
 30
0.0000000000002956
  9
$LIMMIN
 10
0.0
 20
0.0
  9
$LIMMAX
 10
24.0
 20
31.5
  9
$ORTHOMODE
 70
     1
  9
$REGENMODE
 70
     1
  9
$FILLMODE
 70
     1
  9
$QTEXTMODE
 70
     0
  9
$MIRRTEXT
 70
     0
  9
$LTSCALE
 40
0.6
  9
$ATTMODE
 70
     1
  9
$TEXTSIZE
 40
0.27
  9
$TRACEWID
 40
0.05
  9
$TEXTSTYLE
  7
STANDARD
  9
$CLAYER
  8
0
  9
$CELTYPE
  6
HIDDEN
  9
$CECOLOR
 62
   256
  9
$CELTSCALE
 40
1.0
  9
$DISPSILH
 70
     0
  9
$DIMSCALE
 40
3.0
  9
$DIMASZ
 40
0.125
  9
$DIMEXO
 40
0.062
  9
$DIMDLI
 40
0.375
  9
$DIMRND
 40
0.0
  9
$DIMDLE
 40
0.0
  9
$DIMEXE
 40
0.08
  9
$DIMTP
 40
0.0313
  9
$DIMTM
 40
0.0
  9
$DIMTXT
 40
0.09
  9
$DIMCEN
 40
-0.03125
  9
$DIMTSZ
 40
0.0
  9
$DIMTOL
 70
     0
  9
$DIMLIM
 70
     0
  9
$DIMTIH
 70
     1
  9
$DIMTOH
 70
     1
  9
$DIMSE1
 70
     0
  9
$DIMSE2
 70
     0
  9
$DIMTAD
 70
     0
  9
$DIMZIN
 70
     0
  9
$DIMBLK
  1

  9
$DIMASO
 70
     1
  9
$DIMSHO
 70
     0
  9
$DIMPOST
  1

  9
$DIMAPOST
  1

  9
$DIMALT
 70
     0
  9
$DIMALTD
 70
     2
  9
$DIMALTF
 40
25.4
  9
$DIMLFAC
 40
1.0
  9
$DIMTOFL
 70
     0
  9
$DIMTVP
 40
0.0
  9
$DIMTIX
 70
     0
  9
$DIMSOXD
 70
     0
  9
$DIMSAH
 70
     0
  9
$DIMBLK1
  1

  9
$DIMBLK2
  1

  9
$DIMSTYLE
  2
STANDARD
  9
$DIMCLRD
 70
     0
  9
$DIMCLRE
 70
     0
  9
$DIMCLRT
 70
     0
  9
$DIMTFAC
 40
1.0
  9
$DIMGAP
 40
0.09
  9
$DIMJUST
 70
     0
  9
$DIMSD1
 70
     0
  9
$DIMSD2
 70
     0
  9
$DIMTOLJ
 70
     1
  9
$DIMTZIN
 70
     0
  9
$DIMALTZ
 70
     0
  9
$DIMALTTZ
 70
     0
  9
$DIMUPT
 70
     1
  9
$DIMDEC
 70
     5
  9
$DIMTDEC
 70
     4
  9
$DIMALTU
 70
     2
  9
$DIMALTTD
 70
     2
  9
$DIMTXSTY
  7
STANDARD
  9
$DIMAUNIT
 70
     0
  9
$DIMADEC
 70
     0
  9
$DIMALTRND
 40
0.0
  9
$DIMAZIN
 70
     0
  9
$DIMDSEP
 70
    46
  9
$DIMATFIT
 70
     3
  9
$DIMFRAC
 70
     2
  9
$DIMLDRBLK
  1

  9
$DIMLUNIT
 70
     5
  9
$DIMLWD
 70
    -2
  9
$DIMLWE
 70
    -2
  9
$DIMTMOVE
 70
     2
  9
$LUNITS
 70
     2
  9
$LUPREC
 70
     4
  9
$SKETCHINC
 40
0.1
  9
$FILLETRAD
 40
0.0
  9
$AUNITS
 70
     0
  9
$AUPREC
 70
     0
  9
$MENU
  1
ACAD
  9
$ELEVATION
 40
0.0
  9
$PELEVATION
 40
0.0
  9
$THICKNESS
 40
0.0
  9
$LIMCHECK
 70
     0
  9
$CHAMFERA
 40
0.0
  9
$CHAMFERB
 40
0.0
  9
$CHAMFERC
 40
0.0
  9
$CHAMFERD
 40
0.0
  9
$SKPOLY
 70
     0
  9
$TDCREATE
 40
2449436.829454167
  9
$TDUCREATE
 40
2449437.1627875
  9
$TDUPDATE
 40
2454166.948578577
  9
$TDUUPDATE
 40
2454167.28191191
  9
$TDINDWG
 40
1.2604258449
  9
$TDUSRTIMER
 40
1.2604258449
  9
$USRTIMER
 70
     1
  9
$ANGBASE
 50
0.0
  9
$ANGDIR
 70
     0
  9
$PDMODE
 70
     0
  9
$PDSIZE
 40
0.0
  9
$PLINEWID
 40
0.0
  9
$SPLFRAME
 70
     0
  9
$SPLINETYPE
 70
     6
  9
$SPLINESEGS
 70
     8
  9
$HANDSEED
  5
3A1
  9
$SURFTAB1
 70
     6
  9
$SURFTAB2
 70
     6
  9
$SURFTYPE
 70
     6
  9
$SURFU
 70
     6
  9
$SURFV
 70
     6
  9
$UCSBASE
  2

  9
$UCSNAME
  2

  9
$UCSORG
 10
0.0
 20
0.0
 30
0.0
  9
$UCSXDIR
 10
1.0
 20
0.0
 30
0.0
  9
$UCSYDIR
 10
0.0
 20
1.0
 30
0.0
  9
$UCSORTHOREF
  2

  9
$UCSORTHOVIEW
 70
     0
  9
$UCSORGTOP
 10
0.0
 20
0.0
 30
0.0
  9
$UCSORGBOTTOM
 10
0.0
 20
0.0
 30
0.0
  9
$UCSORGLEFT
 10
0.0
 20
0.0
 30
0.0
  9
$UCSORGRIGHT
 10
0.0
 20
0.0
 30
0.0
  9
$UCSORGFRONT
 10
0.0
 20
0.0
 30
0.0
  9
$UCSORGBACK
 10
0.0
 20
0.0
 30
0.0
  9
$PUCSBASE
  2

  9
$PUCSNAME
  2

  9
$PUCSORG
 10
0.0
 20
0.0
 30
0.0
  9
$PUCSXDIR
 10
1.0
 20
0.0
 30
0.0
  9
$PUCSYDIR
 10
0.0
 20
1.0
 30
0.0
  9
$PUCSORTHOREF
  2

  9
$PUCSORTHOVIEW
 70
     0
  9
$PUCSORGTOP
 10
0.0
 20
0.0
 30
0.0
  9
$PUCSORGBOTTOM
 10
0.0
 20
0.0
 30
0.0
  9
$PUCSORGLEFT
 10
0.0
 20
0.0
 30
0.0
  9
$PUCSORGRIGHT
 10
0.0
 20
0.0
 30
0.0
  9
$PUCSORGFRONT
 10
0.0
 20
0.0
 30
0.0
  9
$PUCSORGBACK
 10
0.0
 20
0.0
 30
0.0
  9
$USERI1
 70
     0
  9
$USERI2
 70
     0
  9
$USERI3
 70
     0
  9
$USERI4
 70
     0
  9
$USERI5
 70
     0
  9
$USERR1
 40
0.0
  9
$USERR2
 40
0.0
  9
$USERR3
 40
0.0
  9
$USERR4
 40
0.0
  9
$USERR5
 40
0.0
  9
$WORLDVIEW
 70
     1
  9
$SHADEDGE
 70
     3
  9
$SHADEDIF
 70
    70
  9
$TILEMODE
 70
     1
  9
$MAXACTVP
 70
    16
  9
$PINSBASE
 10
0.0
 20
0.0
 30
0.0
  9
$PLIMCHECK
 70
     0
  9
$PEXTMIN
 10
1.000000000000000E+20
 20
1.000000000000000E+20
 30
1.000000000000000E+20
  9
$PEXTMAX
 10
-1.000000000000000E+20
 20
-1.000000000000000E+20
 30
-1.000000000000000E+20
  9
$PLIMMIN
 10
0.0
 20
0.0
  9
$PLIMMAX
 10
12.0
 20
9.0
  9
$UNITMODE
 70
     0
  9
$VISRETAIN
 70
     0
  9
$PLINEGEN
 70
     0
  9
$PSLTSCALE
 70
     0
  9
$TREEDEPTH
 70
  3020
  9
$CMLSTYLE
  2
STANDARD
  9
$CMLJUST
 70
     0
  9
$CMLSCALE
 40
1.0
  9
$PROXYGRAPHICS
 70
     1
  9
$MEASUREMENT
 70
     0
  9
$CELWEIGHT
370
    -1
  9
$ENDCAPS
280
     0
  9
$JOINSTYLE
280
     0
  9
$LWDISPLAY
290
     0
  9
$INSUNITS
 70
     0
  9
$HYPERLINKBASE
  1

  9
$STYLESHEET
  1

  9
$XEDIT
290
     1
  9
$CEPSNTYPE
380
     0
  9
$PSTYLEMODE
290
     1
  9
$FINGERPRINTGUID
  2
{7E1BADCE-439C-11D5-BE3F-00508B5FCD51}
  9
$VERSIONGUID
  2
{73397730-F9F6-42BB-894D-A3BD20197612}
  9
$EXTNAMES
290
     1
  9
$PSVPSCALE
 40
0.0
  9
$OLESTARTUP
290
     0
  0
ENDSEC
  0
SECTION
  2
CLASSES
  0
CLASS
  1
DICTIONARYVAR
  2
AcDbDictionaryVar
  3
AutoCAD 2000
 90
        0
280
     0
281
     0
  0
CLASS
  1
LWPOLYLINE
  2
AcDbPolyline
  3
AutoCAD 2000
 90
        0
280
     0
281
     1
  0
CLASS
  1
ACDBDICTIONARYWDFLT
  2
AcDbDictionaryWithDefault
  3
AutoCAD 2000
 90
        0
280
     0
281
     0
  0
CLASS
  1
ACDBPLACEHOLDER
  2
AcDbPlaceHolder
  3
ObjectDBX Classes
 90
        0
280
     0
281
     0
  0
CLASS
  1
LAYOUT
  2
AcDbLayout
  3
ObjectDBX Classes
 90
        0
280
     0
281
     0
  0
CLASS
  1
LONG_TRANSACTION
  2
AcDbLongTransaction
  3
ObjectDBX Classes
 90
   -65536
280
     1
281
     0
  0
CLASS
  1
LWPOLYLINE
  2
AcDbPolyline
  3
AutoCAD 2000
 90
        0
280
     0
281
     1
  0
CLASS
  1
HATCH
  2
AcDbHatch
  3
AutoCAD 2000
 90
        0
280
     0
281
     1
  0
CLASS
  1
XRECORD
  2
AcDbXrecord
  3
AutoCAD 2000
 90
        0
280
     0
281
     0
  0
CLASS
  1
LONG_TRANSACTION
  2
AcDbLongTransaction
  3
ObjectDBX Classes
 90
   -65536
280
     1
281
     0
  0
CLASS
  1
LWPOLYLINE
  2
AcDbPolyline
  3
AutoCAD 2000
 90
        0
280
     0
281
     1
  0
CLASS
  1
HATCH
  2
AcDbHatch
  3
AutoCAD 2000
 90
        0
280
     0
281
     1
  0
CLASS
  1
XRECORD
  2
AcDbXrecord
  3
AutoCAD 2000
 90
        0
280
     0
281
     0
  0
CLASS
  1
LONG_TRANSACTION
  2
AcDbLongTransaction
  3
ObjectDBX Classes
 90
   -65536
280
     1
281
     0
  0
CLASS
  1
LWPOLYLINE
  2
AcDbPolyline
  3
AutoCAD 2000
 90
        0
280
     0
281
     1
  0
CLASS
  1
HATCH
  2
AcDbHatch
  3
AutoCAD 2000
 90
        0
280
     0
281
     1
  0
CLASS
  1
XRECORD
  2
AcDbXrecord
  3
AutoCAD 2000
 90
        0
280
     0
281
     0
  0
CLASS
  1
OLE2FRAME
  2
AcDbOle2Frame
  3
AutoCAD 2000
 90
        0
280
     0
281
     1
  0
CLASS
  1
LONG_TRANSACTION
  2
AcDbLongTransaction
  3
ObjectDBX Classes
 90
   -65536
280
     1
281
     0
  0
CLASS
  1
LWPOLYLINE
  2
AcDbPolyline
  3
AutoCAD 2000
 90
        0
280
     0
281
     1
  0
CLASS
  1
HATCH
  2
AcDbHatch
  3
AutoCAD 2000
 90
        0
280
     0
281
     1
  0
CLASS
  1
XRECORD
  2
AcDbXrecord
  3
AutoCAD 2000
 90
        0
280
     0
281
     0
  0
CLASS
  1
LONG_TRANSACTION
  2
AcDbLongTransaction
  3
ObjectDBX Classes
 90
   -65536
280
     1
281
     0
  0
CLASS
  1
LWPOLYLINE
  2
AcDbPolyline
  3
AutoCAD 2000
 90
        0
280
     0
281
     1
  0
CLASS
  1
HATCH
  2
AcDbHatch
  3
AutoCAD 2000
 90
        0
280
     0
281
     1
  0
CLASS
  1
XRECORD
  2
AcDbXrecord
  3
AutoCAD 2000
 90
        0
280
     0
281
     0
  0
CLASS
  1
LONG_TRANSACTION
  2
AcDbLongTransaction
  3
ObjectDBX Classes
 90
   -65536
280
     1
281
     0
  0
CLASS
  1
LWPOLYLINE
  2
AcDbPolyline
  3
AutoCAD 2000
 90
        0
280
     0
281
     1
  0
CLASS
  1
HATCH
  2
AcDbHatch
  3
AutoCAD 2000
 90
        0
280
     0
281
     1
  0
CLASS
  1
XRECORD
  2
AcDbXrecord
  3
AutoCAD 2000
 90
        0
280
     0
281
     0
  0
CLASS
  1
LONG_TRANSACTION
  2
AcDbLongTransaction
  3
ObjectDBX Classes
 90
   -65536
280
     1
281
     0
  0
CLASS
  1
LWPOLYLINE
  2
AcDbPolyline
  3
AutoCAD 2000
 90
        0
280
     0
281
     1
  0
CLASS
  1
HATCH
  2
AcDbHatch
  3
AutoCAD 2000
 90
        0
280
     0
281
     1
  0
CLASS
  1
XRECORD
  2
AcDbXrecord
  3
AutoCAD 2000
 90
        0
280
     0
281
     0
  0
CLASS
  1
LONG_TRANSACTION
  2
AcDbLongTransaction
  3
ObjectDBX Classes
 90
   -65536
280
     1
281
     0
  0
CLASS
  1
LWPOLYLINE
  2
AcDbPolyline
  3
AutoCAD 2000
 90
        0
280
     0
281
     1
  0
CLASS
  1
HATCH
  2
AcDbHatch
  3
AutoCAD 2000
 90
        0
280
     0
281
     1
  0
CLASS
  1
XRECORD
  2
AcDbXrecord
  3
AutoCAD 2000
 90
        0
280
     0
281
     0
  0
CLASS
  1
LONG_TRANSACTION
  2
AcDbLongTransaction
  3
ObjectDBX Classes
 90
   -65536
280
     1
281
     0
  0
CLASS
  1
LWPOLYLINE
  2
AcDbPolyline
  3
AutoCAD 2000
 90
        0
280
     0
281
     1
  0
CLASS
  1
HATCH
  2
AcDbHatch
  3
AutoCAD 2000
 90
        0
280
     0
281
     1
  0
CLASS
  1
XRECORD
  2
AcDbXrecord
  3
AutoCAD 2000
 90
        0
280
     0
281
     0
  0
CLASS
  1
LONG_TRANSACTION
  2
AcDbLongTransaction
  3
ObjectDBX Classes
 90
   -65536
280
     1
281
     0
  0
CLASS
  1
LWPOLYLINE
  2
AcDbPolyline
  3
AutoCAD 2000
 90
        0
280
     0
281
     1
  0
CLASS
  1
HATCH
  2
AcDbHatch
  3
AutoCAD 2000
 90
        0
280
     0
281
     1
  0
CLASS
  1
XRECORD
  2
AcDbXrecord
  3
AutoCAD 2000
 90
        0
280
     0
281
     0
  0
CLASS
  1
LONG_TRANSACTION
  2
AcDbLongTransaction
  3
ObjectDBX Classes
 90
   -65536
280
     1
281
     0
  0
CLASS
  1
LWPOLYLINE
  2
AcDbPolyline
  3
AutoCAD 2000
 90
        0
280
     0
281
     1
  0
CLASS
  1
HATCH
  2
AcDbHatch
  3
AutoCAD 2000
 90
        0
280
     0
281
     1
  0
CLASS
  1
XRECORD
  2
AcDbXrecord
  3
AutoCAD 2000
 90
        0
280
     0
281
     0
  0
CLASS
  1
LONG_TRANSACTION
  2
AcDbLongTransaction
  3
ObjectDBX Classes
 90
   -65536
280
     1
281
     0
  0
CLASS
  1
LWPOLYLINE
  2
AcDbPolyline
  3
AutoCAD 2000
 90
        0
280
     0
281
     1
  0
CLASS
  1
HATCH
  2
AcDbHatch
  3
AutoCAD 2000
 90
        0
280
     0
281
     1
  0
CLASS
  1
XRECORD
  2
AcDbXrecord
  3
AutoCAD 2000
 90
        0
280
     0
281
     0
  0
CLASS
  1
LONG_TRANSACTION
  2
AcDbLongTransaction
  3
ObjectDBX Classes
 90
   -65536
280
     1
281
     0
  0
CLASS
  1
LWPOLYLINE
  2
AcDbPolyline
  3
AutoCAD 2000
 90
        0
280
     0
281
     1
  0
CLASS
  1
HATCH
  2
AcDbHatch
  3
AutoCAD 2000
 90
        0
280
     0
281
     1
  0
CLASS
  1
XRECORD
  2
AcDbXrecord
  3
AutoCAD 2000
 90
        0
280
     0
281
     0
  0
CLASS
  1
LONG_TRANSACTION
  2
AcDbLongTransaction
  3
ObjectDBX Classes
 90
   -65536
280
     1
281
     0
  0
CLASS
  1
LWPOLYLINE
  2
AcDbPolyline
  3
AutoCAD 2000
 90
        0
280
     0
281
     1
  0
CLASS
  1
HATCH
  2
AcDbHatch
  3
AutoCAD 2000
 90
        0
280
     0
281
     1
  0
CLASS
  1
XRECORD
  2
AcDbXrecord
  3
AutoCAD 2000
 90
        0
280
     0
281
     0
  0
CLASS
  1
TABLESTYLE
  2
AcDbTableStyle
  3
ObjectDBX Classes
 90
     2047
280
     1
281
     0
  0
ENDSEC
  0
SECTION
  2
TABLES
  0
TABLE
  2
VPORT
  5
1D
330
0
100
AcDbSymbolTable
 70
     3
  0
VPORT
  5
391
330
1D
100
AcDbSymbolTableRecord
100
AcDbViewportTableRecord
  2
*Active
 70
     0
 10
0.0
 20
0.0
 11
1.0
 21
1.0
 12
8.361735874174634
 22
14.13126275282001
 13
0.0
 23
0.0
 14
0.063
 24
0.063
 15
0.25
 25
0.25
 16
0.0
 26
0.0
 36
1.0
 17
0.0
 27
0.0
 37
0.0
 40
31.93722867053075
 41
1.814583333333333
 42
50.0
 43
0.0
 44
0.0
 50
0.0
 51
0.0
 71
     0
 72
   100
 73
     1
 74
     0
 75
     0
 76
     0
 77
     0
 78
     1
281
     0
 65
     1
110
0.0
120
0.0
130
0.0
111
1.0
121
0.0
131
0.0
112
0.0
122
1.0
132
0.0
 79
     0
146
0.0
  0
ENDTAB
  0
TABLE
  2
LTYPE
  5
18
330
0
100
AcDbSymbolTable
 70
     3
  0
LTYPE
  5
19
330
18
100
AcDbSymbolTableRecord
100
AcDbLinetypeTableRecord
  2
BYBLOCK
 70
     0
  3

 72
    65
 73
     0
 40
0.0
  0
LTYPE
  5
1A
330
18
100
AcDbSymbolTableRecord
100
AcDbLinetypeTableRecord
  2
BYLAYER
 70
     0
  3

 72
    65
 73
     0
 40
0.0
  0
LTYPE
  5
A
330
18
100
AcDbSymbolTableRecord
100
AcDbLinetypeTableRecord
  2
CONTINUOUS
 70
     0
  3
Solid line
 72
    65
 73
     0
 40
0.0
  0
LTYPE
  5
35
330
18
100
AcDbSymbolTableRecord
100
AcDbLinetypeTableRecord
  2
HIDDEN2
 70
     0
  3
Hidden (.5x) _ _ _ _ _ _ _ _ _ _ _ _ _ _ _ _ _
 72
    65
 73
     2
 40
0.1875
 49
0.125
 74
     0
 49
-0.0625
 74
     0
  0
LTYPE
  5
34F
330
18
100
AcDbSymbolTableRecord
100
AcDbLinetypeTableRecord
  2
HIDDEN
 70
     0
  3
Hidden __ __ __ __ __ __ __ __ __ __ __ __ __ _
 72
    65
 73
     2
 40
0.375
 49
0.25
 74
     0
 49
-0.125
 74
     0
  0
ENDTAB
  0
TABLE
  2
LAYER
  5
14
330
0
100
AcDbSymbolTable
 70
     2
  0
LAYER
  5
6
330
14
100
AcDbSymbolTableRecord
100
AcDbLayerTableRecord
  2
0
 70
     0
 62
     7
  6
CONTINUOUS
370
    -3
390
7
  0
ENDTAB
  0
TABLE
  2
STYLE
  5
15
330
0
100
AcDbSymbolTable
 70
     1
  0
STYLE
  5
16
330
15
100
AcDbSymbolTableRecord
100
AcDbTextStyleTableRecord
  2
STANDARD
 70
     0
 40
0.0
 41
1.0
 50
0.0
 71
     0
 42
0.27
  3
TXT
  4

  0
ENDTAB
  0
TABLE
  2
VIEW
  5
1B
330
0
100
AcDbSymbolTable
 70
     0
  0
ENDTAB
  0
TABLE
  2
UCS
  5
1C
330
0
100
AcDbSymbolTable
 70
     0
  0
ENDTAB
  0
TABLE
  2
APPID
  5
1F
330
0
100
AcDbSymbolTable
 70
     2
  0
APPID
  5
20
330
1F
100
AcDbSymbolTableRecord
100
AcDbRegAppTableRecord
  2
ACAD
 70
     0
  0
APPID
  5
48
330
1F
100
AcDbSymbolTableRecord
100
AcDbRegAppTableRecord
  2
_DIE112SSJYHX
 70
     0
  0
ENDTAB
  0
TABLE
  2
DIMSTYLE
  5
21
330
0
100
AcDbSymbolTable
 70
     1
100
AcDbDimStyleTable
  0
DIMSTYLE
105
28
330
21
100
AcDbSymbolTableRecord
100
AcDbDimStyleTableRecord
  2
STANDARD
 70
     0
  3

  4

340
16
  0
ENDTAB
  0
TABLE
  2
BLOCK_RECORD
  5
1
330
0
100
AcDbSymbolTable
 70
     1
  0
BLOCK_RECORD
  5
2
330
1
100
AcDbSymbolTableRecord
100
AcDbBlockTableRecord
  2
*MODEL_SPACE
340
C
  0
BLOCK_RECORD
  5
E
330
1
100
AcDbSymbolTableRecord
100
AcDbBlockTableRecord
  2
*PAPER_SPACE
340
13
  0
ENDTAB
  0
ENDSEC
  0
SECTION
  2
BLOCKS
  0
BLOCK
  5
5
330
2
100
AcDbEntity
  8
0
100
AcDbBlockBegin
  2
*MODEL_SPACE
 70
     0
 10
0.0
 20
0.0
 30
0.0
  3
*MODEL_SPACE
  1

  4

  0
ENDBLK
  5
B
330
2
100
AcDbEntity
  8
0
100
AcDbBlockEnd
  0
BLOCK
  5
11
330
E
100
AcDbEntity
 67
     1
  8
0
100
AcDbBlockBegin
  2
*PAPER_SPACE
 70
     0
 10
0.0
 20
0.0
 30
0.0
  3
*PAPER_SPACE
  1

  4

  0
ENDBLK
  5
12
330
E
100
AcDbEntity
 67
     1
  8
0
100
AcDbBlockEnd
  0
ENDSEC
  0
SECTION
  2
ENTITIES
  0
LINE
  5
172
330
2
100
AcDbEntity
  8
0
100
AcDbLine
 10
0.8574999999999875
 20
8.714999999999973
 30
0.0
 11
0.8574999999999875
 21
0.1349999999999909
 31
0.0
  0
LINE
  5
173
330
2
100
AcDbEntity
  8
0
100
AcDbLine
 10
-0.8574999999999875
 20
0.1349999999999909
 30
0.0
 11
-0.8574999999999875
 21
8.714999999999973
 31
0.0
  0
LINE
  5
174
330
2
100
AcDbEntity
  8
0
100
AcDbLine
 10
0.8125000000000089
 20
8.714999999999973
 30
0.0
 11
0.8124999999999716
 21
0.1349999999999909
 31
0.0
  0
LINE
  5
175
330
2
100
AcDbEntity
  8
0
100
AcDbLine
 10
-0.8125000000000284
 20
0.1349999999999909
 30
0.0
 11
-0.8125000000000284
 21
8.714999999999973
 31
0.0
  0
CIRCLE
  5
176
330
2
100
AcDbEntity
  8
0
  6
Continuous
100
AcDbCircle
 10
1.737500000000019
 20
6.214999999999973
 30
0.0
 40
0.0855
  0
CIRCLE
  5
177
330
2
100
AcDbEntity
  8
0
  6
Continuous
100
AcDbCircle
 10
-1.737500000000019
 20
6.214999999999973
 30
0.0
 40
0.0855
  0
LINE
  5
178
330
2
100
AcDbEntity
  8
0
100
AcDbLine
 10
0.8125000000000071
 20
8.728663742235161
 30
0.0
 11
0.8125000000000071
 21
0.1399999999999757
 31
0.0
  0
LINE
  5
179
330
2
100
AcDbEntity
  8
0
100
AcDbLine
 10
-0.8125
 20
0.1399999999999757
 30
0.0
 11
-0.8125
 21
8.728663742235161
 31
0.0
  0
LINE
  5
17A
330
2
100
AcDbEntity
  8
0
100
AcDbLine
 10
1.987500000000019
 20
8.96499999999998
 30
0.0
 11
1.987500000000155
 21
5.173142315092321
 31
0.0
  0
LINE
  5
17B
330
2
100
AcDbEntity
  8
0
100
AcDbLine
 10
-1.987500000000019
 20
8.96499999999998
 30
0.0
 11
-1.987500000000156
 21
5.173142315092321
 31
0.0
  0
ARC
  5
17C
330
2
100
AcDbEntity
  8
0
100
AcDbCircle
 10
0.7675000000000125
 20
0.1349999999999909
 30
0.0
 40
0.135
100
AcDbArc
 50
270.0
 51
0.0
  0
LINE
  5
17D
330
2
100
AcDbEntity
  8
0
100
AcDbLine
 10
0.8574999999999093
 20
2.095896261652161
 30
0.0
 11
1.426199924399555
 21
2.908083925117911
 31
0.0
  0
LINE
  5
17E
330
2
100
AcDbEntity
  8
0
100
AcDbLine
 10
0.9024999999999466
 20
2.280544494717219
 30
0.0
 11
0.9024999999999466
 21
0.1349999999999909
 31
0.0
  0
LINE
  5
17F
330
2
100
AcDbEntity
  8
0
100
AcDbLine
 10
-0.9025000000000034
 20
0.1349999999999909
 30
0.0
 11
-0.9025000000000034
 21
2.280544494717219
 31
0.0
  0
LINE
  5
180
330
2
100
AcDbEntity
  8
0
100
AcDbLine
 10
0.7675000000000125
 20
0.0
 30
0.0
 11
-0.7675000000000125
 21
0.0
 31
0.0
  0
LINE
  5
181
330
2
100
AcDbEntity
  8
0
100
AcDbLine
 10
0.7675000000000125
 20
0.0450000000000159
 30
0.0
 11
-0.7675000000000125
 21
0.0450000000000159
 31
0.0
  0
LINE
  5
182
330
2
100
AcDbEntity
  8
0
100
AcDbLine
 10
0.7675000000000125
 20
0.089999999999975
 30
0.0
 11
-0.7675000000000125
 21
0.089999999999975
 31
0.0
  0
LINE
  5
183
330
2
100
AcDbEntity
  8
0
100
AcDbLine
 10
0.7625000000000028
 20
0.089999999999975
 30
0.0
 11
-0.7625000000000028
 21
0.089999999999975
 31
0.0
  0
ARC
  5
184
330
2
100
AcDbEntity
  8
0
100
AcDbCircle
 10
-0.7675000000000125
 20
0.1349999999999909
 30
0.0
 40
0.135
100
AcDbArc
 50
180.0
 51
270.0
  0
ARC
  5
185
330
2
100
AcDbEntity
  8
0
100
AcDbCircle
 10
-0.7675000000000125
 20
0.1349999999999909
 30
0.0
 40
0.09
100
AcDbArc
 50
180.0
 51
270.0
  0
ARC
  5
186
330
2
100
AcDbEntity
  8
0
100
AcDbCircle
 10
-0.7675000000000125
 20
0.1349999999999909
 30
0.0
 40
0.045
100
AcDbArc
 50
180.0
 51
270.0
  0
ARC
  5
187
330
2
100
AcDbEntity
  8
0
100
AcDbCircle
 10
-0.7674999999999255
 20
1.207720000000279
 30
0.0
 40
0.045
100
AcDbArc
 50
180.0
 51
225.0000000076272
  0
LINE
  5
188
330
2
100
AcDbEntity
  8
0
100
AcDbLine
 10
-0.7993198051492509
 20
1.175900194842598
 30
0.0
 11
-0.6793198051493619
 21
0.9922605845764583
 31
0.0
  0
ARC
  5
189
330
2
100
AcDbEntity
  8
0
100
AcDbCircle
 10
-0.826342116257174
 20
1.171102700793993
 30
0.0
 40
0.2315168730279693
100
AcDbArc
 50
273.4276901945817
 51
309.4228987337908
  0
ARC
  5
18A
330
2
100
AcDbEntity
  8
0
100
AcDbCircle
 10
-0.7674999999999246
 20
0.9327200000001099
 30
0.0
 40
0.045
100
AcDbArc
 50
180.0
 51
225.0000000076272
  0
LINE
  5
18B
330
2
100
AcDbEntity
  8
0
100
AcDbLine
 10
-0.7993198051492501
 20
0.9009001948424285
 30
0.0
 11
-0.679319805149361
 21
0.7172605845762892
 31
0.0
  0
ARC
  5
18C
330
2
100
AcDbEntity
  8
0
100
AcDbCircle
 10
-0.8263421162572122
 20
0.8961027007940157
 30
0.0
 40
0.2315168730281418
100
AcDbArc
 50
273.4276901945887
 51
309.422898733768
  0
LINE
  5
18D
330
2
100
AcDbEntity
  8
0
100
AcDbLine
 10
-0.0000000000000284
 20
0.1899999999992019
 30
0.0
 11
0.0541265877365902
 21
0.089999999999975
 31
0.0
  0
LINE
  5
18E
330
2
100
AcDbEntity
  8
0
100
AcDbLine
 10
-0.0000000000000284
 20
0.1899999999992019
 30
0.0
 11
-0.054126587736647
 21
0.089999999999975
 31
0.0
  0
LINE
  5
18F
330
2
100
AcDbEntity
  8
0
100
AcDbLine
 10
-0.0935080210463468
 20
0.0899999999997476
 30
0.0
 11
-0.0935080210458921
 21
0.1898307366423637
 31
0.0
  0
LINE
  5
190
330
2
100
AcDbEntity
  8
0
100
AcDbLine
 10
0.0935080210460626
 20
0.089999999999975
 30
0.0
 11
0.0935080210460626
 21
0.1898307366428185
 31
0.0
  0
LINE
  5
191
330
2
100
AcDbEntity
  8
0
100
AcDbLine
 10
0.0935080210460626
 20
0.1898307366428185
 30
0.0
 11
0.0257468900594802
 21
0.1424320834992727
 31
0.0
  0
LINE
  5
192
330
2
100
AcDbEntity
  8
0
100
AcDbLine
 10
-0.0935080210458921
 20
0.1898307366423637
 30
0.0
 11
-0.0257468900588549
 21
0.1424320834995001
 31
0.0
  0
LINE
  5
193
330
2
100
AcDbEntity
  8
0
100
AcDbLine
 10
-0.0000000000000284
 20
0.1899999999992019
 30
0.0
 11
-0.054126587736647
 21
0.089999999999975
 31
0.0
  0
LINE
  5
194
330
2
100
AcDbEntity
  8
0
100
AcDbLine
 10
-0.0935080210458921
 20
0.1898307366423637
 30
0.0
 11
-0.0257468900589028
 21
0.1424320834995339
 31
0.0
  0
LINE
  5
195
330
2
100
AcDbEntity
  8
0
100
AcDbLine
 10
-0.0935080210463468
 20
0.089999999999975
 30
0.0
 11
-0.0935080210458921
 21
0.1898307366423637
 31
0.0
  0
LINE
  5
196
330
2
100
AcDbEntity
  8
0
100
AcDbLine
 10
-0.0000000000000284
 20
0.1899999999992019
 30
0.0
 11
0.0541265877365902
 21
0.089999999999975
 31
0.0
  0
LINE
  5
197
330
2
100
AcDbEntity
  8
0
100
AcDbLine
 10
0.0935080210460697
 20
0.089999999999975
 30
0.0
 11
0.0935080210460626
 21
0.1898307366428185
 31
0.0
  0
LINE
  5
198
330
2
100
AcDbEntity
  8
0
100
AcDbLine
 10
0.0935080210460626
 20
0.1898307366428185
 30
0.0
 11
0.0257468900591213
 21
0.1424320834990223
 31
0.0
  0
ARC
  5
199
330
2
100
AcDbEntity
  8
0
100
AcDbCircle
 10
0.7675000000000125
 20
0.1349999999999909
 30
0.0
 40
0.09
100
AcDbArc
 50
270.0
 51
0.0
  0
ARC
  5
19A
330
2
100
AcDbEntity
  8
0
100
AcDbCircle
 10
0.7675000000000125
 20
0.1349999999999909
 30
0.0
 40
0.045
100
AcDbArc
 50
270.0
 51
0.0
  0
POINT
  5
19B
330
2
100
AcDbEntity
  8
0
  6
ByBlock
 62
     0
100
AcDbPoint
 10
0.7625000000000028
 20
0.089999999999975
 30
0.0
  0
POINT
  5
19C
330
2
100
AcDbEntity
  8
0
  6
ByBlock
 62
     0
100
AcDbPoint
 10
0.7624999999999957
 20
0.089999999999975
 30
0.0
  0
POINT
  5
19D
330
2
100
AcDbEntity
  8
0
  6
ByBlock
 62
     0
100
AcDbPoint
 10
0.8125000000000071
 20
0.1399999999999757
 30
0.0
  0
ARC
  5
19E
330
2
100
AcDbEntity
  8
0
100
AcDbCircle
 10
0.8263421162571554
 20
0.8961027007940157
 30
0.0
 40
0.2315168730281418
100
AcDbArc
 50
230.5771012662321
 51
266.5723098054114
  0
LINE
  5
19F
330
2
100
AcDbEntity
  8
0
100
AcDbLine
 10
0.7993198051491932
 20
0.9009001948424285
 30
0.0
 11
0.6793198051493041
 21
0.7172605845762892
 31
0.0
  0
ARC
  5
1A0
330
2
100
AcDbEntity
  8
0
100
AcDbCircle
 10
0.7674999999998686
 20
1.207720000000279
 30
0.0
 40
0.045
100
AcDbArc
 50
314.9999999923728
 51
0.000000000000007
  0
LINE
  5
1A1
330
2
100
AcDbEntity
  8
0
100
AcDbLine
 10
0.7993198051491941
 20
1.175900194842598
 30
0.0
 11
0.679319805149305
 21
0.9922605845764583
 31
0.0
  0
ARC
  5
1A2
330
2
100
AcDbEntity
  8
0
100
AcDbCircle
 10
0.8263421162571172
 20
1.171102700793993
 30
0.0
 40
0.2315168730279693
100
AcDbArc
 50
230.5771012662092
 51
266.5723098054183
  0
ARC
  5
1A3
330
2
100
AcDbEntity
  8
0
100
AcDbCircle
 10
-1.485000000000156
 20
5.173142315092321
 30
0.0
 40
0.5025000000000001
100
AcDbArc
 50
180.0
 51
224.999999999981
1001
_DIE112SSJYHX
1002
{
1000
comp_type
1000
DBL24
1000
material
1000
D-2
1000
thickness
1040
1.25
1000
mount
1000
SBP10
1000
mntlay
1000
DIE_SUB_PLATE
1002
}
  0
LINE
  5
1A4
330
2
100
AcDbEntity
  8
0
100
AcDbLine
 10
-1.612500000000212
 20
3.458235042593003
 30
0.0
 11
-1.612500000000156
 21
4.3839287527191
 31
0.0
  0
LINE
  5
1A5
330
2
100
AcDbEntity
  8
0
100
AcDbLine
 10
-0.5838716692542203
 20
1.600360522024729
 30
0.0
 11
-0.7794698377051628
 21
2.560306871569878
 31
0.0
  0
LINE
  5
1A6
330
2
100
AcDbEntity
  8
0
100
AcDbLine
 10
-0.8574999999999662
 20
2.095896261652161
 30
0.0
 11
-1.426199924399612
 21
2.908083925117911
 31
0.0
  0
ARC
  5
1A7
330
2
100
AcDbEntity
  8
0
100
AcDbCircle
 10
-0.8574999999997033
 20
1.696250000000077
 30
0.0
 40
0.05
100
AcDbArc
 50
90.0
 51
154.158067238145
  0
LINE
  5
1A8
330
2
100
AcDbEntity
  8
0
100
AcDbLine
 10
-0.8125000000002256
 20
1.343316936683891
 30
0.0
 11
-0.5838716692542203
 21
1.600360522024729
 31
0.0
  0
ARC
  5
1A9
330
2
100
AcDbEntity
  8
0
100
AcDbCircle
 10
-0.8574999999997033
 20
2.258750000000077
 30
0.0
 40
0.05
100
AcDbArc
 50
90.0
 51
154.158067238145
  0
ARC
  5
1AA
330
2
100
AcDbEntity
  8
0
100
AcDbCircle
 10
-0.6100000000000083
 20
3.490235042593312
 30
0.0
 40
1.002500000000003
100
AcDbArc
 50
180.0
 51
214.9999999999975
1001
_DIE112SSJYHX
1002
{
1000
comp_type
1000
DBL24
1000
material
1000
D-2
1000
thickness
1040
1.25
1000
mount
1000
SBP10
1000
mntlay
1000
DIE_SUB_PLATE
1002
}
  0
ARC
  5
1AB
330
2
100
AcDbEntity
  8
0
100
AcDbCircle
 10
-0.8531216819596921
 20
2.540571919380767
 30
0.0
 40
0.07625
100
AcDbArc
 50
15.00000000003474
 51
36.33921337440425
  0
LINE
  5
1AC
330
2
100
AcDbEntity
  8
0
100
AcDbLine
 10
-0.8125
 20
2.614029400264514
 30
0.0
 11
-0.7917005594447346
 21
2.585754971612374
 31
0.0
  0
LINE
  5
1AD
330
2
100
AcDbEntity
  8
0
100
AcDbLine
 10
0.5838716692541635
 20
1.600360522024729
 30
0.0
 11
0.7794698377051059
 21
2.560306871569878
 31
0.0
  0
LINE
  5
1AE
330
2
100
AcDbEntity
  8
0
100
AcDbLine
 10
0.8125000000001688
 20
1.343316936683891
 30
0.0
 11
0.5838716692541635
 21
1.600360522024729
 31
0.0
  0
ARC
  5
1AF
330
2
100
AcDbEntity
  8
0
100
AcDbCircle
 10
0.8574999999994466
 20
1.696250000000489
 30
0.0
 40
0.05
100
AcDbArc
 50
25.84193276185504
 51
90.0
  0
ARC
  5
1B0
330
2
100
AcDbEntity
  8
0
100
AcDbCircle
 10
0.8574999999996464
 20
2.258750000000077
 30
0.0
 40
0.05
100
AcDbArc
 50
25.84193276185504
 51
90.0
  0
ARC
  5
1B1
330
2
100
AcDbEntity
  8
0
100
AcDbCircle
 10
0.8531216819596352
 20
2.540571919380767
 30
0.0
 40
0.07625
100
AcDbArc
 50
143.6607866255957
 51
164.9999999999653
  0
LINE
  5
1B2
330
2
100
AcDbEntity
  8
0
100
AcDbLine
 10
0.8124999999999432
 20
2.614029400264514
 30
0.0
 11
0.7917005594446778
 21
2.585754971612374
 31
0.0
  0
ARC
  5
1B3
330
2
100
AcDbEntity
  8
0
100
AcDbCircle
 10
-2.110000000000156
 20
4.3839287527191
 30
0.0
 40
0.4975
100
AcDbArc
 50
0.0
 51
44.99999999998109
1001
_DIE112SSJYHX
1002
{
1000
comp_type
1000
DBL24
1000
material
1000
D-2
1000
thickness
1040
1.25
1000
mount
1000
SBP10
1000
mntlay
1000
DIE_SUB_PLATE
1002
}
  0
LINE
  5
1B4
330
2
100
AcDbEntity
  8
0
100
AcDbLine
 10
-1.739965093079992
 20
4.716465093079949
 30
0.0
 11
-1.863732546540005
 21
4.84023254653996
 31
0.0
  0
CIRCLE
  5
1B5
330
2
100
AcDbEntity
  8
0
  6
Continuous
100
AcDbCircle
 10
-1.737500000000019
 20
5.089999999999973
 30
0.0
 40
0.0855
  0
LINE
  5
1B6
330
2
100
AcDbEntity
  8
0
100
AcDbLine
 10
-0.8624999999999972
 20
5.213506350946084
 30
0.0
 11
-0.8125
 21
5.213506350946084
 31
0.0
  0
LINE
  5
1B7
330
2
100
AcDbEntity
  8
0
100
AcDbLine
 10
-0.8624999999999972
 20
4.996999999999975
 30
0.0
 11
-0.8125
 21
4.996999999999975
 31
0.0
  0
LINE
  5
1B8
330
2
100
AcDbEntity
  8
0
100
AcDbLine
 10
0.8125000000000071
 20
5.213506350946084
 30
0.0
 11
0.8625000000000114
 21
5.213506350946084
 31
0.0
  0
LINE
  5
1B9
330
2
100
AcDbEntity
  8
0
100
AcDbLine
 10
0.8125000000000071
 20
4.996999999999975
 30
0.0
 11
0.8625000000000114
 21
4.996999999999975
 31
0.0
  0
LINE
  5
1BA
330
2
100
AcDbEntity
  8
0
100
AcDbLine
 10
1.612500000000036
 20
3.458235042592873
 30
0.0
 11
1.612500000000155
 21
4.3839287527191
 31
0.0
  0
ARC
  5
1BB
330
2
100
AcDbEntity
  8
0
100
AcDbCircle
 10
0.6099999999999444
 20
3.490235042593312
 30
0.0
 40
1.002500000000009
100
AcDbArc
 50
325.0000000000027
 51
0.0
1001
_DIE112SSJYHX
1002
{
1000
comp_type
1000
DBL24
1000
material
1000
D-2
1000
thickness
1040
1.25
1000
mount
1000
SBP10
1000
mntlay
1000
DIE_SUB_PLATE
1002
}
  0
ARC
  5
1BC
330
2
100
AcDbEntity
  8
0
100
AcDbCircle
 10
1.485000000000147
 20
5.173142315092322
 30
0.0
 40
0.5025000000000081
100
AcDbArc
 50
315.0000000000194
 51
359.9999999999998
1001
_DIE112SSJYHX
1002
{
1000
comp_type
1000
DBL24
1000
material
1000
D-2
1000
thickness
1040
1.25
1000
mount
1000
SBP10
1000
mntlay
1000
DIE_SUB_PLATE
1002
}
  0
ARC
  5
1BD
330
2
100
AcDbEntity
  8
0
100
AcDbCircle
 10
2.110000000000156
 20
4.3839287527191
 30
0.0
 40
0.4975
100
AcDbArc
 50
135.0000000000189
 51
180.0
1001
_DIE112SSJYHX
1002
{
1000
comp_type
1000
DBL24
1000
material
1000
D-2
1000
thickness
1040
1.25
1000
mount
1000
SBP10
1000
mntlay
1000
DIE_SUB_PLATE
1002
}
  0
LINE
  5
1BE
330
2
100
AcDbEntity
  8
0
100
AcDbLine
 10
1.758214376359732
 20
4.735714376359292
 30
0.0
 11
1.840321157546478
 21
4.817821157546243
 31
0.0
  0
CIRCLE
  5
1BF
330
2
100
AcDbEntity
  8
0
  6
Continuous
100
AcDbCircle
 10
1.737500000000019
 20
5.089999999999973
 30
0.0
 40
0.0855
  0
LINE
  5
1C0
330
2
100
AcDbEntity
  8
0
100
AcDbLine
 10
0.8625000000000114
 20
9.214999999999973
 30
0.0
 11
1.112500000000011
 21
9.214999999999973
 31
0.0
  0
LINE
  5
1C1
330
2
100
AcDbEntity
  8
0
100
AcDbLine
 10
0.8125000000000071
 20
8.728663742235161
 30
0.0
 11
1.069864720043661
 21
9.149197226926736
 31
0.0
  0
LINE
  5
1C2
330
2
100
AcDbEntity
  8
0
100
AcDbLine
 10
0.8625000000000114
 20
8.714999999999973
 30
0.0
 11
1.112500000000011
 21
9.123077638433733
 31
0.0
  0
ARC
  5
1C3
330
2
100
AcDbEntity
  8
0
100
AcDbCircle
 10
0.8125000000000071
 20
8.714999999999973
 30
0.0
 40
0.15625
100
AcDbArc
 50
288.6629248849412
 51
42.67230656116108
  0
LINE
  5
1C4
330
2
100
AcDbEntity
  8
0
100
AcDbLine
 10
-1.987500000000019
 20
8.96499999999998
 30
0.0
 11
-1.737500000000019
 21
9.21499999999998
 31
0.0
  0
ARC
  5
1C5
330
2
100
AcDbEntity
  8
0
100
AcDbCircle
 10
-0.8124999999999929
 20
8.714999999999973
 30
0.0
 40
0.15625
100
AcDbArc
 50
137.3276934388401
 51
251.3370751150561
  0
CIRCLE
  5
1C6
330
2
100
AcDbEntity
  8
0
  6
Continuous
100
AcDbCircle
 10
-1.737500000000019
 20
7.339999999999973
 30
0.0
 40
0.0855
  0
LINE
  5
1C7
330
2
100
AcDbEntity
  8
0
100
AcDbLine
 10
-1.187250000000169
 20
7.52238834764796
 30
0.0
 11
-1.187250000000162
 21
8.277499999999973
 31
0.0
  0
LINE
  5
1C8
330
2
100
AcDbEntity
  8
0
100
AcDbLine
 10
-1.375250000000165
 20
8.277499999999973
 30
0.0
 11
-1.375250000000165
 21
7.522388347648294
 31
0.0
  0
LINE
  5
1C9
330
2
100
AcDbEntity
  8
0
100
AcDbLine
 10
-1.281249999999837
 20
7.402499999999973
 30
0.0
 11
-1.20555582617601
 21
7.4781941738238
 31
0.0
  0
LINE
  5
1CA
330
2
100
AcDbEntity
  8
0
100
AcDbLine
 10
-1.281250000000163
 20
7.402499999999973
 30
0.0
 11
-1.356944173824324
 21
7.478194173824134
 31
0.0
  0
ARC
  5
1CB
330
2
100
AcDbEntity
  8
0
100
AcDbCircle
 10
-1.312750000000172
 20
7.522388347648294
 30
0.0
 40
0.0625
100
AcDbArc
 50
180.0
 51
224.9999999999999
  0
ARC
  5
1CC
330
2
100
AcDbEntity
  8
0
100
AcDbCircle
 10
-1.249750000000169
 20
7.52238834764796
 30
0.0
 40
0.0625
100
AcDbArc
 50
314.9999999999995
 51
359.9999999999998
  0
CIRCLE
  5
1CD
330
2
100
AcDbEntity
  8
0
  6
Continuous
100
AcDbCircle
 10
-1.737500000000019
 20
8.464999999999966
 30
0.0
 40
0.0855
  0
LINE
  5
1CE
330
2
100
AcDbEntity
  8
0
100
AcDbLine
 10
-1.112499999999997
 20
9.63999999999997
 30
0.0
 11
-1.487500000000019
 21
9.63999999999997
 31
0.0
  0
LINE
  5
1D0
330
2
100
AcDbEntity
  8
0
100
AcDbLine
 10
-1.487500000000004
 20
9.214999999999966
 30
0.0
 11
-1.487500000000019
 21
9.63999999999997
 31
0.0
  0
LINE
  5
1D1
330
2
100
AcDbEntity
  8
0
100
AcDbLine
 10
-1.487500000000019
 20
9.21499999999998
 30
0.0
 11
-1.737500000000019
 21
9.21499999999998
 31
0.0
  0
LINE
  5
1D2
330
2
100
AcDbEntity
  8
0
100
AcDbLine
 10
-1.112499999999997
 20
9.214999999999973
 30
0.0
 11
-1.112499999999997
 21
9.63999999999997
 31
0.0
  0
LINE
  5
1D3
330
2
100
AcDbEntity
  8
0
100
AcDbLine
 10
-0.8125
 20
8.728663742235161
 30
0.0
 11
-1.069864720043654
 21
9.149197226926736
 31
0.0
  0
LINE
  5
1D4
330
2
100
AcDbEntity
  8
0
100
AcDbLine
 10
-0.8624999999999972
 20
9.214999999999973
 30
0.0
 11
-1.112499999999997
 21
9.214999999999973
 31
0.0
  0
LINE
  5
1D5
330
2
100
AcDbEntity
  8
0
100
AcDbLine
 10
-0.8624999999999972
 20
8.714999999999973
 30
0.0
 11
-1.112499999999997
 21
9.123077638433733
 31
0.0
  0
LINE
  5
1D6
330
2
100
AcDbEntity
  8
0
100
AcDbLine
 10
-1.112499999999997
 20
9.123077638433733
 30
0.0
 11
-1.069864720043654
 21
9.149197226926736
 31
0.0
  0
LINE
  5
1D7
330
2
100
AcDbEntity
  8
0
100
AcDbLine
 10
-0.8624999999999972
 20
8.863033991029054
 30
0.0
 11
-0.8624999999999972
 21
9.214999999999973
 31
0.0
  0
ARC
  5
1D8
330
2
100
AcDbEntity
  8
0
100
AcDbCircle
 10
-0.8124999999999929
 20
8.714999999999973
 30
0.0
 40
0.15625
100
AcDbArc
 50
108.6629248849441
 51
118.8501228964894
  0
ARC
  5
1D9
330
2
100
AcDbEntity
  8
0
100
AcDbCircle
 10
0.8125000000000071
 20
8.714999999999973
 30
0.0
 40
0.15625
100
AcDbArc
 50
61.14987710351321
 51
71.33707511505588
  0
LINE
  5
1DA
330
2
100
AcDbEntity
  8
0
100
AcDbLine
 10
0.8625000000000114
 20
8.863033991029054
 30
0.0
 11
0.8625000000000114
 21
9.214999999999973
 31
0.0
  0
CIRCLE
  5
1DB
330
2
100
AcDbEntity
  8
0
  6
Continuous
100
AcDbCircle
 10
1.737500000000019
 20
7.339999999999973
 30
0.0
 40
0.0855
  0
LINE
  5
1DC
330
2
100
AcDbEntity
  8
0
100
AcDbLine
 10
1.187250000000176
 20
7.52238834764796
 30
0.0
 11
1.187250000000169
 21
8.277499999999973
 31
0.0
  0
LINE
  5
1DD
330
2
100
AcDbEntity
  8
0
100
AcDbLine
 10
1.375250000000172
 20
8.277499999999973
 30
0.0
 11
1.375250000000172
 21
7.522388347648294
 31
0.0
  0
LINE
  5
1DE
330
2
100
AcDbEntity
  8
0
100
AcDbLine
 10
1.281249999999844
 20
7.402499999999973
 30
0.0
 11
1.205555826176017
 21
7.4781941738238
 31
0.0
  0
ARC
  5
1DF
330
2
100
AcDbEntity
  8
0
100
AcDbCircle
 10
1.249750000000176
 20
7.52238834764796
 30
0.0
 40
0.0625
100
AcDbArc
 50
180.0000000000002
 51
225.0000000000005
  0
LINE
  5
1E0
330
2
100
AcDbEntity
  8
0
100
AcDbLine
 10
1.281250000000171
 20
7.402499999999973
 30
0.0
 11
1.356944173824331
 21
7.478194173824134
 31
0.0
  0
ARC
  5
1E1
330
2
100
AcDbEntity
  8
0
100
AcDbCircle
 10
1.312750000000172
 20
7.522388347648294
 30
0.0
 40
0.0625
100
AcDbArc
 50
315.0000000000001
 51
0.000000000000007
  0
CIRCLE
  5
1E2
330
2
100
AcDbEntity
  8
0
  6
Continuous
100
AcDbCircle
 10
1.737500000000019
 20
8.464999999999966
 30
0.0
 40
0.0855
  0
LINE
  5
1E3
330
2
100
AcDbEntity
  8
0
100
AcDbLine
 10
1.487500000000019
 20
9.21499999999998
 30
0.0
 11
1.737500000000019
 21
9.21499999999998
 31
0.0
  0
LINE
  5
1E5
330
2
100
AcDbEntity
  8
0
100
AcDbLine
 10
1.112500000000011
 20
9.214999999999973
 30
0.0
 11
1.112500000000011
 21
9.63999999999997
 31
0.0
  0
LINE
  5
1E6
330
2
100
AcDbEntity
  8
0
100
AcDbLine
 10
1.487500000000019
 20
9.21499999999998
 30
0.0
 11
1.487500000000019
 21
9.639999999999978
 31
0.0
  0
LINE
  5
1E7
330
2
100
AcDbEntity
  8
0
100
AcDbLine
 10
1.112500000000011
 20
9.123077638433733
 30
0.0
 11
1.069864720043661
 21
9.149197226926736
 31
0.0
  0
LINE
  5
1E8
330
2
100
AcDbEntity
  8
0
100
AcDbLine
 10
1.112500000000004
 20
9.63999999999997
 30
0.0
 11
1.487500000000011
 21
9.639999999999978
 31
0.0
  0
LINE
  5
1E9
330
2
100
AcDbEntity
  8
0
100
AcDbLine
 10
1.987500000000019
 20
8.96499999999998
 30
0.0
 11
1.737500000000019
 21
9.21499999999998
 31
0.0
  0
LINE
  5
1EA
330
2
100
AcDbEntity
  8
0
100
AcDbLine
 10
0.8630064550718073
 20
17.39863407493505
 30
0.0
 11
1.113006455071819
 21
17.64863407493505
 31
0.0
  0
LINE
  5
1EB
330
2
100
AcDbEntity
  8
0
100
AcDbLine
 10
0.8165000000000005
 20
17.39863407493505
 30
0.0
 11
1.066500000000012
 21
17.64863407493505
 31
0.0
  0
LINE
  5
1EC
330
2
100
AcDbEntity
  8
0
100
AcDbLine
 10
1.113006455071828
 20
18.15852957514192
 30
0.0
 11
0.8165000000000138
 21
18.15852957514193
 31
0.0
  0
ARC
  5
1ED
330
2
100
AcDbEntity
  8
0
100
AcDbCircle
 10
0.86677473309663
 20
16.56356714350657
 30
0.0
 40
0.0500000000000078
100
AcDbArc
 50
0.3159047222280552
 51
94.90447045795818
  0
ARC
  5
1EE
330
2
100
AcDbEntity
  8
0
100
AcDbCircle
 10
0.8672589358536609
 20
16.4757479647097
 30
0.0
 40
0.0500000000000078
100
AcDbArc
 50
265.7273389864816
 51
0.3159047222117708
  0
LINE
  5
1EF
330
2
100
AcDbEntity
  8
0
100
AcDbLine
 10
0.9085000000000143
 20
18.26963407493509
 30
0.0
 11
1.274225413175444
 21
18.26963407493509
 31
0.0
  0
LINE
  5
1F0
330
2
100
AcDbEntity
  8
0
100
AcDbLine
 10
0.9085000000000143
 20
18.22363407493509
 30
0.0
 11
1.987500000000026
 21
18.22363407493508
 31
0.0
  0
LINE
  5
1F1
330
2
100
AcDbEntity
  8
0
100
AcDbLine
 10
-1.649225413175458
 20
18.26963407493508
 30
0.0
 11
-1.987500000000019
 21
18.26963407493508
 31
0.0
  0
LINE
  5
1F2
330
2
100
AcDbEntity
  8
0
100
AcDbLine
 10
-0.9085000000000072
 20
18.22363407493509
 30
0.0
 11
-1.987500000000019
 21
18.22363407493508
 31
0.0
  0
LINE
  5
1F3
330
2
100
AcDbEntity
  8
0
100
AcDbLine
 10
-1.987500000000019
 20
18.26963407493508
 30
0.0
 11
-1.987500000000019
 21
18.22363407493508
 31
0.0
  0
LINE
  5
1F4
330
2
100
AcDbEntity
  8
0
  6
Continuous
100
AcDbLine
 10
-1.367975413175447
 20
18.95713407493508
 30
0.0
 11
-1.274225413175437
 21
18.39463407493508
 31
0.0
  0
LINE
  5
1F5
330
2
100
AcDbEntity
  8
0
  6
Continuous
100
AcDbLine
 10
-1.649225413175458
 20
18.39463407493508
 30
0.0
 11
-1.555475413175447
 21
18.95713407493508
 31
0.0
  0
LINE
  5
1F6
330
2
100
AcDbEntity
  8
0
100
AcDbLine
 10
-0.7227810187644614
 20
18.01963407493508
 30
0.0
 11
0.7227810187644685
 21
18.01963407493508
 31
0.0
  0
LINE
  5
1F7
330
2
100
AcDbEntity
  8
0
100
AcDbLine
 10
-0.7227810187644614
 20
16.01963407493508
 30
0.0
 11
0.7227810187644685
 21
16.01963407493508
 31
0.0
  0
ARC
  5
1F8
330
2
100
AcDbEntity
  8
0
100
AcDbCircle
 10
-0.9241882375535218
 20
17.21963407493503
 30
0.0
 40
0.1875
100
AcDbArc
 50
351.018376064427
 51
53.13010235415397
  0
LINE
  5
1F9
330
2
100
AcDbEntity
  8
0
100
AcDbLine
 10
-0.8625000000000043
 20
16.0196340749351
 30
0.0
 11
-0.8625000000000069
 21
17.39863407493507
 31
0.0
  0
LINE
  5
1FA
330
2
100
AcDbEntity
  8
0
100
AcDbLine
 10
-0.8165000000000049
 20
16.01963407493509
 30
0.0
 11
-0.8165000000000049
 21
18.17763407493509
 31
0.0
  0
ARC
  5
1FB
330
2
100
AcDbEntity
  8
0
100
AcDbCircle
 10
-0.8667747330966229
 20
16.56356714350657
 30
0.0
 40
0.0500000000000078
100
AcDbArc
 50
85.09552954204182
 51
179.684095277772
  0
LINE
  5
1FC
330
2
100
AcDbEntity
  8
0
100
AcDbLine
 10
-0.8165000000000049
 20
16.01963407493509
 30
0.0
 11
-0.8625000000000043
 21
16.0196340749351
 31
0.0
  0
LINE
  5
1FD
330
2
100
AcDbEntity
  8
0
100
AcDbLine
 10
-0.8672580522697189
 20
16.47590821909634
 30
0.0
 11
-0.8672580522697189
 21
16.47590821909634
 31
0.0
  0
ARC
  5
1FE
330
2
100
AcDbEntity
  8
0
100
AcDbCircle
 10
-0.8672589358536538
 20
16.4757479647097
 30
0.0
 40
0.0500000000000078
100
AcDbArc
 50
179.6840952777882
 51
274.2726610135184
  0
LINE
  5
1FF
330
2
100
AcDbEntity
  8
0
  6
Continuous
100
AcDbLine
 10
-0.9167739731101285
 20
16.56384282098609
 30
0.0
 11
-0.9172581758671576
 21
16.47602364218921
 31
0.0
  0
ARC
  5
200
330
2
100
AcDbEntity
  8
0
100
AcDbCircle
 10
-0.7852810187644614
 20
16.01963407493508
 30
0.0
 40
0.0625
100
AcDbArc
 50
0.0000000000032639
 51
90.0
  0
LINE
  5
201
330
2
100
AcDbEntity
  8
0
100
AcDbLine
 10
-0.8165000000000049
 20
16.08213407493508
 30
0.0
 11
-0.7852810187644614
 21
16.08213407493508
 31
0.0
  0
LINE
  5
202
330
2
100
AcDbEntity
  8
0
100
AcDbLine
 10
-0.8163903678130282
 20
16.74713407493508
 30
0.0
 11
-0.8625000000000043
 21
16.74713407493509
 31
0.0
  0
LINE
  5
203
330
2
100
AcDbEntity
  8
0
100
AcDbLine
 10
-0.8165000000000049
 20
16.97363407493509
 30
0.0
 11
-0.8625000000000043
 21
16.97363407493508
 31
0.0
  0
ARC
  5
204
330
2
100
AcDbEntity
  8
0
100
AcDbCircle
 10
-0.9241882375535218
 20
16.81963407493505
 30
0.0
 40
0.1875
100
AcDbArc
 50
306.8698976458378
 51
8.981623935599457
  0
POINT
  5
205
330
2
100
AcDbEntity
  8
0
  6
ByBlock
 62
     0
100
AcDbPoint
 10
-0.8165000000000049
 20
17.10113407493509
 30
0.0
  0
LINE
  5
206
330
2
100
AcDbEntity
  8
0
100
AcDbLine
 10
-0.8165000000000049
 20
17.10113407493509
 30
0.0
 11
-0.8165000000000049
 21
16.84613407493509
 31
0.0
  0
ARC
  5
207
330
2
100
AcDbEntity
  8
0
100
AcDbCircle
 10
-0.8165000000000049
 20
17.01963407493508
 30
0.0
 40
0.1874999999999982
100
AcDbArc
 50
270.0
 51
90.0
  0
LINE
  5
208
330
2
100
AcDbEntity
  8
0
100
AcDbLine
 10
-0.9085000000000072
 20
18.26963407493509
 30
0.0
 11
-1.274225413175437
 21
18.26963407493509
 31
0.0
  0
LINE
  5
209
330
2
100
AcDbEntity
  8
0
100
AcDbLine
 10
-1.375250000000165
 20
18.22363407493508
 30
0.0
 11
-1.375250000000165
 21
17.85207618566731
 31
0.0
  0
LINE
  5
20A
330
2
100
AcDbEntity
  8
0
100
AcDbLine
 10
-1.187250000000168
 20
17.8520761856673
 30
0.0
 11
-1.187250000000164
 21
18.22363407493508
 31
0.0
  0
ELLIPSE
  5
20B
330
2
100
AcDbEntity
  8
0
  6
Continuous
100
AcDbEllipse
 10
-1.281250000000166
 20
17.85207618566747
 30
0.0
 11
-0.09399999999999853
 21
1.705302565824240E-13
 31
0.0
210
0.0
220
0.0
230
1.0
 40
0.194197817966139
 41
0.0
 42
3.141592653589793
  0
LINE
  5
20C
330
2
100
AcDbEntity
  8
0
  6
Continuous
100
AcDbLine
 10
-1.649225413175458
 20
18.39463407493508
 30
0.0
 11
-1.649225413175458
 21
18.22363407493509
 31
0.0
  0
LINE
  5
20D
330
2
100
AcDbEntity
  8
0
100
AcDbLine
 10
-1.737500000000011
 20
18.26963407493508
 30
0.0
 11
-1.737500000000011
 21
18.22363407493508
 31
0.0
  0
LINE
  5
20E
330
2
100
AcDbEntity
  8
0
  6
Continuous
100
AcDbLine
 10
-1.274225413175437
 20
18.39463407493508
 30
0.0
 11
-1.274225413175437
 21
18.22363407493508
 31
0.0
  0
LINE
  5
20F
330
2
100
AcDbEntity
  8
0
100
AcDbLine
 10
-1.063006455071822
 20
17.64514053000688
 30
0.0
 11
-1.063006455071822
 21
18.15852957514194
 31
0.0
  0
LINE
  5
210
330
2
100
AcDbEntity
  8
0
100
AcDbLine
 10
-1.113006455071819
 20
17.64863407493508
 30
0.0
 11
-1.113006455071819
 21
18.15852957514194
 31
0.0
  0
LINE
  5
211
330
2
100
AcDbEntity
  8
0
100
AcDbLine
 10
-0.8165000000000049
 20
17.39863407493507
 30
0.0
 11
-1.066500000000012
 21
17.64863407493508
 31
0.0
  0
LINE
  5
212
330
2
100
AcDbEntity
  8
0
  6
Continuous
100
AcDbLine
 10
-0.8630064550718117
 20
17.39863407493507
 30
0.0
 11
-0.8165000000000049
 21
17.39863407493507
 31
0.0
  0
LINE
  5
213
330
2
100
AcDbEntity
  8
0
  6
Continuous
100
AcDbLine
 10
-1.113006455071819
 20
17.64863407493508
 30
0.0
 11
-1.066500000000012
 21
17.64863407493508
 31
0.0
  0
LINE
  5
214
330
2
100
AcDbEntity
  8
0
100
AcDbLine
 10
-0.8630064550718117
 20
17.39863407493507
 30
0.0
 11
-1.113006455071819
 21
17.64863407493508
 31
0.0
  0
LINE
  5
215
330
2
100
AcDbEntity
  8
0
100
AcDbLine
 10
-1.113006455071819
 20
18.15852957514194
 30
0.0
 11
-0.8165000000000049
 21
18.15852957514194
 31
0.0
  0
ARC
  5
216
330
2
100
AcDbEntity
  8
0
100
AcDbCircle
 10
-0.9085000000000072
 20
18.17763407493509
 30
0.0
 40
0.092
100
AcDbArc
 50
0.0000000000000833
 51
90.0000000000003
  0
LINE
  5
217
330
2
100
AcDbEntity
  8
0
100
AcDbLine
 10
-0.8625000000000087
 20
18.15852957514193
 30
0.0
 11
-0.8625000000000078
 21
18.17763407493509
 31
0.0
  0
ARC
  5
218
330
2
100
AcDbEntity
  8
0
100
AcDbCircle
 10
-0.9085000000000072
 20
18.17763407493509
 30
0.0
 40
0.046
100
AcDbArc
 50
0.0000000000000833
 51
90.0000000000003
  0
ARC
  5
219
330
2
100
AcDbEntity
  8
0
100
AcDbCircle
 10
-0.7852810187644614
 20
18.01963407493508
 30
0.0
 40
0.0625
100
AcDbArc
 50
270.0
 51
0.000000000000007
  0
LINE
  5
21A
330
2
100
AcDbEntity
  8
0
100
AcDbLine
 10
-0.8165000000000049
 20
17.95713407493508
 30
0.0
 11
-0.7852810187644614
 21
17.95713407493508
 31
0.0
  0
ARC
  5
21B
330
2
100
AcDbEntity
  8
0
100
AcDbCircle
 10
0.9241882375535218
 20
17.21963407493503
 30
0.0
 40
0.1875
100
AcDbArc
 50
126.869897645846
 51
188.9816239355731
  0
LINE
  5
21C
330
2
100
AcDbEntity
  8
0
100
AcDbLine
 10
0.8625000000000114
 20
16.0196340749351
 30
0.0
 11
0.8625000000000132
 21
17.39863407493505
 31
0.0
  0
LINE
  5
21D
330
2
100
AcDbEntity
  8
0
100
AcDbLine
 10
0.816500000000012
 20
16.01963407493509
 30
0.0
 11
0.816500000000012
 21
18.17763407493509
 31
0.0
  0
ARC
  5
21E
330
2
100
AcDbEntity
  8
0
100
AcDbCircle
 10
-0.0956468321414548
 20
16.96208710004692
 30
0.0
 40
0.03125
100
AcDbArc
 50
149.9999999999975
 51
269.9999999999993
  0
LINE
  5
21F
330
2
100
AcDbEntity
  8
0
100
AcDbLine
 10
-0.152966888524201
 20
16.97080625426663
 30
0.0
 11
-0.035512193147305
 21
17.17424375424699
 31
0.0
  0
ARC
  5
220
330
2
100
AcDbEntity
  8
0
100
AcDbCircle
 10
-0.1191377712002328
 20
16.951275004247
 30
0.0
 40
0.0390625
100
AcDbArc
 50
149.9999999999975
 51
269.9999999999993
  0
LINE
  5
221
330
2
100
AcDbEntity
  8
0
100
AcDbLine
 10
-0.119137771236165
 20
16.91221250426663
 30
0.0
 11
0.1157716194234801
 21
16.91221250398227
 31
0.0
  0
LINE
  5
222
330
2
100
AcDbEntity
  8
0
100
AcDbLine
 10
-0.12271012600063
 20
16.97771210006263
 30
0.0
 11
-0.0287463696991139
 21
17.1404621000469
 31
0.0
  0
ARC
  5
223
330
2
100
AcDbEntity
  8
0
100
AcDbCircle
 10
0.1157716194234766
 20
16.95127500398225
 30
0.0
 40
0.0390625
100
AcDbArc
 50
269.9999999999999
 51
30.0000000000028
  0
ARC
  5
224
330
2
100
AcDbEntity
  8
0
100
AcDbCircle
 10
0.0922806803575114
 20
16.96208709983512
 30
0.0
 40
0.03125
100
AcDbArc
 50
269.9999999999999
 51
30.0000000000028
  0
LINE
  5
225
330
2
100
AcDbEntity
  8
0
100
AcDbLine
 10
-0.0956468321701998
 20
16.93083710006263
 30
0.0
 11
0.0922806803575149
 21
16.93083709983513
 31
0.0
  0
ARC
  5
226
330
2
100
AcDbEntity
  8
0
100
AcDbCircle
 10
-0.0016830758119752
 20
17.15471250424699
 30
0.0
 40
0.0390625
100
AcDbArc
 50
30.00000000000072
 51
150.0000000000025
  0
ARC
  5
227
330
2
100
AcDbEntity
  8
0
100
AcDbCircle
 10
-0.0016830758308473
 20
17.1248371000469
 30
0.0
 40
0.03125
100
AcDbArc
 50
30.00000000000072
 51
150.0000000000025
  0
LINE
  5
228
330
2
100
AcDbEntity
  8
0
100
AcDbLine
 10
0.032146041523351
 20
17.17424375424698
 30
0.0
 11
0.1496007367588028
 21
16.97080625398226
 31
0.0
  0
LINE
  5
229
330
2
100
AcDbEntity
  8
0
100
AcDbLine
 10
0.0253802180374123
 20
17.1404621000469
 30
0.0
 11
0.1193439742257745
 21
16.97771209983512
 31
0.0
  0
LINE
  5
22A
330
2
100
AcDbEntity
  8
0
100
AcDbLine
 10
0.867258052269726
 20
16.47590821909634
 30
0.0
 11
0.867258052269726
 21
16.47590821909634
 31
0.0
  0
LINE
  5
22B
330
2
100
AcDbEntity
  8
0
  6
Continuous
100
AcDbLine
 10
0.9167739731101356
 20
16.56384282098609
 30
0.0
 11
0.9172581758671647
 21
16.47602364218921
 31
0.0
  0
ARC
  5
22C
330
2
100
AcDbEntity
  8
0
100
AcDbCircle
 10
0.7852810187644685
 20
16.01963407493508
 30
0.0
 40
0.0625
100
AcDbArc
 50
90.0
 51
179.9999999999967
  0
LINE
  5
22D
330
2
100
AcDbEntity
  8
0
100
AcDbLine
 10
0.816500000000012
 20
16.08213407493508
 30
0.0
 11
0.7852810187644685
 21
16.08213407493508
 31
0.0
  0
LINE
  5
22E
330
2
100
AcDbEntity
  8
0
100
AcDbLine
 10
0.816500000000012
 20
16.01963407493509
 30
0.0
 11
0.8625000000000114
 21
16.0196340749351
 31
0.0
  0
ARC
  5
22F
330
2
100
AcDbEntity
  8
0
100
AcDbCircle
 10
0.9241882375535218
 20
16.81963407493505
 30
0.0
 40
0.1875
100
AcDbArc
 50
171.0183760644005
 51
233.1301023541622
  0
ARC
  5
230
330
2
100
AcDbEntity
  8
0
100
AcDbCircle
 10
0.8165000000000049
 20
17.01963407493508
 30
0.0
 40
0.1874999999999982
100
AcDbArc
 50
90.0
 51
270.0
  0
LINE
  5
231
330
2
100
AcDbEntity
  8
0
100
AcDbLine
 10
0.8163903678130353
 20
16.74713407493508
 30
0.0
 11
0.8625000000000114
 21
16.74713407493509
 31
0.0
  0
LINE
  5
232
330
2
100
AcDbEntity
  8
0
100
AcDbLine
 10
0.816500000000012
 20
16.97363407493509
 30
0.0
 11
0.8625000000000114
 21
16.97363407493508
 31
0.0
  0
LINE
  5
233
330
2
100
AcDbEntity
  8
0
  6
Continuous
100
AcDbLine
 10
0.8630064550718073
 20
17.39863407493505
 30
0.0
 11
0.8165000000000005
 21
17.39863407493505
 31
0.0
  0
LINE
  5
234
330
2
100
AcDbEntity
  8
0
100
AcDbLine
 10
0.862500000000014
 20
18.15852957514192
 30
0.0
 11
0.8625000000000149
 21
18.17763407493509
 31
0.0
  0
ARC
  5
235
330
2
100
AcDbEntity
  8
0
100
AcDbCircle
 10
0.7852810187644685
 20
18.01963407493508
 30
0.0
 40
0.0625
100
AcDbArc
 50
180.0
 51
270.0
  0
LINE
  5
236
330
2
100
AcDbEntity
  8
0
100
AcDbLine
 10
0.816500000000012
 20
17.95713407493508
 30
0.0
 11
0.7852810187644685
 21
17.95713407493508
 31
0.0
  0
ARC
  5
237
330
2
100
AcDbEntity
  8
0
100
AcDbCircle
 10
0.9085000000000143
 20
18.17763407493509
 30
0.0
 40
0.092
100
AcDbArc
 50
89.9999999999997
 51
179.9999999999999
  0
ARC
  5
238
330
2
100
AcDbEntity
  8
0
100
AcDbCircle
 10
0.9085000000000143
 20
18.17763407493509
 30
0.0
 40
0.046
100
AcDbArc
 50
89.9999999999997
 51
179.9999999999999
  0
LINE
  5
239
330
2
100
AcDbEntity
  8
0
  6
Continuous
100
AcDbLine
 10
-1.555475413175447
 20
18.95713407493508
 30
0.0
 11
-1.367975413175447
 21
18.95713407493508
 31
0.0
  0
LINE
  5
23A
330
2
100
AcDbEntity
  8
0
  6
Continuous
100
AcDbLine
 10
1.649225413175465
 20
18.39463407493508
 30
0.0
 11
1.555475413175454
 21
18.95713407493508
 31
0.0
  0
LINE
  5
23B
330
2
100
AcDbEntity
  8
0
  6
Continuous
100
AcDbLine
 10
1.367975413175454
 20
18.95713407493508
 30
0.0
 11
1.274225413175444
 21
18.39463407493508
 31
0.0
  0
LINE
  5
23C
330
2
100
AcDbEntity
  8
0
100
AcDbLine
 10
1.113006455071819
 20
17.64863407493505
 30
0.0
 11
1.113006455071828
 21
18.15852957514192
 31
0.0
  0
LINE
  5
23D
330
2
100
AcDbEntity
  8
0
100
AcDbLine
 10
1.063006455071822
 20
17.64514053000686
 30
0.0
 11
1.063006455071831
 21
18.15852957514192
 31
0.0
  0
LINE
  5
23E
330
2
100
AcDbEntity
  8
0
100
AcDbLine
 10
1.375250000000172
 20
18.22363407493508
 30
0.0
 11
1.375250000000172
 21
17.85207618566731
 31
0.0
  0
LINE
  5
23F
330
2
100
AcDbEntity
  8
0
100
AcDbLine
 10
1.187250000000175
 20
17.8520761856673
 30
0.0
 11
1.187250000000171
 21
18.22363407493508
 31
0.0
  0
ELLIPSE
  5
240
330
2
100
AcDbEntity
  8
0
  6
Continuous
100
AcDbEllipse
 10
1.281250000000174
 20
17.85207618566746
 30
0.0
 11
-0.09399999999999853
 21
1.705302565824240E-13
 31
0.0
210
0.0
220
0.0
230
1.0
 40
0.194197817966139
 41
0.0
 42
3.141592653589793
  0
LINE
  5
241
330
2
100
AcDbEntity
  8
0
  6
Continuous
100
AcDbLine
 10
1.113006455071819
 20
17.64863407493505
 30
0.0
 11
1.066500000000012
 21
17.64863407493505
 31
0.0
  0
LINE
  5
242
330
2
100
AcDbEntity
  8
0
  6
Continuous
100
AcDbLine
 10
1.274225413175444
 20
18.39463407493508
 30
0.0
 11
1.274225413175444
 21
18.22363407493508
 31
0.0
  0
LINE
  5
243
330
2
100
AcDbEntity
  8
0
100
AcDbLine
 10
1.649225413175465
 20
18.26963407493508
 30
0.0
 11
1.987500000000026
 21
18.26963407493508
 31
0.0
  0
LINE
  5
244
330
2
100
AcDbEntity
  8
0
100
AcDbLine
 10
1.737500000000019
 20
18.26963407493508
 30
0.0
 11
1.737500000000019
 21
18.22363407493508
 31
0.0
  0
LINE
  5
245
330
2
100
AcDbEntity
  8
0
  6
Continuous
100
AcDbLine
 10
1.649225413175465
 20
18.39463407493508
 30
0.0
 11
1.649225413175465
 21
18.22363407493509
 31
0.0
  0
LINE
  5
246
330
2
100
AcDbEntity
  8
0
100
AcDbLine
 10
1.987500000000026
 20
18.26963407493508
 30
0.0
 11
1.987500000000026
 21
18.22363407493508
 31
0.0
  0
LINE
  5
247
330
2
100
AcDbEntity
  8
0
  6
Continuous
100
AcDbLine
 10
1.555475413175454
 20
18.95713407493508
 30
0.0
 11
1.367975413175454
 21
18.95713407493508
 31
0.0
  0
LINE
  5
248
330
2
100
AcDbEntity
  8
0
100
AcDbLine
 10
8.341046270634813
 20
4.73644660940664
 30
0.0
 11
8.42315305182148
 21
4.818553390593307
 31
0.0
  0
LINE
  5
249
330
2
100
AcDbEntity
  8
0
100
AcDbLine
 10
8.544599661228027
 20
1.009999999999888
 30
0.0
 11
8.39459966122805
 21
1.184999999999842
 31
0.0
  0
ARC
  5
24A
330
2
100
AcDbEntity
  8
0
100
AcDbCircle
 10
8.394599661228106
 20
1.122499999999956
 30
0.0
 40
0.1875
100
AcDbArc
 50
216.8698976458378
 51
323.130102354154
  0
LINE
  5
24B
330
2
100
AcDbEntity
  8
0
100
AcDbLine
 10
8.394599661228163
 20
0.9872605845752212
 30
0.0
 11
8.544599661228141
 21
1.010000000000002
 31
0.0
  0
ARC
  5
24D
330
2
100
AcDbEntity
  8
0
100
AcDbCircle
 10
8.429803346071658
 20
4.491252127200765
 30
0.0
 40
0.03125
100
AcDbArc
 50
119.9999999999972
 51
240.0
  0
LINE
  5
24E
330
2
100
AcDbEntity
  8
0
100
AcDbLine
 10
7.194599661228004
 20
0.170499999999933
 30
0.0
 11
7.194599661228235
 21
1.553138852532367
 31
0.0
  0
LINE
  5
24F
330
2
100
AcDbEntity
  8
0
  6
HIDDEN2
100
AcDbLine
 10
7.788349661228139
 20
0.0399999999999743
 30
0.0
 11
7.788349661228118
 21
1.602499999999953
 31
0.0
  0
LINE
  5
250
330
2
100
AcDbEntity
  8
0
  6
HIDDEN2
100
AcDbLine
 10
7.600849661228146
 20
0.0399999999999743
 30
0.0
 11
7.600849661228118
 21
1.602499999999953
 31
0.0
  0
LINE
  5
254
330
2
100
AcDbEntity
  8
0
100
AcDbLine
 10
8.14459966122805
 20
0.7349999999999106
 30
0.0
 11
7.994599661228072
 21
0.9099999999999788
 31
0.0
  0
ARC
  5
255
330
2
100
AcDbEntity
  8
0
100
AcDbCircle
 10
7.994599661228129
 20
0.8474999999999788
 30
0.0
 40
0.1875
100
AcDbArc
 50
216.8698976458378
 51
323.130102354154
  0
LINE
  5
256
330
2
100
AcDbEntity
  8
0
100
AcDbLine
 10
7.994599661228186
 20
0.7122605845752439
 30
0.0
 11
8.144599661228163
 21
0.7350000000000243
 31
0.0
  0
LINE
  5
257
330
2
100
AcDbEntity
  8
0
100
AcDbLine
 10
7.994599661228072
 20
0.9099999999999788
 30
0.0
 11
7.844599661228095
 21
0.7349999999999106
 31
0.0
  0
LINE
  5
258
330
2
100
AcDbEntity
  8
0
100
AcDbLine
 10
7.994599661228186
 20
0.7122605845752439
 30
0.0
 11
7.994599661228072
 21
0.9099999999998651
 31
0.0
  0
LINE
  5
259
330
2
100
AcDbEntity
  8
0
100
AcDbLine
 10
7.994599661228186
 20
0.7122605845752439
 30
0.0
 11
7.844599661228152
 21
0.7349999999999106
 31
0.0
  0
LINE
  5
25A
330
2
100
AcDbEntity
  8
0
100
AcDbLine
 10
8.394599661228163
 20
0.9872605845752212
 30
0.0
 11
8.39459966122805
 21
1.184999999999842
 31
0.0
  0
LINE
  5
25B
330
2
100
AcDbEntity
  8
0
100
AcDbLine
 10
8.39459966122805
 20
1.184999999999842
 30
0.0
 11
8.244599661228072
 21
1.009999999999888
 31
0.0
  0
LINE
  5
25C
330
2
100
AcDbEntity
  8
0
100
AcDbLine
 10
8.394599661228163
 20
0.9872605845752212
 30
0.0
 11
8.244599661228129
 21
1.009999999999888
 31
0.0
  0
LINE
  5
25D
330
2
100
AcDbEntity
  8
0
100
AcDbLine
 10
8.194599661228235
 20
3.454235042592938
 30
0.0
 11
8.195331894275451
 21
4.384660985765946
 31
0.0
  0
LINE
  5
25F
330
2
100
AcDbEntity
  8
0
100
AcDbLine
 10
7.284571519194479
 20
1.838493129617039
 30
0.0
 11
8.013299585627973
 21
2.879224665151048
 31
0.0
  0
ARC
  5
260
330
2
100
AcDbEntity
  8
0
  6
HIDDEN2
100
AcDbCircle
 10
7.694599661228118
 20
1.602499999999953
 30
0.0
 40
0.09375
100
AcDbArc
 50
0.0
 51
180.0
  0
ARC
  5
261
330
2
100
AcDbEntity
  8
0
100
AcDbCircle
 10
7.692099661228234
 20
1.553138852532367
 30
0.0
 40
0.4975
100
AcDbArc
 50
144.9999999999964
 51
180.0
1001
_DIE112SSJYHX
1002
{
1000
comp_type
1000
DBL24
1000
material
1000
D-2
1000
thickness
1040
1.25
1000
mount
1000
SBP10
1000
mntlay
1000
DIE_SUB_PLATE
1002
}
  0
POINT
  5
262
330
2
100
AcDbEntity
  8
0
  6
ByBlock
 62
     0
100
AcDbPoint
 10
7.194599661228146
 20
1.71499999999997
 30
0.0
  0
ARC
  5
263
330
2
100
AcDbEntity
  8
0
100
AcDbCircle
 10
8.194599661228146
 20
1.409328618174591
 30
0.0
 40
0.1874999999999982
100
AcDbArc
 50
0.0
 51
180.0
  0
ARC
  5
264
330
2
100
AcDbEntity
  8
0
100
AcDbCircle
 10
8.067099661228149
 20
1.344328618174586
 30
0.0
 40
0.06
100
AcDbArc
 50
180.0000000000001
 51
269.9999999999997
  0
LINE
  5
265
330
2
100
AcDbEntity
  8
0
100
AcDbLine
 10
8.322099661228144
 20
1.284328618174584
 30
0.0
 11
8.067099661228149
 21
1.284328618174584
 31
0.0
  0
ARC
  5
266
330
2
100
AcDbEntity
  8
0
100
AcDbCircle
 10
8.322099661228144
 20
1.344328618174586
 30
0.0
 40
0.06
100
AcDbArc
 50
270.0000000000002
 51
359.9999999999999
  0
POINT
  5
267
330
2
100
AcDbEntity
  8
0
  6
ByBlock
 62
     0
100
AcDbPoint
 10
8.194599661228146
 20
1.596828618174587
 30
0.0
  0
POINT
  5
268
330
2
100
AcDbEntity
  8
0
  6
ByBlock
 62
     0
100
AcDbPoint
 10
8.322099661228144
 20
1.284328618174584
 30
0.0
  0
POINT
  5
269
330
2
100
AcDbEntity
  8
0
  6
ByBlock
 62
     0
100
AcDbPoint
 10
8.194599661228146
 20
1.596828618174587
 30
0.0
  0
ARC
  5
26A
330
2
100
AcDbEntity
  8
0
100
AcDbCircle
 10
7.192099661228223
 20
3.454235042592941
 30
0.0
 40
1.002500000000012
100
AcDbArc
 50
325.0000000000026
 51
359.9999999999998
1001
_DIE112SSJYHX
1002
{
1000
comp_type
1000
DBL24
1000
material
1000
D-2
1000
thickness
1040
1.25
1000
mount
1000
SBP10
1000
mntlay
1000
DIE_SUB_PLATE
1002
}
  0
ARC
  5
26B
330
2
100
AcDbEntity
  8
0
100
AcDbCircle
 10
8.69283189427545
 20
4.384660985765946
 30
0.0
 40
0.4975000000000007
100
AcDbArc
 50
135.000000000019
 51
180.0
1001
_DIE112SSJYHX
1002
{
1000
comp_type
1000
DBL24
1000
material
1000
D-2
1000
thickness
1040
1.25
1000
mount
1000
SBP10
1000
mntlay
1000
DIE_SUB_PLATE
1002
}
  0
LINE
  5
26C
330
2
100
AcDbEntity
  8
0
100
AcDbLine
 10
9.444599661228146
 20
9.539999999999969
 30
0.0
 11
9.444599661228146
 21
2.067037001685646
 31
0.0
  0
LINE
  5
26D
330
2
100
AcDbEntity
  8
0
100
AcDbLine
 10
9.394599661228149
 20
9.539999999999976
 30
0.0
 11
9.394599661228149
 21
1.995629601348549
 31
0.0
  0
LINE
  5
26E
330
2
100
AcDbEntity
  8
0
100
AcDbLine
 10
8.570331894275224
 20
5.173874548139507
 30
0.0
 11
8.569599661228139
 21
8.899197226926729
 31
0.0
  0
LINE
  5
26F
330
2
100
AcDbEntity
  8
0
  6
HIDDEN2
100
AcDbLine
 10
8.788349661228118
 20
2.164999999999953
 30
0.0
 11
8.788349661228146
 21
0.0399999999999743
 31
0.0
  0
LINE
  5
270
330
2
100
AcDbEntity
  8
0
  6
HIDDEN2
100
AcDbLine
 10
8.600849661228118
 20
2.164999999999953
 30
0.0
 11
8.600849661228146
 21
0.0399999999999743
 31
0.0
  0
LINE
  5
271
330
2
100
AcDbEntity
  8
0
100
AcDbLine
 10
9.194599661228235
 20
1.553138852532367
 30
0.0
 11
9.194599661228232
 21
0.170499999999933
 31
0.0
  0
ARC
  5
279
330
2
100
AcDbEntity
  8
0
  6
HIDDEN2
100
AcDbCircle
 10
8.694599661228118
 20
2.164999999999953
 30
0.0
 40
0.09375
100
AcDbArc
 50
0.0
 51
180.0
  0
LINE
  5
27A
330
2
100
AcDbEntity
  8
0
100
AcDbLine
 10
9.284571519194195
 20
1.838493129617245
 30
0.0
 11
9.444599661228004
 21
2.067037001685446
 31
0.0
  0
ARC
  5
27B
330
2
100
AcDbEntity
  8
0
100
AcDbCircle
 10
9.692099661228234
 20
1.553138852532367
 30
0.0
 40
0.4975
100
AcDbArc
 50
144.9999999999964
 51
180.0
1001
_DIE112SSJYHX
1002
{
1000
comp_type
1000
DBL24
1000
material
1000
D-2
1000
thickness
1040
1.25
1000
mount
1000
SBP10
1000
mntlay
1000
DIE_SUB_PLATE
1002
}
  0
ARC
  5
27C
330
2
100
AcDbEntity
  8
0
100
AcDbCircle
 10
8.067831894275223
 20
5.173874548139507
 30
0.0
 40
0.5025
100
AcDbArc
 50
314.9999999999999
 51
0.0
  0
LINE
  5
27D
330
2
100
AcDbEntity
  8
0
100
AcDbLine
 10
8.576928346071675
 20
4.612279177624171
 30
0.0
 11
8.414178346071658
 21
4.51831542106903
 31
0.0
  0
LINE
  5
27E
330
2
100
AcDbEntity
  8
0
100
AcDbLine
 10
8.623799661228144
 20
4.397768255661488
 30
0.0
 11
8.623799661228158
 21
4.58569576826455
 31
0.0
  0
LINE
  5
27F
330
2
100
AcDbEntity
  8
0
100
AcDbLine
 10
8.576928346104424
 20
4.370225077265665
 30
0.0
 11
8.414178346071658
 21
4.464188833332502
 31
0.0
  0
ARC
  5
280
330
2
100
AcDbEntity
  8
0
100
AcDbCircle
 10
8.592553346071675
 20
4.585215883755907
 30
0.0
 40
0.03125
100
AcDbArc
 50
359.9999999999975
 51
119.9999999999993
  0
ARC
  5
281
330
2
100
AcDbEntity
  8
0
100
AcDbCircle
 10
8.592553346071675
 20
4.397288371134696
 30
0.0
 40
0.03125
100
AcDbArc
 50
240.0000000000007
 51
0.0000000000025076
  0
LINE
  5
282
330
2
100
AcDbEntity
  8
0
100
AcDbLine
 10
9.394599661228149
 20
5.213506350946084
 30
0.0
 11
9.444599661228146
 21
5.213506350946084
 31
0.0
  0
LINE
  5
283
330
2
100
AcDbEntity
  8
0
100
AcDbLine
 10
9.394599661228149
 20
4.996999999999975
 30
0.0
 11
9.444599661228146
 21
4.996999999999975
 31
0.0
  0
ARC
  5
284
330
2
100
AcDbEntity
  8
0
100
AcDbCircle
 10
9.419495161435023
 20
8.714999999999973
 30
0.0
 40
0.15625
100
AcDbArc
 50
125.1696929238603
 51
260.831921102219
  0
LINE
  5
285
330
2
100
AcDbEntity
  8
0
  6
Continuous
100
AcDbLine
 10
9.385126573162715
 20
7.948573088065556
 30
0.0
 11
9.096753377416057
 21
7.660199892318898
 31
0.0
  0
ARC
  5
286
330
2
100
AcDbEntity
  8
0
  6
Continuous
100
AcDbCircle
 10
9.164635628409975
 20
7.592317641324987
 30
0.0
 40
0.05
100
AcDbArc
 50
135.0000000000019
 51
255.0000000000004
  0
ARC
  5
287
330
2
100
AcDbEntity
  8
0
  6
Continuous
100
AcDbCircle
 10
9.164635628409975
 20
7.592317641324987
 30
0.0
 40
0.096
100
AcDbArc
 50
135.0000000000019
 51
254.9999999999993
  0
LINE
  5
288
330
2
100
AcDbEntity
  8
0
  6
Continuous
100
AcDbLine
 10
9.394599661228146
 20
7.892992352261812
 30
0.0
 11
9.129280289350639
 21
7.627672980384316
 31
0.0
  0
ARC
  5
289
330
2
100
AcDbEntity
  8
0
  6
Continuous
100
AcDbCircle
 10
9.352599661228133
 20
7.981100000000138
 30
0.0
 40
0.046
100
AcDbArc
 50
315.0000000000002
 51
335.9293853774835
  0
ARC
  5
28A
330
2
100
AcDbEntity
  8
0
  6
Continuous
100
AcDbCircle
 10
9.329864100731907
 20
7.98750162342253
 30
0.0
 40
0.1148432675996877
100
AcDbArc
 50
315.1652224024733
 51
351.5634350384797
  0
LINE
  5
28B
330
2
100
AcDbEntity
  8
0
  6
Continuous
100
AcDbLine
 10
9.15169467615484
 20
7.544021350010537
 30
0.0
 11
9.393176132727113
 21
7.479316588734902
 31
0.0
  0
LINE
  5
28C
330
2
100
AcDbEntity
  8
0
  6
Continuous
100
AcDbLine
 10
9.139789000080121
 20
7.499588762001244
 30
0.0
 11
9.381270456652395
 21
7.434884000725601
 31
0.0
  0
LINE
  5
28D
330
2
100
AcDbEntity
  8
0
  6
Continuous
100
AcDbLine
 10
9.393176132727113
 20
7.47931658873493
 30
0.0
 11
9.381270456652409
 21
7.434884000725637
 31
0.0
  0
LINE
  5
28E
330
2
100
AcDbEntity
  8
0
100
AcDbLine
 10
9.494599661228143
 20
9.589999999999973
 30
0.0
 11
10.06959966122815
 21
9.589999999999973
 31
0.0
  0
LINE
  5
28F
330
2
100
AcDbEntity
  8
0
100
AcDbLine
 10
9.494599661228151
 20
9.63999999999997
 30
0.0
 11
10.06959966122815
 21
9.63999999999997
 31
0.0
  0
LINE
  5
290
330
2
100
AcDbEntity
  8
0
100
AcDbLine
 10
8.569599661228139
 20
8.714999999999966
 30
0.0
 11
9.263245161435023
 21
8.714999999999973
 31
0.0
  0
LINE
  5
291
330
2
100
AcDbEntity
  8
0
100
AcDbLine
 10
8.819599661228146
 20
9.149197226926736
 30
0.0
 11
9.329495161435013
 21
9.149197226926736
 31
0.0
  0
LINE
  5
292
330
2
100
AcDbEntity
  8
0
100
AcDbLine
 10
8.769599661228149
 20
9.099197226926739
 30
0.0
 11
9.329495161435013
 21
9.099197226926739
 31
0.0
  0
LINE
  5
293
330
2
100
AcDbEntity
  8
0
100
AcDbLine
 10
8.569599661228139
 20
8.899197226926729
 30
0.0
 11
8.819599661228146
 21
9.149197226926736
 31
0.0
  0
LINE
  5
294
330
2
100
AcDbEntity
  8
0
100
AcDbLine
 10
9.329495161435013
 20
9.149197226926736
 30
0.0
 11
9.329495161435013
 21
8.842726514475229
 31
0.0
  0
ARC
  5
295
330
2
100
AcDbEntity
  8
0
100
AcDbCircle
 10
9.494599661228143
 20
9.539999999999969
 30
0.0
 40
0.05
100
AcDbArc
 50
90.0
 51
180.0
  0
ARC
  5
296
330
2
100
AcDbEntity
  8
0
100
AcDbCircle
 10
9.494599661228151
 20
9.539999999999976
 30
0.0
 40
0.1
100
AcDbArc
 50
90.0
 51
180.0
  0
LINE
  5
297
330
2
100
AcDbEntity
  8
0
100
AcDbLine
 10
10.06959966122815
 20
9.63999999999997
 30
0.0
 11
10.06959966122815
 21
9.589999999999973
 31
0.0
  0
LINE
  5
298
330
2
100
AcDbEntity
  8
0
  6
Continuous
100
AcDbLine
 10
-1.365256426651637
 20
9.339999999999948
 30
0.0
 11
-1.2347435733484
 21
9.339999999999948
 31
0.0
  0
LINE
  5
299
330
2
100
AcDbEntity
  8
0
  6
Continuous
100
AcDbLine
 10
-1.2347435733484
 20
9.339999999999948
 30
0.0
 11
-1.2347435733484
 21
9.089999999999948
 31
0.0
  0
LINE
  5
29A
330
2
100
AcDbEntity
  8
0
  6
Continuous
100
AcDbLine
 10
-1.2347435733484
 20
9.089999999999948
 30
0.0
 11
-1.365256426651637
 21
9.089999999999948
 31
0.0
  0
LINE
  5
29B
330
2
100
AcDbEntity
  8
0
  6
Continuous
100
AcDbLine
 10
-1.365256426651637
 20
9.089999999999948
 30
0.0
 11
-1.365256426651637
 21
9.339999999999948
 31
0.0
  0
LINE
  5
29C
330
2
100
AcDbEntity
  8
0
  6
Continuous
100
AcDbLine
 10
1.235000000000021
 20
9.339999999999984
 30
0.0
 11
1.365512853303258
 21
9.339999999999984
 31
0.0
  0
LINE
  5
29D
330
2
100
AcDbEntity
  8
0
  6
Continuous
100
AcDbLine
 10
1.365512853303258
 20
9.339999999999984
 30
0.0
 11
1.365512853303258
 21
9.089999999999984
 31
0.0
  0
LINE
  5
29E
330
2
100
AcDbEntity
  8
0
  6
Continuous
100
AcDbLine
 10
1.365512853303258
 20
9.089999999999984
 30
0.0
 11
1.235000000000021
 21
9.089999999999984
 31
0.0
  0
LINE
  5
29F
330
2
100
AcDbEntity
  8
0
  6
Continuous
100
AcDbLine
 10
1.235000000000021
 20
9.089999999999984
 30
0.0
 11
1.235000000000021
 21
9.339999999999984
 31
0.0
  0
LINE
  5
2A0
330
2
100
AcDbEntity
  8
0
100
AcDbLine
 10
8.382099661228143
 20
1.344328618174586
 30
0.0
 11
8.380847464277586
 21
1.71047841297651
 31
0.0
  0
LINE
  5
2A1
330
2
100
AcDbEntity
  8
0
100
AcDbLine
 10
8.380847464277586
 20
1.71047841297651
 30
0.0
 11
8.377981036577431
 21
1.798155638876562
 31
0.0
  0
LINE
  5
2A2
330
2
100
AcDbEntity
  8
0
100
AcDbLine
 10
8.377981036577431
 20
1.798155638876562
 30
0.0
 11
8.373711466777387
 21
1.878230283776485
 31
0.0
  0
LINE
  5
2A3
330
2
100
AcDbEntity
  8
0
100
AcDbLine
 10
8.373711466777387
 20
1.878230283776485
 30
0.0
 11
8.368331811777544
 21
1.951392941076403
 31
0.0
  0
LINE
  5
2A4
330
2
100
AcDbEntity
  8
0
100
AcDbLine
 10
8.368331811777544
 20
1.951392941076403
 30
0.0
 11
8.362062616277591
 21
2.018257840476519
 31
0.0
  0
LINE
  5
2A5
330
2
100
AcDbEntity
  8
0
100
AcDbLine
 10
8.362062616277591
 20
2.018257840476519
 30
0.0
 11
8.355069648677464
 21
2.079385567376459
 31
0.0
  0
LINE
  5
2A6
330
2
100
AcDbEntity
  8
0
100
AcDbLine
 10
8.355069648677464
 20
2.079385567376459
 30
0.0
 11
8.347479738277535
 21
2.135260034176564
 31
0.0
  0
LINE
  5
2A7
330
2
100
AcDbEntity
  8
0
100
AcDbLine
 10
8.347479738277535
 20
2.135260034176564
 30
0.0
 11
8.339388300577603
 21
2.186311956276551
 31
0.0
  0
LINE
  5
2A8
330
2
100
AcDbEntity
  8
0
100
AcDbLine
 10
8.339388300577603
 20
2.186311956276551
 30
0.0
 11
8.330868766577588
 21
2.232905598176568
 31
0.0
  0
LINE
  5
2A9
330
2
100
AcDbEntity
  8
0
100
AcDbLine
 10
8.330868766577588
 20
2.232905598176568
 30
0.0
 11
8.321967887577522
 21
2.27539225037641
 31
0.0
  0
LINE
  5
2AA
330
2
100
AcDbEntity
  8
0
100
AcDbLine
 10
8.321967887577522
 20
2.27539225037641
 30
0.0
 11
8.312715697877557
 21
2.314066008976408
 31
0.0
  0
LINE
  5
2AB
330
2
100
AcDbEntity
  8
0
100
AcDbLine
 10
8.312715697877557
 20
2.314066008976408
 30
0.0
 11
8.303126271977554
 21
2.349173799276525
 31
0.0
  0
LINE
  5
2AC
330
2
100
AcDbEntity
  8
0
100
AcDbLine
 10
8.303126271977554
 20
2.349173799276525
 30
0.0
 11
8.293195508577547
 21
2.380925059676439
 31
0.0
  0
LINE
  5
2AD
330
2
100
AcDbEntity
  8
0
100
AcDbLine
 10
8.293195508577547
 20
2.380925059676439
 30
0.0
 11
8.282901714077489
 21
2.409481908776581
 31
0.0
  0
LINE
  5
2AE
330
2
100
AcDbEntity
  8
0
100
AcDbLine
 10
8.282901714077489
 20
2.409481908776581
 30
0.0
 11
8.272195362377453
 21
2.434970441876441
 31
0.0
  0
LINE
  5
2AF
330
2
100
AcDbEntity
  8
0
100
AcDbLine
 10
8.272195362377453
 20
2.434970441876441
 30
0.0
 11
8.260983986777511
 21
2.457474375976528
 31
0.0
  0
LINE
  5
2B0
330
2
100
AcDbEntity
  8
0
100
AcDbLine
 10
8.260983986777511
 20
2.457474375976528
 30
0.0
 11
8.249158342377505
 21
2.476932307376512
 31
0.0
  0
LINE
  5
2B1
330
2
100
AcDbEntity
  8
0
100
AcDbLine
 10
8.249158342377505
 20
2.476932307376512
 30
0.0
 11
8.236580493277607
 21
2.493126267376521
 31
0.0
  0
LINE
  5
2B2
330
2
100
AcDbEntity
  8
0
100
AcDbLine
 10
8.236580493277607
 20
2.493126267376521
 30
0.0
 11
8.223105424377501
 21
2.505605805476545
 31
0.0
  0
LINE
  5
2B3
330
2
100
AcDbEntity
  8
0
100
AcDbLine
 10
8.223105424377501
 20
2.505605805476545
 30
0.0
 11
8.208953702577411
 21
2.513510903376538
 31
0.0
  0
LINE
  5
2B4
330
2
100
AcDbEntity
  8
0
100
AcDbLine
 10
8.208953702577411
 20
2.513510903376538
 30
0.0
 11
8.194830773177465
 21
2.516224003176614
 31
0.0
  0
LINE
  5
2B5
330
2
100
AcDbEntity
  8
0
100
AcDbLine
 10
8.194830773177465
 20
2.516224003176614
 30
0.0
 11
8.180633241877523
 21
2.513786956776595
 31
0.0
  0
LINE
  5
2B6
330
2
100
AcDbEntity
  8
0
100
AcDbLine
 10
8.180633241877523
 20
2.513786956776595
 30
0.0
 11
8.166391115777479
 21
2.50609693637649
 31
0.0
  0
LINE
  5
2B7
330
2
100
AcDbEntity
  8
0
100
AcDbLine
 10
8.166391115777479
 20
2.50609693637649
 30
0.0
 11
8.152845029877391
 21
2.493783372976406
 31
0.0
  0
LINE
  5
2B8
330
2
100
AcDbEntity
  8
0
100
AcDbLine
 10
8.152845029877391
 20
2.493783372976406
 30
0.0
 11
8.140183363277593
 21
2.477681044676512
 31
0.0
  0
LINE
  5
2B9
330
2
100
AcDbEntity
  8
0
100
AcDbLine
 10
8.140183363277593
 20
2.477681044676512
 30
0.0
 11
8.128287153377606
 21
2.458278693576414
 31
0.0
  0
LINE
  5
2BA
330
2
100
AcDbEntity
  8
0
100
AcDbLine
 10
8.128287153377606
 20
2.458278693576414
 30
0.0
 11
8.117014212477407
 21
2.435802209376572
 31
0.0
  0
LINE
  5
2BB
330
2
100
AcDbEntity
  8
0
100
AcDbLine
 10
8.117014212477407
 20
2.435802209376572
 30
0.0
 11
8.106254399477585
 21
2.410321751476442
 31
0.0
  0
LINE
  5
2BC
330
2
100
AcDbEntity
  8
0
100
AcDbLine
 10
8.106254399477585
 20
2.410321751476442
 30
0.0
 11
8.095914856177579
 21
2.381761808576595
 31
0.0
  0
LINE
  5
2BD
330
2
100
AcDbEntity
  8
0
100
AcDbLine
 10
8.095914856177579
 20
2.381761808576595
 30
0.0
 11
8.085943209777462
 21
2.349995059576497
 31
0.0
  0
LINE
  5
2BE
330
2
100
AcDbEntity
  8
0
100
AcDbLine
 10
8.085943209777462
 20
2.349995059576497
 30
0.0
 11
8.076317321777388
 21
2.31486235917647
 31
0.0
  0
LINE
  5
2BF
330
2
100
AcDbEntity
  8
0
100
AcDbLine
 10
8.076317321777388
 20
2.31486235917647
 30
0.0
 11
8.067032326077388
 21
2.276155018076462
 31
0.0
  0
LINE
  5
2C0
330
2
100
AcDbEntity
  8
0
100
AcDbLine
 10
8.067032326077388
 20
2.276155018076462
 30
0.0
 11
8.058101831777513
 21
2.233626791876542
 31
0.0
  0
LINE
  5
2C1
330
2
100
AcDbEntity
  8
0
100
AcDbLine
 10
8.058101831777513
 20
2.233626791876542
 30
0.0
 11
8.049555772777431
 21
2.186985305676455
 31
0.0
  0
LINE
  5
2C2
330
2
100
AcDbEntity
  8
0
100
AcDbLine
 10
8.049555772777431
 20
2.186985305676455
 30
0.0
 11
8.04144032837754
 21
2.135877662876521
 31
0.0
  0
LINE
  5
2C3
330
2
100
AcDbEntity
  8
0
100
AcDbLine
 10
8.04144032837754
 20
2.135877662876521
 30
0.0
 11
8.0338289875776
 21
2.079940624576476
 31
0.0
  0
LINE
  5
2C4
330
2
100
AcDbEntity
  8
0
100
AcDbLine
 10
8.0338289875776
 20
2.079940624576476
 30
0.0
 11
8.026817063677491
 21
2.018742866876448
 31
0.0
  0
LINE
  5
2C5
330
2
100
AcDbEntity
  8
0
100
AcDbLine
 10
8.026817063677491
 20
2.018742866876448
 30
0.0
 11
8.020531426677472
 21
1.951799814376511
 31
0.0
  0
LINE
  5
2C6
330
2
100
AcDbEntity
  8
0
100
AcDbLine
 10
8.020531426677472
 20
1.951799814376511
 30
0.0
 11
8.015138068477391
 21
1.878550791076588
 31
0.0
  0
LINE
  5
2C7
330
2
100
AcDbEntity
  8
0
100
AcDbLine
 10
8.015138068477391
 20
1.878550791076588
 30
0.0
 11
8.010857817477437
 21
1.798380101876557
 31
0.0
  0
LINE
  5
2C8
330
2
100
AcDbEntity
  8
0
100
AcDbLine
 10
8.010857817477437
 20
1.798380101876557
 30
0.0
 11
8.007984301077578
 21
1.710596414776557
 31
0.0
  0
LINE
  5
2C9
330
2
100
AcDbEntity
  8
0
100
AcDbLine
 10
8.007984301077578
 20
1.710596414776557
 30
0.0
 11
8.00709966122815
 21
1.344328618174586
 31
0.0
  0
LINE
  5
2CE
330
2
100
AcDbEntity
  8
0
100
AcDbLine
 10
-9.444599661228139
 20
9.539999999999969
 30
0.0
 11
-9.444599661228139
 21
2.067037001685646
 31
0.0
  0
LINE
  5
2CF
330
2
100
AcDbEntity
  8
0
100
AcDbLine
 10
-9.394599661228142
 20
9.539999999999976
 30
0.0
 11
-9.394599661228142
 21
1.995629601348549
 31
0.0
  0
LINE
  5
2D0
330
2
100
AcDbEntity
  8
0
100
AcDbLine
 10
-8.570331894275217
 20
5.173874548139507
 30
0.0
 11
-8.569599661228132
 21
8.899197226926729
 31
0.0
  0
ARC
  5
2D1
330
2
100
AcDbEntity
  8
0
100
AcDbCircle
 10
-8.394599661228099
 20
1.122499999999956
 30
0.0
 40
0.1875
100
AcDbArc
 50
216.869897645846
 51
323.1301023541623
  0
LINE
  5
2D2
330
2
100
AcDbEntity
  8
0
  6
HIDDEN2
100
AcDbLine
 10
-7.788349661228132
 20
0.0399999999999743
 30
0.0
 11
-7.788349661228111
 21
1.602499999999953
 31
0.0
  0
LINE
  5
2D3
330
2
100
AcDbEntity
  8
0
  6
HIDDEN2
100
AcDbLine
 10
-7.600849661228139
 20
0.0399999999999743
 30
0.0
 11
-7.600849661228111
 21
1.602499999999953
 31
0.0
  0
LINE
  5
2D4
330
2
100
AcDbEntity
  8
0
  6
HIDDEN2
100
AcDbLine
 10
-8.788349661228111
 20
2.164999999999953
 30
0.0
 11
-8.788349661228139
 21
0.0399999999999743
 31
0.0
  0
LINE
  5
2D5
330
2
100
AcDbEntity
  8
0
  6
HIDDEN2
100
AcDbLine
 10
-8.600849661228111
 20
2.164999999999953
 30
0.0
 11
-8.600849661228139
 21
0.0399999999999743
 31
0.0
  0
LINE
  5
2D6
330
2
100
AcDbEntity
  8
0
100
AcDbLine
 10
-9.194599661228228
 20
1.553138852532367
 30
0.0
 11
-9.194599661228224
 21
0.170499999999933
 31
0.0
  0
LINE
  5
2D7
330
2
100
AcDbEntity
  8
0
100
AcDbLine
 10
-7.194599661227997
 20
0.170499999999933
 30
0.0
 11
-7.194599661228228
 21
1.553138852532367
 31
0.0
  0
LINE
  5
2D9
330
2
100
AcDbEntity
  8
0
100
AcDbLine
 10
-7.994599661228065
 20
0.9099999999999788
 30
0.0
 11
-7.844599661228088
 21
0.7349999999999106
 31
0.0
  0
LINE
  5
2DA
330
2
100
AcDbEntity
  8
0
100
AcDbLine
 10
-7.994599661228179
 20
0.7122605845752439
 30
0.0
 11
-7.844599661228145
 21
0.7349999999999106
 31
0.0
  0
ARC
  5
2DB
330
2
100
AcDbEntity
  8
0
100
AcDbCircle
 10
-7.994599661228122
 20
0.8474999999999788
 30
0.0
 40
0.1875
100
AcDbArc
 50
216.869897645846
 51
323.1301023541623
  0
LINE
  5
2DF
330
2
100
AcDbEntity
  8
0
100
AcDbLine
 10
-7.994599661228179
 20
0.7122605845752439
 30
0.0
 11
-7.994599661228065
 21
0.9099999999998651
 31
0.0
  0
LINE
  5
2E0
330
2
100
AcDbEntity
  8
0
100
AcDbLine
 10
-8.144599661228043
 20
0.7349999999999106
 30
0.0
 11
-7.994599661228065
 21
0.9099999999999788
 31
0.0
  0
LINE
  5
2E1
330
2
100
AcDbEntity
  8
0
100
AcDbLine
 10
-7.994599661228179
 20
0.7122605845752439
 30
0.0
 11
-8.144599661228156
 21
0.7350000000000243
 31
0.0
  0
ARC
  5
2E9
330
2
100
AcDbEntity
  8
0
100
AcDbCircle
 10
-7.192099661228216
 20
3.454235042592941
 30
0.0
 40
1.002500000000012
100
AcDbArc
 50
180.0000000000002
 51
214.9999999999974
1001
_DIE112SSJYHX
1002
{
1000
comp_type
1000
DBL24
1000
material
1000
D-2
1000
thickness
1040
1.25
1000
mount
1000
SBP10
1000
mntlay
1000
DIE_SUB_PLATE
1002
}
  0
LINE
  5
2EA
330
2
100
AcDbEntity
  8
0
100
AcDbLine
 10
-7.284571519194472
 20
1.838493129617039
 30
0.0
 11
-8.013299585627966
 21
2.879224665151048
 31
0.0
  0
ARC
  5
2EB
330
2
100
AcDbEntity
  8
0
100
AcDbCircle
 10
-7.692099661228227
 20
1.553138852532367
 30
0.0
 40
0.4975
100
AcDbArc
 50
0.000000000000007
 51
35.0000000000036
1001
_DIE112SSJYHX
1002
{
1000
comp_type
1000
DBL24
1000
material
1000
D-2
1000
thickness
1040
1.25
1000
mount
1000
SBP10
1000
mntlay
1000
DIE_SUB_PLATE
1002
}
  0
POINT
  5
2EC
330
2
100
AcDbEntity
  8
0
  6
ByBlock
 62
     0
100
AcDbPoint
 10
-7.194599661228139
 20
1.71499999999997
 30
0.0
  0
ARC
  5
2ED
330
2
100
AcDbEntity
  8
0
  6
HIDDEN2
100
AcDbCircle
 10
-7.694599661228111
 20
1.602499999999953
 30
0.0
 40
0.09375
100
AcDbArc
 50
0.000000000000007
 51
180.0
  0
ARC
  5
2EE
330
2
100
AcDbEntity
  8
0
  6
HIDDEN2
100
AcDbCircle
 10
-8.694599661228111
 20
2.164999999999953
 30
0.0
 40
0.09375
100
AcDbArc
 50
0.000000000000007
 51
180.0
  0
LINE
  5
2EF
330
2
100
AcDbEntity
  8
0
100
AcDbLine
 10
-8.339388300577596
 20
2.186311956276551
 30
0.0
 11
-8.330868766577581
 21
2.232905598176568
 31
0.0
  0
LINE
  5
2F0
330
2
100
AcDbEntity
  8
0
100
AcDbLine
 10
-8.058101831777506
 20
2.233626791876542
 30
0.0
 11
-8.049555772777424
 21
2.186985305676455
 31
0.0
  0
LINE
  5
2F1
330
2
100
AcDbEntity
  8
0
100
AcDbLine
 10
-8.54459966122802
 20
1.009999999999888
 30
0.0
 11
-8.394599661228043
 21
1.184999999999842
 31
0.0
  0
LINE
  5
2F2
330
2
100
AcDbEntity
  8
0
100
AcDbLine
 10
-8.394599661228156
 20
0.9872605845752212
 30
0.0
 11
-8.544599661228133
 21
1.010000000000002
 31
0.0
  0
LINE
  5
2F3
330
2
100
AcDbEntity
  8
0
100
AcDbLine
 10
-8.382099661228136
 20
1.344328618174586
 30
0.0
 11
-8.380847464277579
 21
1.71047841297651
 31
0.0
  0
LINE
  5
2F4
330
2
100
AcDbEntity
  8
0
100
AcDbLine
 10
-8.00798430107757
 20
1.710596414776557
 30
0.0
 11
-8.007099661228143
 21
1.344328618174586
 31
0.0
  0
ARC
  5
2F5
330
2
100
AcDbEntity
  8
0
100
AcDbCircle
 10
-8.194599661228139
 20
1.409328618174591
 30
0.0
 40
0.1874999999999982
100
AcDbArc
 50
0.000000000000007
 51
180.0
  0
LINE
  5
2F6
330
2
100
AcDbEntity
  8
0
100
AcDbLine
 10
-8.322099661228137
 20
1.284328618174584
 30
0.0
 11
-8.067099661228141
 21
1.284328618174584
 31
0.0
  0
ARC
  5
2F7
330
2
100
AcDbEntity
  8
0
100
AcDbCircle
 10
-8.067099661228141
 20
1.344328618174586
 30
0.0
 40
0.06
100
AcDbArc
 50
270.0000000000003
 51
359.9999999999999
  0
LINE
  5
2F8
330
2
100
AcDbEntity
  8
0
100
AcDbLine
 10
-8.394599661228156
 20
0.9872605845752212
 30
0.0
 11
-8.394599661228043
 21
1.184999999999842
 31
0.0
  0
ARC
  5
2F9
330
2
100
AcDbEntity
  8
0
100
AcDbCircle
 10
-8.322099661228137
 20
1.344328618174586
 30
0.0
 40
0.06
100
AcDbArc
 50
180.0000000000001
 51
269.9999999999998
  0
POINT
  5
2FA
330
2
100
AcDbEntity
  8
0
  6
ByBlock
 62
     0
100
AcDbPoint
 10
-8.322099661228137
 20
1.284328618174584
 30
0.0
  0
LINE
  5
2FB
330
2
100
AcDbEntity
  8
0
100
AcDbLine
 10
-8.394599661228043
 20
1.184999999999842
 30
0.0
 11
-8.244599661228065
 21
1.009999999999888
 31
0.0
  0
LINE
  5
2FC
330
2
100
AcDbEntity
  8
0
100
AcDbLine
 10
-8.394599661228156
 20
0.9872605845752212
 30
0.0
 11
-8.244599661228122
 21
1.009999999999888
 31
0.0
  0
LINE
  5
2FD
330
2
100
AcDbEntity
  8
0
100
AcDbLine
 10
-8.049555772777424
 20
2.186985305676455
 30
0.0
 11
-8.041440328377533
 21
2.135877662876521
 31
0.0
  0
LINE
  5
2FE
330
2
100
AcDbEntity
  8
0
100
AcDbLine
 10
-8.041440328377533
 20
2.135877662876521
 30
0.0
 11
-8.033828987577593
 21
2.079940624576476
 31
0.0
  0
LINE
  5
2FF
330
2
100
AcDbEntity
  8
0
100
AcDbLine
 10
-8.033828987577593
 20
2.079940624576476
 30
0.0
 11
-8.026817063677484
 21
2.018742866876448
 31
0.0
  0
LINE
  5
300
330
2
100
AcDbEntity
  8
0
100
AcDbLine
 10
-8.026817063677484
 20
2.018742866876448
 30
0.0
 11
-8.020531426677465
 21
1.951799814376511
 31
0.0
  0
LINE
  5
301
330
2
100
AcDbEntity
  8
0
100
AcDbLine
 10
-8.020531426677465
 20
1.951799814376511
 30
0.0
 11
-8.015138068477384
 21
1.878550791076588
 31
0.0
  0
LINE
  5
302
330
2
100
AcDbEntity
  8
0
100
AcDbLine
 10
-8.015138068477384
 20
1.878550791076588
 30
0.0
 11
-8.010857817477429
 21
1.798380101876557
 31
0.0
  0
LINE
  5
303
330
2
100
AcDbEntity
  8
0
100
AcDbLine
 10
-8.010857817477429
 20
1.798380101876557
 30
0.0
 11
-8.00798430107757
 21
1.710596414776557
 31
0.0
  0
LINE
  5
304
330
2
100
AcDbEntity
  8
0
100
AcDbLine
 10
-8.380847464277579
 20
1.71047841297651
 30
0.0
 11
-8.377981036577424
 21
1.798155638876562
 31
0.0
  0
LINE
  5
305
330
2
100
AcDbEntity
  8
0
100
AcDbLine
 10
-8.377981036577424
 20
1.798155638876562
 30
0.0
 11
-8.37371146677738
 21
1.878230283776485
 31
0.0
  0
LINE
  5
306
330
2
100
AcDbEntity
  8
0
100
AcDbLine
 10
-8.37371146677738
 20
1.878230283776485
 30
0.0
 11
-8.368331811777537
 21
1.951392941076403
 31
0.0
  0
LINE
  5
307
330
2
100
AcDbEntity
  8
0
100
AcDbLine
 10
-8.368331811777537
 20
1.951392941076403
 30
0.0
 11
-8.362062616277584
 21
2.018257840476519
 31
0.0
  0
LINE
  5
308
330
2
100
AcDbEntity
  8
0
100
AcDbLine
 10
-8.362062616277584
 20
2.018257840476519
 30
0.0
 11
-8.355069648677457
 21
2.079385567376459
 31
0.0
  0
LINE
  5
309
330
2
100
AcDbEntity
  8
0
100
AcDbLine
 10
-8.355069648677457
 20
2.079385567376459
 30
0.0
 11
-8.347479738277528
 21
2.135260034176564
 31
0.0
  0
LINE
  5
30A
330
2
100
AcDbEntity
  8
0
100
AcDbLine
 10
-8.347479738277528
 20
2.135260034176564
 30
0.0
 11
-8.339388300577596
 21
2.186311956276551
 31
0.0
  0
POINT
  5
30B
330
2
100
AcDbEntity
  8
0
  6
ByBlock
 62
     0
100
AcDbPoint
 10
-8.194599661228139
 20
1.596828618174587
 30
0.0
  0
POINT
  5
30C
330
2
100
AcDbEntity
  8
0
  6
ByBlock
 62
     0
100
AcDbPoint
 10
-8.194599661228139
 20
1.596828618174587
 30
0.0
  0
LINE
  5
30D
330
2
100
AcDbEntity
  8
0
100
AcDbLine
 10
-8.194830773177458
 20
2.516224003176614
 30
0.0
 11
-8.180633241877516
 21
2.513786956776595
 31
0.0
  0
LINE
  5
30E
330
2
100
AcDbEntity
  8
0
100
AcDbLine
 10
-8.180633241877516
 20
2.513786956776595
 30
0.0
 11
-8.166391115777472
 21
2.50609693637649
 31
0.0
  0
LINE
  5
30F
330
2
100
AcDbEntity
  8
0
100
AcDbLine
 10
-8.166391115777472
 20
2.50609693637649
 30
0.0
 11
-8.152845029877383
 21
2.493783372976406
 31
0.0
  0
LINE
  5
310
330
2
100
AcDbEntity
  8
0
100
AcDbLine
 10
-8.152845029877383
 20
2.493783372976406
 30
0.0
 11
-8.140183363277586
 21
2.477681044676512
 31
0.0
  0
LINE
  5
311
330
2
100
AcDbEntity
  8
0
100
AcDbLine
 10
-8.140183363277586
 20
2.477681044676512
 30
0.0
 11
-8.128287153377599
 21
2.458278693576414
 31
0.0
  0
LINE
  5
312
330
2
100
AcDbEntity
  8
0
100
AcDbLine
 10
-8.128287153377599
 20
2.458278693576414
 30
0.0
 11
-8.1170142124774
 21
2.435802209376572
 31
0.0
  0
LINE
  5
313
330
2
100
AcDbEntity
  8
0
100
AcDbLine
 10
-8.1170142124774
 20
2.435802209376572
 30
0.0
 11
-8.106254399477578
 21
2.410321751476442
 31
0.0
  0
LINE
  5
314
330
2
100
AcDbEntity
  8
0
100
AcDbLine
 10
-8.106254399477578
 20
2.410321751476442
 30
0.0
 11
-8.095914856177572
 21
2.381761808576595
 31
0.0
  0
LINE
  5
315
330
2
100
AcDbEntity
  8
0
100
AcDbLine
 10
-8.095914856177572
 20
2.381761808576595
 30
0.0
 11
-8.085943209777454
 21
2.349995059576497
 31
0.0
  0
LINE
  5
316
330
2
100
AcDbEntity
  8
0
100
AcDbLine
 10
-8.085943209777454
 20
2.349995059576497
 30
0.0
 11
-8.076317321777381
 21
2.31486235917647
 31
0.0
  0
LINE
  5
317
330
2
100
AcDbEntity
  8
0
100
AcDbLine
 10
-8.076317321777381
 20
2.31486235917647
 30
0.0
 11
-8.067032326077381
 21
2.276155018076462
 31
0.0
  0
LINE
  5
318
330
2
100
AcDbEntity
  8
0
100
AcDbLine
 10
-8.067032326077381
 20
2.276155018076462
 30
0.0
 11
-8.058101831777506
 21
2.233626791876542
 31
0.0
  0
LINE
  5
319
330
2
100
AcDbEntity
  8
0
100
AcDbLine
 10
-8.330868766577581
 20
2.232905598176568
 30
0.0
 11
-8.321967887577515
 21
2.27539225037641
 31
0.0
  0
LINE
  5
31A
330
2
100
AcDbEntity
  8
0
100
AcDbLine
 10
-8.321967887577515
 20
2.27539225037641
 30
0.0
 11
-8.31271569787755
 21
2.314066008976408
 31
0.0
  0
LINE
  5
31B
330
2
100
AcDbEntity
  8
0
100
AcDbLine
 10
-8.31271569787755
 20
2.314066008976408
 30
0.0
 11
-8.303126271977547
 21
2.349173799276525
 31
0.0
  0
LINE
  5
31C
330
2
100
AcDbEntity
  8
0
100
AcDbLine
 10
-8.303126271977547
 20
2.349173799276525
 30
0.0
 11
-8.29319550857754
 21
2.380925059676439
 31
0.0
  0
LINE
  5
31D
330
2
100
AcDbEntity
  8
0
100
AcDbLine
 10
-8.29319550857754
 20
2.380925059676439
 30
0.0
 11
-8.282901714077482
 21
2.409481908776581
 31
0.0
  0
LINE
  5
31E
330
2
100
AcDbEntity
  8
0
100
AcDbLine
 10
-8.282901714077482
 20
2.409481908776581
 30
0.0
 11
-8.272195362377445
 21
2.434970441876441
 31
0.0
  0
LINE
  5
31F
330
2
100
AcDbEntity
  8
0
100
AcDbLine
 10
-8.272195362377445
 20
2.434970441876441
 30
0.0
 11
-8.260983986777504
 21
2.457474375976528
 31
0.0
  0
LINE
  5
320
330
2
100
AcDbEntity
  8
0
100
AcDbLine
 10
-8.249158342377498
 20
2.476932307376512
 30
0.0
 11
-8.2365804932776
 21
2.493126267376521
 31
0.0
  0
LINE
  5
321
330
2
100
AcDbEntity
  8
0
100
AcDbLine
 10
-8.2365804932776
 20
2.493126267376521
 30
0.0
 11
-8.223105424377494
 21
2.505605805476545
 31
0.0
  0
LINE
  5
322
330
2
100
AcDbEntity
  8
0
100
AcDbLine
 10
-8.223105424377494
 20
2.505605805476545
 30
0.0
 11
-8.208953702577404
 21
2.513510903376538
 31
0.0
  0
LINE
  5
323
330
2
100
AcDbEntity
  8
0
100
AcDbLine
 10
-8.208953702577404
 20
2.513510903376538
 30
0.0
 11
-8.194830773177458
 21
2.516224003176614
 31
0.0
  0
LINE
  5
324
330
2
100
AcDbEntity
  8
0
100
AcDbLine
 10
-8.260983986777504
 20
2.457474375976528
 30
0.0
 11
-8.249158342377498
 21
2.476932307376512
 31
0.0
  0
ARC
  5
325
330
2
100
AcDbEntity
  8
0
100
AcDbCircle
 10
-8.692831894275443
 20
4.384660985765946
 30
0.0
 40
0.4975000000000007
100
AcDbArc
 50
0.000000000000007
 51
44.99999999998105
1001
_DIE112SSJYHX
1002
{
1000
comp_type
1000
DBL24
1000
material
1000
D-2
1000
thickness
1040
1.25
1000
mount
1000
SBP10
1000
mntlay
1000
DIE_SUB_PLATE
1002
}
  0
LINE
  5
326
330
2
100
AcDbEntity
  8
0
100
AcDbLine
 10
-8.576928346071668
 20
4.612279177624171
 30
0.0
 11
-8.414178346071651
 21
4.51831542106903
 31
0.0
  0
LINE
  5
327
330
2
100
AcDbEntity
  8
0
100
AcDbLine
 10
-8.576928346104417
 20
4.370225077265665
 30
0.0
 11
-8.414178346071651
 21
4.464188833332502
 31
0.0
  0
LINE
  5
328
330
2
100
AcDbEntity
  8
0
100
AcDbLine
 10
-8.194599661228228
 20
3.454235042592938
 30
0.0
 11
-8.195331894275444
 21
4.384660985765946
 31
0.0
  0
ARC
  5
329
330
2
100
AcDbEntity
  8
0
100
AcDbCircle
 10
-8.429803346071651
 20
4.491252127200765
 30
0.0
 40
0.03125
100
AcDbArc
 50
299.9999999999999
 51
60.00000000000281
  0
LINE
  5
32A
330
2
100
AcDbEntity
  8
0
100
AcDbLine
 10
-8.623799661228137
 20
4.397768255661488
 30
0.0
 11
-8.623799661228151
 21
4.58569576826455
 31
0.0
  0
ARC
  5
32B
330
2
100
AcDbEntity
  8
0
100
AcDbCircle
 10
-8.592553346071668
 20
4.585215883755907
 30
0.0
 40
0.03125
100
AcDbArc
 50
60.00000000000076
 51
180.0000000000025
  0
ARC
  5
32C
330
2
100
AcDbEntity
  8
0
100
AcDbCircle
 10
-8.592553346071668
 20
4.397288371134696
 30
0.0
 40
0.03125
100
AcDbArc
 50
179.9999999999975
 51
299.9999999999993
  0
ARC
  5
32D
330
2
100
AcDbEntity
  8
0
100
AcDbCircle
 10
-8.067831894275216
 20
5.173874548139507
 30
0.0
 40
0.5025
100
AcDbArc
 50
180.0
 51
225.0000000000001
  0
LINE
  5
32E
330
2
100
AcDbEntity
  8
0
100
AcDbLine
 10
-8.341046270634806
 20
4.73644660940664
 30
0.0
 11
-8.423153051821473
 21
4.818553390593307
 31
0.0
  0
ARC
  5
32F
330
2
100
AcDbEntity
  8
0
100
AcDbCircle
 10
-9.692099661228227
 20
1.553138852532367
 30
0.0
 40
0.4975
100
AcDbArc
 50
0.000000000000007
 51
35.0000000000036
1001
_DIE112SSJYHX
1002
{
1000
comp_type
1000
DBL24
1000
material
1000
D-2
1000
thickness
1040
1.25
1000
mount
1000
SBP10
1000
mntlay
1000
DIE_SUB_PLATE
1002
}
  0
LINE
  5
330
330
2
100
AcDbEntity
  8
0
100
AcDbLine
 10
-9.284571519194188
 20
1.838493129617245
 30
0.0
 11
-9.444599661227997
 21
2.067037001685446
 31
0.0
  0
LINE
  5
331
330
2
100
AcDbEntity
  8
0
100
AcDbLine
 10
-9.394599661228142
 20
5.213506350946084
 30
0.0
 11
-9.444599661228139
 21
5.213506350946084
 31
0.0
  0
LINE
  5
332
330
2
100
AcDbEntity
  8
0
100
AcDbLine
 10
-9.394599661228142
 20
4.996999999999975
 30
0.0
 11
-9.444599661228139
 21
4.996999999999975
 31
0.0
  0
LINE
  5
333
330
2
100
AcDbEntity
  8
0
100
AcDbLine
 10
-8.569599661228132
 20
8.714999999999966
 30
0.0
 11
-9.263245161435016
 21
8.714999999999973
 31
0.0
  0
LINE
  5
334
330
2
100
AcDbEntity
  8
0
100
AcDbLine
 10
-8.819599661228139
 20
9.149197226926736
 30
0.0
 11
-9.329495161435006
 21
9.149197226926736
 31
0.0
  0
LINE
  5
335
330
2
100
AcDbEntity
  8
0
100
AcDbLine
 10
-8.769599661228142
 20
9.099197226926739
 30
0.0
 11
-9.329495161435006
 21
9.099197226926739
 31
0.0
  0
LINE
  5
336
330
2
100
AcDbEntity
  8
0
100
AcDbLine
 10
-8.569599661228132
 20
8.899197226926729
 30
0.0
 11
-8.819599661228139
 21
9.149197226926736
 31
0.0
  0
LINE
  5
337
330
2
100
AcDbEntity
  8
0
  6
Continuous
100
AcDbLine
 10
-9.385126573162708
 20
7.948573088065556
 30
0.0
 11
-9.09675337741605
 21
7.660199892318898
 31
0.0
  0
LINE
  5
338
330
2
100
AcDbEntity
  8
0
  6
Continuous
100
AcDbLine
 10
-9.394599661228138
 20
7.892992352261812
 30
0.0
 11
-9.129280289350632
 21
7.627672980384316
 31
0.0
  0
LINE
  5
339
330
2
100
AcDbEntity
  8
0
  6
Continuous
100
AcDbLine
 10
-9.151694676154833
 20
7.544021350010537
 30
0.0
 11
-9.393176132727106
 21
7.479316588734902
 31
0.0
  0
LINE
  5
33A
330
2
100
AcDbEntity
  8
0
  6
Continuous
100
AcDbLine
 10
-9.139789000080114
 20
7.499588762001244
 30
0.0
 11
-9.381270456652388
 21
7.434884000725601
 31
0.0
  0
ARC
  5
33B
330
2
100
AcDbEntity
  8
0
  6
Continuous
100
AcDbCircle
 10
-9.164635628409968
 20
7.592317641324987
 30
0.0
 40
0.05
100
AcDbArc
 50
284.9999999999996
 51
44.99999999999807
  0
ARC
  5
33C
330
2
100
AcDbEntity
  8
0
  6
Continuous
100
AcDbCircle
 10
-9.164635628409968
 20
7.592317641324987
 30
0.0
 40
0.096
100
AcDbArc
 50
285.0000000000007
 51
44.99999999999807
  0
LINE
  5
33D
330
2
100
AcDbEntity
  8
0
  6
Continuous
100
AcDbLine
 10
-9.393176132727106
 20
7.47931658873493
 30
0.0
 11
-9.381270456652402
 21
7.434884000725637
 31
0.0
  0
ARC
  5
33E
330
2
100
AcDbEntity
  8
0
  6
Continuous
100
AcDbCircle
 10
-9.352599661228126
 20
7.981100000000138
 30
0.0
 40
0.046
100
AcDbArc
 50
204.0706146225166
 51
224.9999999999999
  0
ARC
  5
33F
330
2
100
AcDbEntity
  8
0
  6
Continuous
100
AcDbCircle
 10
-9.3298641007319
 20
7.98750162342253
 30
0.0
 40
0.1148432675996877
100
AcDbArc
 50
188.4365649615204
 51
224.8347775975267
  0
LINE
  5
340
330
2
100
AcDbEntity
  8
0
100
AcDbLine
 10
-9.494599661228136
 20
9.589999999999973
 30
0.0
 11
-10.06959966122814
 21
9.589999999999973
 31
0.0
  0
LINE
  5
341
330
2
100
AcDbEntity
  8
0
100
AcDbLine
 10
-9.494599661228143
 20
9.63999999999997
 30
0.0
 11
-10.06959966122814
 21
9.63999999999997
 31
0.0
  0
ARC
  5
342
330
2
100
AcDbEntity
  8
0
100
AcDbCircle
 10
-9.494599661228136
 20
9.539999999999969
 30
0.0
 40
0.05
100
AcDbArc
 50
0.000000000000007
 51
90.0
  0
ARC
  5
343
330
2
100
AcDbEntity
  8
0
100
AcDbCircle
 10
-9.494599661228143
 20
9.539999999999976
 30
0.0
 40
0.1
100
AcDbArc
 50
0.000000000000007
 51
90.0
  0
LINE
  5
344
330
2
100
AcDbEntity
  8
0
100
AcDbLine
 10
-9.329495161435006
 20
9.149197226926736
 30
0.0
 11
-9.329495161435006
 21
8.842726514475229
 31
0.0
  0
ARC
  5
345
330
2
100
AcDbEntity
  8
0
100
AcDbCircle
 10
-9.419495161435016
 20
8.714999999999973
 30
0.0
 40
0.15625
100
AcDbArc
 50
279.168078897781
 51
54.8303070761397
  0
LINE
  5
346
330
2
100
AcDbEntity
  8
0
100
AcDbLine
 10
-10.06959966122814
 20
9.63999999999997
 30
0.0
 11
-10.06959966122814
 21
9.589999999999973
 31
0.0
  0
LINE
  5
365
330
2
100
AcDbEntity
  8
0
100
AcDbLine
 10
-7.194599661228132
 20
0.0399999999999739
 30
0.0
 11
-7.602478710818453
 21
0.0399999999999739
 31
0.0
  0
LINE
  5
366
330
2
100
AcDbEntity
  8
0
100
AcDbLine
 10
-7.788349661228132
 20
0.0399999999999739
 30
0.0
 11
-8.601664186023271
 21
0.0399999999999739
 31
0.0
  0
LINE
  5
367
330
2
100
AcDbEntity
  8
0
100
AcDbLine
 10
-8.78753513643295
 20
0.0399999999999739
 30
0.0
 11
-9.194599661228132
 21
0.0399999999999739
 31
0.0
  0
LINE
  5
368
330
2
100
AcDbEntity
  8
0
100
AcDbLine
 10
-7.194599661228132
 20
0.0899999999999782
 30
0.0
 11
-7.194599661228132
 21
0.0399999999999739
 31
0.0
  0
LINE
  5
369
330
2
100
AcDbEntity
  8
0
  6
Continuous
100
AcDbLine
 10
-7.194599661228132
 20
0.0899999999999782
 30
0.0
 11
-7.279953337188672
 21
0.08999999999998
 31
0.0
  0
ARC
  5
36A
330
2
100
AcDbEntity
  8
0
100
AcDbCircle
 10
-7.194599661227997
 20
0.084999999999933
 30
0.0
 40
0.0855
100
AcDbArc
 50
90.0
 51
211.7568638592875
  0
LINE
  5
36B
330
2
100
AcDbEntity
  8
0
  6
Continuous
100
AcDbLine
 10
-9.109245985267549
 20
0.0899999999999711
 30
0.0
 11
-9.194599661228139
 21
0.0899999999999729
 31
0.0
  0
ARC
  5
36C
330
2
100
AcDbEntity
  8
0
100
AcDbCircle
 10
-9.194599661228224
 20
0.084999999999933
 30
0.0
 40
0.0855
100
AcDbArc
 50
328.2431361407129
 51
90.0
  0
POINT
  5
36D
330
2
100
AcDbEntity
  8
0
  6
ByBlock
100
AcDbPoint
 10
-9.194599661228139
 20
0.0899999999999729
 30
0.0
 50
180.0
  0
POINT
  5
36E
330
2
100
AcDbEntity
  8
0
  6
ByBlock
100
AcDbPoint
 10
-9.194599661228139
 20
0.0899999999999729
 30
0.0
 50
180.0
  0
POINT
  5
36F
330
2
100
AcDbEntity
  8
0
  6
ByBlock
100
AcDbPoint
 10
-9.194599661228139
 20
0.0899999999999729
 30
0.0
 50
180.0
  0
POINT
  5
370
330
2
100
AcDbEntity
  8
0
  6
ByBlock
100
AcDbPoint
 10
-9.194599661228139
 20
0.0899999999999729
 30
0.0
 50
180.0
  0
LINE
  5
371
330
2
100
AcDbEntity
  8
0
100
AcDbLine
 10
-9.194599661228139
 20
0.0899999999999729
 30
0.0
 11
-9.194599661228132
 21
0.0399999999999739
 31
0.0
  0
LINE
  5
372
330
2
100
AcDbEntity
  8
0
  6
HIDDEN
100
AcDbLine
 10
-9.109245985267549
 20
0.0899999999999711
 30
0.0
 11
-7.279953337188672
 21
0.08999999999998
 31
0.0
  0
ARC
  5
373
330
2
100
AcDbEntity
  8
0
100
AcDbCircle
 10
-8.694599661228111
 20
0.0523312589969539
 30
0.0
 40
0.09375
100
AcDbArc
 50
180.0
 51
0.0
  0
ARC
  5
374
330
2
100
AcDbEntity
  8
0
100
AcDbCircle
 10
-7.695414186023292
 20
0.0523312589969539
 30
0.0
 40
0.09375
100
AcDbArc
 50
180.0
 51
0.0
  0
LINE
  5
375
330
2
100
AcDbEntity
  8
0
100
AcDbLine
 10
9.194599661228097
 20
0.0399999999999739
 30
0.0
 11
8.786720611637776
 21
0.0399999999999739
 31
0.0
  0
LINE
  5
376
330
2
100
AcDbEntity
  8
0
100
AcDbLine
 10
8.600849661228097
 20
0.0399999999999739
 30
0.0
 11
7.787535136432958
 21
0.0399999999999739
 31
0.0
  0
LINE
  5
377
330
2
100
AcDbEntity
  8
0
100
AcDbLine
 10
7.601664186023278
 20
0.0399999999999739
 30
0.0
 11
7.194599661228097
 21
0.0399999999999739
 31
0.0
  0
LINE
  5
378
330
2
100
AcDbEntity
  8
0
100
AcDbLine
 10
9.194599661228097
 20
0.0899999999999782
 30
0.0
 11
9.194599661228097
 21
0.0399999999999739
 31
0.0
  0
LINE
  5
379
330
2
100
AcDbEntity
  8
0
  6
Continuous
100
AcDbLine
 10
9.194599661228097
 20
0.0899999999999782
 30
0.0
 11
9.109245985267556
 21
0.08999999999998
 31
0.0
  0
ARC
  5
37A
330
2
100
AcDbEntity
  8
0
100
AcDbCircle
 10
9.194599661228232
 20
0.084999999999933
 30
0.0
 40
0.0855
100
AcDbArc
 50
90.0
 51
211.7568638592875
  0
LINE
  5
37B
330
2
100
AcDbEntity
  8
0
  6
Continuous
100
AcDbLine
 10
7.27995333718868
 20
0.0899999999999711
 30
0.0
 11
7.194599661228089
 21
0.0899999999999729
 31
0.0
  0
ARC
  5
37C
330
2
100
AcDbEntity
  8
0
100
AcDbCircle
 10
7.194599661228004
 20
0.084999999999933
 30
0.0
 40
0.0855
100
AcDbArc
 50
328.2431361407129
 51
90.0
  0
POINT
  5
37D
330
2
100
AcDbEntity
  8
0
  6
ByBlock
100
AcDbPoint
 10
7.194599661228089
 20
0.0899999999999729
 30
0.0
 50
180.0
  0
POINT
  5
37E
330
2
100
AcDbEntity
  8
0
  6
ByBlock
100
AcDbPoint
 10
7.194599661228089
 20
0.0899999999999729
 30
0.0
 50
180.0
  0
POINT
  5
37F
330
2
100
AcDbEntity
  8
0
  6
ByBlock
100
AcDbPoint
 10
7.194599661228089
 20
0.0899999999999729
 30
0.0
 50
180.0
  0
POINT
  5
380
330
2
100
AcDbEntity
  8
0
  6
ByBlock
100
AcDbPoint
 10
7.194599661228089
 20
0.0899999999999729
 30
0.0
 50
180.0
  0
LINE
  5
381
330
2
100
AcDbEntity
  8
0
100
AcDbLine
 10
7.194599661228089
 20
0.0899999999999729
 30
0.0
 11
7.194599661228097
 21
0.0399999999999739
 31
0.0
  0
LINE
  5
382
330
2
100
AcDbEntity
  8
0
  6
HIDDEN
100
AcDbLine
 10
7.27995333718868
 20
0.0899999999999711
 30
0.0
 11
9.109245985267556
 21
0.08999999999998
 31
0.0
  0
ARC
  5
383
330
2
100
AcDbEntity
  8
0
100
AcDbCircle
 10
7.694599661228118
 20
0.0523312589969539
 30
0.0
 40
0.09375
100
AcDbArc
 50
180.0
 51
0.0
  0
ARC
  5
384
330
2
100
AcDbEntity
  8
0
100
AcDbCircle
 10
8.693785136432936
 20
0.0523312589969539
 30
0.0
 40
0.09375
100
AcDbArc
 50
180.0
 51
0.0
  0
LINE
  5
385
330
2
100
AcDbEntity
  8
0
  6
HIDDEN
100
AcDbLine
 10
-1.112499999999997
 20
9.589999999999973
 30
0.0
 11
-1.487500000000019
 21
9.589999999999973
 31
0.0
  0
LINE
  5
386
330
2
100
AcDbEntity
  8
0
  6
HIDDEN
100
AcDbLine
 10
1.112500000000004
 20
9.589999999999973
 30
0.0
 11
1.487500000000011
 21
9.58999999999998
 31
0.0
  0
LINE
  5
387
330
2
100
AcDbEntity
  8
0
  6
HIDDEN
100
AcDbLine
 10
-1.649225413175458
 20
18.26963407493508
 30
0.0
 11
-1.274225413175437
 21
18.26963407493509
 31
0.0
  0
LINE
  5
388
330
2
100
AcDbEntity
  8
0
  6
HIDDEN
100
AcDbLine
 10
1.274225413175444
 20
18.26963407493509
 30
0.0
 11
1.649225413175465
 21
18.26963407493508
 31
0.0
  0
ENDSEC
  0
SECTION
  2
OBJECTS
  0
DICTIONARY
  5
9
330
0
100
AcDbDictionary
281
     1
  3
ACAD_COLOR
350
34A
  3
ACAD_GROUP
350
23
  3
ACAD_LAYOUT
350
D
  3
ACAD_MATERIAL
350
349
  3
ACAD_MLINESTYLE
350
24
  3
ACAD_PLOTSETTINGS
350
25
  3
ACAD_PLOTSTYLENAME
350
8
  3
ACAD_TABLESTYLE
350
34B
  3
ACDBHEADERROUNDTRIPXREC
350
39A
  3
AcDbVariableDictionary
350
169
  0
DICTIONARY
  5
34A
102
{ACAD_REACTORS
330
9
102
}
330
9
100
AcDbDictionary
281
     1
  0
DICTIONARY
  5
23
102
{ACAD_REACTORS
330
9
102
}
330
9
100
AcDbDictionary
281
     1
  0
DICTIONARY
  5
D
102
{ACAD_REACTORS
330
9
102
}
330
9
100
AcDbDictionary
281
     1
  3
Layout1
350
13
  3
Model
350
C
  0
DICTIONARY
  5
349
102
{ACAD_REACTORS
330
9
102
}
330
9
100
AcDbDictionary
281
     1
  0
DICTIONARY
  5
24
102
{ACAD_REACTORS
330
9
102
}
330
9
100
AcDbDictionary
281
     1
  3
STANDARD
350
27
  0
DICTIONARY
  5
25
102
{ACAD_REACTORS
330
9
102
}
330
9
100
AcDbDictionary
281
     1
  0
ACDBDICTIONARYWDFLT
  5
8
102
{ACAD_REACTORS
330
9
102
}
330
9
100
AcDbDictionary
281
     1
  3
Normal
350
7
100
AcDbDictionaryWithDefault
340
7
  0
DICTIONARY
  5
34B
102
{ACAD_REACTORS
330
9
102
}
330
9
100
AcDbDictionary
281
     1
  3
Standard
350
34C
  0
DICTIONARY
  5
39A
102
{ACAD_REACTORS
330
9
102
}
330
9
100
AcDbDictionary
281
     1
  3
COLORDICT
350
39B
  3
MATERIALDICT
350
39C
  0
DICTIONARY
  5
169
102
{ACAD_REACTORS
330
9
102
}
330
9
100
AcDbDictionary
281
     1
  3
CTABLESTYLE
350
397
  3
HIDETEXT
350
399
  0
LAYOUT
  5
13
102
{ACAD_REACTORS
330
D
102
}
102
{ACAD_XDICTIONARY
360
39D
102
}
330
D
100
AcDbPlotSettings
  1

  2
HP LaserJet 2100 Series PS
  4

  6

 40
0.0
 41
0.0
 42
0.0
 43
0.0
 44
0.0
 45
0.0
 46
0.0
 47
0.0
 48
0.0
 49
0.0
140
0.0
141
0.0
142
1.0
143
1.0
 70
   688
 72
     0
 73
     0
 74
     5
  7

 75
    16
147
1.0
148
0.0
149
0.0
100
AcDbLayout
  1
Layout1
 70
     0
 71
     1
 10
0.0
 20
0.0
 11
12.0
 21
9.0
 12
0.0
 22
0.0
 32
0.0
 14
1.000000000000000E+20
 24
1.000000000000000E+20
 34
1.000000000000000E+20
 15
-1.000000000000000E+20
 25
-1.000000000000000E+20
 35
-1.000000000000000E+20
146
0.0
 13
0.0
 23
0.0
 33
0.0
 16
1.0
 26
0.0
 36
0.0
 17
0.0
 27
1.0
 37
0.0
 76
     0
330
E
  0
LAYOUT
  5
C
102
{ACAD_REACTORS
330
D
102
}
102
{ACAD_XDICTIONARY
360
39F
102
}
330
D
100
AcDbPlotSettings
  1

  2
HP LaserJet 2100 Series PS
  4
Letter
  6

 40
5.365749835968018
 41
5.386905193328857
 42
5.386917114257813
 43
5.365753173828125
 44
215.8999938964844
 45
279.3999938964844
 46
0.0
 47
0.0
 48
0.0
 49
0.0
140
0.0
141
0.0
142
1.0
143
1.0
 70
 11952
 72
     0
 73
     1
 74
     0
  7

 75
     0
147
1.0
148
-51.34525308194984
149
5.032826400000006
100
AcDbLayout
  1
Model
 70
     1
 71
     0
 10
0.0
 20
0.0
 11
12.0
 21
9.0
 12
0.0
 22
0.0
 32
0.0
 14
0.0
 24
0.0
 34
0.0
 15
0.0
 25
0.0
 35
0.0
146
0.0
 13
0.0
 23
0.0
 33
0.0
 16
1.0
 26
0.0
 36
0.0
 17
0.0
 27
1.0
 37
0.0
 76
     0
330
2
  0
MLINESTYLE
  5
27
102
{ACAD_REACTORS
330
24
102
}
330
24
100
AcDbMlineStyle
  2
STANDARD
 70
     0
  3

 62
   256
 51
90.0
 52
90.0
 71
     2
 49
0.5
 62
   256
  6
BYLAYER
 49
-0.5
 62
   256
  6
BYLAYER
  0
ACDBPLACEHOLDER
  5
7
102
{ACAD_REACTORS
330
8
102
}
330
8
  0
ACAD_PROXY_OBJECT
  5
34C
102
{ACAD_REACTORS
330
34B
102
}
330
34B
100
AcDbProxyObject
 90
      499
 91
      562
 95
   983063
 70
     0
 93
     1841
310
4214DD185B99185C9928B81E85EB51B8AE3F2E07A17AD46E2B8FC02B5E8DC0F42B1CFD028000000C1008070000C3001FDFF8000000C1003FBFF000000182007F7FE00000030400FEFFC00000060801FDFF8000000C1003FBFF00000018200000000000000681FA0B0000001820100E000186003FBFF000000182007F7FE000
310
00030400FEFFC00000060801FDFF8000000C1003FBFF000000182007F7FE000000304000AD7A3703D0AC73F4160000003040201C00030C007F7FE00000030400FEFFC00000060801FDFF8000000C1003FBFF000000182007F7FE00000030400FEFFC000000608000
340
16
340
16
340
16
 94
        0
  0
XRECORD
  5
39B
102
{ACAD_REACTORS
330
39A
102
}
330
39A
100
AcDbXrecord
340
34A
  0
XRECORD
  5
39C
102
{ACAD_REACTORS
330
39A
102
}
330
39A
100
AcDbXrecord
340
349
  0
DICTIONARYVAR
  5
397
102
{ACAD_REACTORS
330
169
102
}
330
169
100
DictionaryVariables
280
     0
  1
STANDARD
  0
DICTIONARYVAR
  5
399
102
{ACAD_REACTORS
330
169
102
}
330
169
100
DictionaryVariables
280
     0
  1
1
  0
DICTIONARY
  5
39D
330
13
100
AcDbDictionary
280
     1
281
     1
  3
ACAD_XREC_ROUNDTRIP
360
39E
  0
DICTIONARY
  5
39F
330
C
100
AcDbDictionary
280
     1
281
     1
  3
ACAD_XREC_ROUNDTRIP
360
3A0
  0
XRECORD
  5
39E
102
{ACAD_REACTORS
330
39D
102
}
330
39D
100
AcDbXrecord
102
SHADEPLOT
 70
     0
102
SHADEPLOTRESLEVEL
 70
     2
102
SHADEPLOTCUSTOMDPI
 70
   300
  0
XRECORD
  5
3A0
102
{ACAD_REACTORS
330
39F
102
}
330
39F
100
AcDbXrecord
102
SHADEPLOT
 70
     0
102
SHADEPLOTRESLEVEL
 70
     2
102
SHADEPLOTCUSTOMDPI
 70
   300
  0
ENDSEC
  0
EOF
