  0
SECTION
  2
HEADER
  9
$ACADVER
  1
AC1015
  9
$ACADMAINTVER
 70
     6
  9
$DWGCODEPAGE
  3
ANSI_1252
  9
$INSBASE
 10
0.0
 20
0.0
 30
0.0
  9
$EXTMIN
 10
-10.0848345068591
 20
-0.0190538238691612
 30
0.0
  9
$EXTMAX
 10
9.787970553077415
 20
15.43935790957685
 30
0.0
  9
$LIMMIN
 10
0.0
 20
0.0
  9
$LIMMAX
 10
24.0
 20
31.5
  9
$ORTHOMODE
 70
     1
  9
$REGENMODE
 70
     1
  9
$FILLMODE
 70
     1
  9
$QTEXTMODE
 70
     0
  9
$MIRRTEXT
 70
     0
  9
$LTSCALE
 40
0.6
  9
$ATTMODE
 70
     1
  9
$TEXTSIZE
 40
0.27
  9
$TRACEWID
 40
0.05
  9
$TEXTSTYLE
  7
STANDARD
  9
$CLAYER
  8
0
  9
$CELTYPE
  6
CONTINUOUS
  9
$CECOLOR
 62
   256
  9
$CELTSCALE
 40
1.0
  9
$DISPSILH
 70
     0
  9
$DIMSCALE
 40
3.0
  9
$DIMASZ
 40
0.125
  9
$DIMEXO
 40
0.062
  9
$DIMDLI
 40
0.375
  9
$DIMRND
 40
0.0
  9
$DIMDLE
 40
0.0
  9
$DIMEXE
 40
0.08
  9
$DIMTP
 40
0.0
  9
$DIMTM
 40
0.0
  9
$DIMTXT
 40
0.09
  9
$DIMCEN
 40
-0.03125
  9
$DIMTSZ
 40
0.0
  9
$DIMTOL
 70
     0
  9
$DIMLIM
 70
     0
  9
$DIMTIH
 70
     1
  9
$DIMTOH
 70
     1
  9
$DIMSE1
 70
     0
  9
$DIMSE2
 70
     0
  9
$DIMTAD
 70
     0
  9
$DIMZIN
 70
     0
  9
$DIMBLK
  1

  9
$DIMASO
 70
     1
  9
$DIMSHO
 70
     0
  9
$DIMPOST
  1

  9
$DIMAPOST
  1

  9
$DIMALT
 70
     0
  9
$DIMALTD
 70
     2
  9
$DIMALTF
 40
25.4
  9
$DIMLFAC
 40
1.0
  9
$DIMTOFL
 70
     0
  9
$DIMTVP
 40
0.0
  9
$DIMTIX
 70
     0
  9
$DIMSOXD
 70
     0
  9
$DIMSAH
 70
     0
  9
$DIMBLK1
  1

  9
$DIMBLK2
  1

  9
$DIMSTYLE
  2
STANDARD
  9
$DIMCLRD
 70
     0
  9
$DIMCLRE
 70
     0
  9
$DIMCLRT
 70
     0
  9
$DIMTFAC
 40
1.0
  9
$DIMGAP
 40
0.09
  9
$DIMJUST
 70
     0
  9
$DIMSD1
 70
     0
  9
$DIMSD2
 70
     0
  9
$DIMTOLJ
 70
     1
  9
$DIMTZIN
 70
     0
  9
$DIMALTZ
 70
     0
  9
$DIMALTTZ
 70
     0
  9
$DIMUPT
 70
     0
  9
$DIMDEC
 70
     5
  9
$DIMTDEC
 70
     5
  9
$DIMALTU
 70
     5
  9
$DIMALTTD
 70
     2
  9
$DIMTXSTY
  7
STANDARD
  9
$DIMAUNIT
 70
     0
  9
$DIMADEC
 70
     0
  9
$DIMALTRND
 40
0.0
  9
$DIMAZIN
 70
     0
  9
$DIMDSEP
 70
    46
  9
$DIMATFIT
 70
     3
  9
$DIMFRAC
 70
     2
  9
$DIMLDRBLK
  1

  9
$DIMLUNIT
 70
     5
  9
$DIMLWD
 70
    -2
  9
$DIMLWE
 70
    -2
  9
$DIMTMOVE
 70
     2
  9
$LUNITS
 70
     5
  9
$LUPREC
 70
     5
  9
$SKETCHINC
 40
0.1
  9
$FILLETRAD
 40
0.0
  9
$AUNITS
 70
     0
  9
$AUPREC
 70
     0
  9
$MENU
  1
ACAD
  9
$ELEVATION
 40
0.0
  9
$PELEVATION
 40
0.0
  9
$THICKNESS
 40
0.0
  9
$LIMCHECK
 70
     0
  9
$CHAMFERA
 40
0.0
  9
$CHAMFERB
 40
0.0
  9
$CHAMFERC
 40
0.0
  9
$CHAMFERD
 40
0.0
  9
$SKPOLY
 70
     0
  9
$TDCREATE
 40
2449426.929260417
  9
$TDUCREATE
 40
2449427.26259375
  9
$TDUPDATE
 40
2454166.967852789
  9
$TDUUPDATE
 40
2454167.301186123
  9
$TDINDWG
 40
0.0470483449
  9
$TDUSRTIMER
 40
0.0470483449
  9
$USRTIMER
 70
     1
  9
$ANGBASE
 50
0.0
  9
$ANGDIR
 70
     0
  9
$PDMODE
 70
     0
  9
$PDSIZE
 40
0.0
  9
$PLINEWID
 40
0.0
  9
$SPLFRAME
 70
     0
  9
$SPLINETYPE
 70
     6
  9
$SPLINESEGS
 70
     8
  9
$HANDSEED
  5
32F
  9
$SURFTAB1
 70
     6
  9
$SURFTAB2
 70
     6
  9
$SURFTYPE
 70
     6
  9
$SURFU
 70
     6
  9
$SURFV
 70
     6
  9
$UCSBASE
  2

  9
$UCSNAME
  2

  9
$UCSORG
 10
0.0
 20
0.0
 30
0.0
  9
$UCSXDIR
 10
1.0
 20
0.0
 30
0.0
  9
$UCSYDIR
 10
0.0
 20
1.0
 30
0.0
  9
$UCSORTHOREF
  2

  9
$UCSORTHOVIEW
 70
     0
  9
$UCSORGTOP
 10
0.0
 20
0.0
 30
0.0
  9
$UCSORGBOTTOM
 10
0.0
 20
0.0
 30
0.0
  9
$UCSORGLEFT
 10
0.0
 20
0.0
 30
0.0
  9
$UCSORGRIGHT
 10
0.0
 20
0.0
 30
0.0
  9
$UCSORGFRONT
 10
0.0
 20
0.0
 30
0.0
  9
$UCSORGBACK
 10
0.0
 20
0.0
 30
0.0
  9
$PUCSBASE
  2

  9
$PUCSNAME
  2

  9
$PUCSORG
 10
0.0
 20
0.0
 30
0.0
  9
$PUCSXDIR
 10
1.0
 20
0.0
 30
0.0
  9
$PUCSYDIR
 10
0.0
 20
1.0
 30
0.0
  9
$PUCSORTHOREF
  2

  9
$PUCSORTHOVIEW
 70
     0
  9
$PUCSORGTOP
 10
0.0
 20
0.0
 30
0.0
  9
$PUCSORGBOTTOM
 10
0.0
 20
0.0
 30
0.0
  9
$PUCSORGLEFT
 10
0.0
 20
0.0
 30
0.0
  9
$PUCSORGRIGHT
 10
0.0
 20
0.0
 30
0.0
  9
$PUCSORGFRONT
 10
0.0
 20
0.0
 30
0.0
  9
$PUCSORGBACK
 10
0.0
 20
0.0
 30
0.0
  9
$USERI1
 70
     0
  9
$USERI2
 70
     0
  9
$USERI3
 70
     0
  9
$USERI4
 70
     0
  9
$USERI5
 70
     0
  9
$USERR1
 40
0.0
  9
$USERR2
 40
0.0
  9
$USERR3
 40
0.0
  9
$USERR4
 40
0.0
  9
$USERR5
 40
0.0
  9
$WORLDVIEW
 70
     1
  9
$SHADEDGE
 70
     3
  9
$SHADEDIF
 70
    70
  9
$TILEMODE
 70
     1
  9
$MAXACTVP
 70
    16
  9
$PINSBASE
 10
0.0
 20
0.0
 30
0.0
  9
$PLIMCHECK
 70
     0
  9
$PEXTMIN
 10
1.000000000000000E+20
 20
1.000000000000000E+20
 30
1.000000000000000E+20
  9
$PEXTMAX
 10
-1.000000000000000E+20
 20
-1.000000000000000E+20
 30
-1.000000000000000E+20
  9
$PLIMMIN
 10
0.0
 20
0.0
  9
$PLIMMAX
 10
12.0
 20
9.0
  9
$UNITMODE
 70
     0
  9
$VISRETAIN
 70
     0
  9
$PLINEGEN
 70
     0
  9
$PSLTSCALE
 70
     0
  9
$TREEDEPTH
 70
  3020
  9
$CMLSTYLE
  2
STANDARD
  9
$CMLJUST
 70
     0
  9
$CMLSCALE
 40
1.0
  9
$PROXYGRAPHICS
 70
     1
  9
$MEASUREMENT
 70
     0
  9
$CELWEIGHT
370
    -1
  9
$ENDCAPS
280
     0
  9
$JOINSTYLE
280
     0
  9
$LWDISPLAY
290
     0
  9
$INSUNITS
 70
     0
  9
$HYPERLINKBASE
  1

  9
$STYLESHEET
  1

  9
$XEDIT
290
     1
  9
$CEPSNTYPE
380
     0
  9
$PSTYLEMODE
290
     1
  9
$FINGERPRINTGUID
  2
{FD0E0AA1-4E6E-41BD-BA91-DE5DD7CDD34D}
  9
$VERSIONGUID
  2
{8BC9EFFC-D110-4040-9597-F968CA0B5A4E}
  9
$EXTNAMES
290
     1
  9
$PSVPSCALE
 40
0.0
  9
$OLESTARTUP
290
     0
  0
ENDSEC
  0
SECTION
  2
CLASSES
  0
CLASS
  1
DICTIONARYVAR
  2
AcDbDictionaryVar
  3
AutoCAD 2000
 90
        0
280
     0
281
     0
  0
CLASS
  1
LWPOLYLINE
  2
AcDbPolyline
  3
AutoCAD 2000
 90
        0
280
     0
281
     1
  0
CLASS
  1
ACDBDICTIONARYWDFLT
  2
AcDbDictionaryWithDefault
  3
AutoCAD 2000
 90
        0
280
     0
281
     0
  0
CLASS
  1
ACDBPLACEHOLDER
  2
AcDbPlaceHolder
  3
ObjectDBX Classes
 90
        0
280
     0
281
     0
  0
CLASS
  1
LAYOUT
  2
AcDbLayout
  3
ObjectDBX Classes
 90
        0
280
     0
281
     0
  0
CLASS
  1
TABLESTYLE
  2
AcDbTableStyle
  3
ObjectDBX Classes
 90
     2047
280
     1
281
     0
  0
ENDSEC
  0
SECTION
  2
TABLES
  0
TABLE
  2
VPORT
  5
19
330
0
100
AcDbSymbolTable
 70
     3
  0
VPORT
  5
321
330
19
100
AcDbSymbolTableRecord
100
AcDbViewportTableRecord
  2
*Active
 70
     0
 10
0.0
 20
0.0
 11
1.0
 21
1.0
 12
8.252614493570789
 22
11.89627082802761
 13
0.0
 23
0.0
 14
0.063
 24
0.063
 15
0.25
 25
0.25
 16
0.0
 26
0.0
 36
1.0
 17
0.0
 27
0.0
 37
0.0
 40
31.89293136143993
 41
1.814583333333333
 42
50.0
 43
0.0
 44
0.0
 50
0.0
 51
0.0
 71
     0
 72
   100
 73
     1
 74
     0
 75
     0
 76
     0
 77
     0
 78
     1
281
     0
 65
     1
110
0.0
120
0.0
130
0.0
111
1.0
121
0.0
131
0.0
112
0.0
122
1.0
132
0.0
 79
     0
146
0.0
  0
ENDTAB
  0
TABLE
  2
LTYPE
  5
14
330
0
100
AcDbSymbolTable
 70
     2
  0
LTYPE
  5
15
330
14
100
AcDbSymbolTableRecord
100
AcDbLinetypeTableRecord
  2
BYBLOCK
 70
     0
  3

 72
    65
 73
     0
 40
0.0
  0
LTYPE
  5
16
330
14
100
AcDbSymbolTableRecord
100
AcDbLinetypeTableRecord
  2
BYLAYER
 70
     0
  3

 72
    65
 73
     0
 40
0.0
  0
LTYPE
  5
8
330
14
100
AcDbSymbolTableRecord
100
AcDbLinetypeTableRecord
  2
CONTINUOUS
 70
     0
  3
Solid line
 72
    65
 73
     0
 40
0.0
  0
LTYPE
  5
24E
330
14
100
AcDbSymbolTableRecord
100
AcDbLinetypeTableRecord
  2
HIDDEN
 70
     0
  3
Hidden __ __ __ __ __ __ __ __ __ __ __ __ __ _
 72
    65
 73
     2
 40
0.375
 49
0.25
 74
     0
 49
-0.125
 74
     0
  0
ENDTAB
  0
TABLE
  2
LAYER
  5
10
330
0
100
AcDbSymbolTable
 70
     1
  0
LAYER
  5
4
330
10
100
AcDbSymbolTableRecord
100
AcDbLayerTableRecord
  2
0
 70
     0
 62
     7
  6
CONTINUOUS
370
    -3
390
5
  0
ENDTAB
  0
TABLE
  2
STYLE
  5
11
330
0
100
AcDbSymbolTable
 70
     1
  0
STYLE
  5
12
330
11
100
AcDbSymbolTableRecord
100
AcDbTextStyleTableRecord
  2
STANDARD
 70
     0
 40
0.0
 41
1.0
 50
0.0
 71
     0
 42
0.27
  3
TXT
  4

  0
ENDTAB
  0
TABLE
  2
VIEW
  5
17
330
0
100
AcDbSymbolTable
 70
     0
  0
ENDTAB
  0
TABLE
  2
UCS
  5
18
330
0
100
AcDbSymbolTable
 70
     0
  0
ENDTAB
  0
TABLE
  2
APPID
  5
1B
330
0
100
AcDbSymbolTable
 70
     2
  0
APPID
  5
1C
330
1B
100
AcDbSymbolTableRecord
100
AcDbRegAppTableRecord
  2
ACAD
 70
     0
  0
APPID
  5
20F
330
1B
100
AcDbSymbolTableRecord
100
AcDbRegAppTableRecord
  2
ACAD_DSTYLE_DIMTEXT_FILL
 70
     0
  0
ENDTAB
  0
TABLE
  2
DIMSTYLE
  5
1D
330
0
100
AcDbSymbolTable
 70
     1
100
AcDbDimStyleTable
  0
DIMSTYLE
105
24
330
1D
100
AcDbSymbolTableRecord
100
AcDbDimStyleTableRecord
  2
STANDARD
 70
     0
  3

  4

340
12
  0
ENDTAB
  0
TABLE
  2
BLOCK_RECORD
  5
1
330
0
100
AcDbSymbolTable
 70
     0
  0
BLOCK_RECORD
  5
2
330
1
100
AcDbSymbolTableRecord
100
AcDbBlockTableRecord
  2
*MODEL_SPACE
340
A
  0
BLOCK_RECORD
  5
C
330
1
100
AcDbSymbolTableRecord
100
AcDbBlockTableRecord
  2
*PAPER_SPACE
340
F
  0
ENDTAB
  0
ENDSEC
  0
SECTION
  2
BLOCKS
  0
BLOCK
  5
3
330
2
100
AcDbEntity
  8
0
100
AcDbBlockBegin
  2
*MODEL_SPACE
 70
     0
 10
0.0
 20
0.0
 30
0.0
  3
*MODEL_SPACE
  1

  4

  0
ENDBLK
  5
9
330
2
100
AcDbEntity
  8
0
100
AcDbBlockEnd
  0
BLOCK
  5
D
330
C
100
AcDbEntity
 67
     1
  8
0
100
AcDbBlockBegin
  2
*PAPER_SPACE
 70
     0
 10
0.0
 20
0.0
 30
0.0
  3
*PAPER_SPACE
  1

  4

  0
ENDBLK
  5
E
330
C
100
AcDbEntity
 67
     1
  8
0
100
AcDbBlockEnd
  0
ENDSEC
  0
SECTION
  2
ENTITIES
  0
LINE
  5
1C8
330
2
100
AcDbEntity
  8
0
100
AcDbLine
 10
0.5026029368121421
 20
9.196000000000002
 30
0.0
 11
0.5026029368121421
 21
2.795999999999997
 31
0.0
  0
LINE
  5
1C9
330
2
100
AcDbEntity
  8
0
100
AcDbLine
 10
-0.7473970631878544
 20
9.195999999999998
 30
0.0
 11
-0.7473970631878579
 21
2.045999999999999
 31
0.0
  0
LINE
  5
1CA
330
2
100
AcDbEntity
  8
0
100
AcDbLine
 10
-0.7933970631878538
 20
9.195999999999998
 30
0.0
 11
-0.7933970631878573
 21
2.045999999999999
 31
0.0
  0
LINE
  5
1CB
330
2
100
AcDbEntity
  8
0
100
AcDbLine
 10
1.502602936812149
 20
1.952249999999999
 30
0.0
 11
1.502602936812149
 21
0.1728855346309031
 31
0.0
  0
LINE
  5
1CC
330
2
100
AcDbEntity
  8
0
100
AcDbLine
 10
-0.4973970631878508
 20
1.952249999999997
 30
0.0
 11
-0.4973970631878508
 21
0.1728855346310168
 31
0.0
  0
LINE
  5
1D6
330
2
100
AcDbEntity
  8
0
100
AcDbLine
 10
1.502602936812142
 20
-0.0000000000000009
 30
0.0
 11
-0.4973970631878508
 21
-0.0000000000000009
 31
0.0
  0
LINE
  5
1D7
330
2
100
AcDbEntity
  8
0
100
AcDbLine
 10
1.438231898770052
 20
-0.0000000000000009
 30
0.0
 11
1.438231898770052
 21
0.1104135471753507
 31
0.0
  0
LINE
  5
1D8
330
2
100
AcDbEntity
  8
0
100
AcDbLine
 10
1.502602936812149
 20
0.0459999999999985
 30
0.0
 11
1.502602936812149
 21
-0.0000000000000044
 31
0.0
  0
ARC
  5
1D9
330
2
100
AcDbEntity
  8
0
100
AcDbCircle
 10
1.500731898770052
 20
0.1104135471753507
 30
0.0
 40
0.0625
100
AcDbArc
 50
88.28450236665859
 51
180.0
  0
LINE
  5
1DA
330
2
100
AcDbEntity
  8
0
100
AcDbLine
 10
1.502602936812142
 20
0.0459999999999985
 30
0.0
 11
1.438231898770052
 21
0.0459999999999985
 31
0.0
  0
LINE
  5
1DF
330
2
100
AcDbEntity
  8
0
100
AcDbLine
 10
-0.4330260251457609
 20
0.0459999999999985
 30
0.0
 11
-0.4973970631878508
 21
0.0459999999999985
 31
0.0
  0
LINE
  5
1E0
330
2
100
AcDbEntity
  8
0
100
AcDbLine
 10
-0.4973970631878508
 20
0.0459999999999985
 30
0.0
 11
-0.4973970631878508
 21
-0.0000000000000009
 31
0.0
  0
ARC
  5
1E1
330
2
100
AcDbEntity
  8
0
100
AcDbCircle
 10
-0.4955260251457609
 20
0.1104135471753507
 30
0.0
 40
0.0625
100
AcDbArc
 50
359.9999999999999
 51
91.71549763333161
  0
LINE
  5
1E2
330
2
100
AcDbEntity
  8
0
100
AcDbLine
 10
-0.4330260251457609
 20
-0.0000000000000009
 30
0.0
 11
-0.4330260251457609
 21
0.1104135471753507
 31
0.0
  0
LINE
  5
1EB
330
2
100
AcDbEntity
  8
0
100
AcDbLine
 10
1.408852936812149
 20
2.045999999999999
 30
0.0
 11
0.8531029368121423
 21
2.045999999999999
 31
0.0
  0
ARC
  5
1EC
330
2
100
AcDbEntity
  8
0
100
AcDbCircle
 10
1.408852936812149
 20
1.952249999999999
 30
0.0
 40
0.09375
100
AcDbArc
 50
0.000000000000007
 51
90.0
  0
ARC
  5
1ED
330
2
100
AcDbEntity
  8
0
100
AcDbCircle
 10
1.315102936812149
 20
1.795999999999999
 30
0.0
 40
0.078
100
AcDbArc
 50
180.0
 51
0.000000000000007
  0
LINE
  5
1EE
330
2
100
AcDbEntity
  8
0
100
AcDbLine
 10
1.393102936812145
 20
1.795999999999999
 30
0.0
 11
1.393102936812145
 21
1.858499999999999
 31
0.0
  0
LINE
  5
1EF
330
2
100
AcDbEntity
  8
0
100
AcDbLine
 10
1.237102936812146
 20
1.858499999999999
 30
0.0
 11
1.237102936812146
 21
1.795999999999999
 31
0.0
  0
ARC
  5
1F0
330
2
100
AcDbEntity
  8
0
100
AcDbCircle
 10
1.315102936812149
 20
1.858499999999999
 30
0.0
 40
0.078
100
AcDbArc
 50
0.000000000000007
 51
180.0
  0
ARC
  5
1F1
330
2
100
AcDbEntity
  8
0
  6
Continuous
100
AcDbCircle
 10
0.7751029368121429
 20
2.045999999999999
 30
0.0
 40
0.078125
100
AcDbArc
 50
109.9677703928445
 51
0.000000000000007
  0
CIRCLE
  5
1F2
330
2
100
AcDbEntity
  8
0
  6
Continuous
100
AcDbCircle
 10
1.002602936812149
 20
1.420999999999998
 30
0.0
 40
0.078125
  0
LINE
  5
1F5
330
2
100
AcDbEntity
  8
0
100
AcDbLine
 10
0.8017824344622682
 20
1.97270467678537
 30
0.0
 11
0.975923439162024
 21
1.494295323214626
 31
0.0
  0
LINE
  5
1FC
330
2
100
AcDbEntity
  8
0
100
AcDbLine
 10
0.7484665998003344
 20
2.119311019298555
 30
0.0
 11
0.5026029368121421
 21
2.795999999999997
 31
0.0
  0
ARC
  5
1FD
330
2
100
AcDbEntity
  8
0
100
AcDbCircle
 10
-0.5911470631878508
 20
1.952249999999997
 30
0.0
 40
0.09375
100
AcDbArc
 50
0.000000000000007
 51
90.0
  0
LINE
  5
1FE
330
2
100
AcDbEntity
  8
0
100
AcDbLine
 10
-0.5911470631878508
 20
2.045999999999997
 30
0.0
 11
-0.7933970631878573
 21
2.045999999999999
 31
0.0
  0
LINE
  5
203
330
2
100
AcDbEntity
  8
0
100
AcDbLine
 10
-0.7473970631878579
 20
2.795999999999997
 30
0.0
 11
-0.7933970631878573
 21
2.795999999999997
 31
0.0
  0
LWPOLYLINE
  5
204
330
2
100
AcDbEntity
  8
0
100
AcDbPolyline
 90
        6
 70
     1
 43
0.0
 10
-0.0246337693195926
 20
5.624024999999994
 10
0.0565128110150077
 20
5.483474999999993
 42
-0.5773502691896258
 10
0.0294495171467446
 20
5.436599999999993
 10
-0.1328436435224596
 20
5.436599999999993
 42
-0.5773502691896247
 10
-0.1599069373907227
 20
5.483474999999993
 10
-0.0787603570561188
 20
5.624024999999994
 42
-0.5773502691896262
  0
ARC
  5
205
330
2
100
AcDbEntity
  8
0
100
AcDbCircle
 10
-0.7473970631878579
 20
5.420999999999999
 30
0.0
 40
0.1875
100
AcDbArc
 50
270.0
 51
90.0
  0
LINE
  5
206
330
2
100
AcDbEntity
  8
0
100
AcDbLine
 10
0.5026029368121421
 20
9.196000000000002
 30
0.0
 11
-0.7933970631878573
 21
9.196000000000002
 31
0.0
  0
LINE
  5
28F
330
2
100
AcDbEntity
  8
0
  6
HIDDEN
100
AcDbLine
 10
1.438231898770052
 20
0.0459999999999985
 30
0.0
 11
-0.4330260251457609
 21
0.0459999999999985
 31
0.0
  0
LINE
  5
29B
330
2
100
AcDbEntity
  8
0
  6
HIDDEN
100
AcDbLine
 10
0.7328294658166001
 20
0.296000000000002
 30
0.0
 11
0.7328294658166001
 21
1.001227684158414
 31
0.0
  0
LINE
  5
29C
330
2
100
AcDbEntity
  8
0
  6
HIDDEN
100
AcDbLine
 10
0.6389294658166023
 20
0.296000000000002
 30
0.0
 11
0.6389294658166023
 21
0.9924113351229829
 31
0.0
  0
LINE
  5
29D
330
2
100
AcDbEntity
  8
0
100
AcDbLine
 10
0.5921294658166012
 20
0.296000000000002
 30
0.0
 11
0.5921294658166012
 21
0.9924113351229829
 31
0.0
  0
LINE
  5
29E
330
2
100
AcDbEntity
  8
0
100
AcDbLine
 10
0.7796294658166012
 20
0.296000000000002
 30
0.0
 11
0.7796294658166012
 21
1.001227684158414
 31
0.0
  0
LINE
  5
2A0
330
2
100
AcDbEntity
  8
0
100
AcDbLine
 10
0.2117018016873367
 20
0.9570705302566176
 30
0.0
 11
-0.4294916287450512
 21
2.718735001872246
 31
0.0
  0
ARC
  5
2A1
330
2
100
AcDbEntity
  8
0
  6
HIDDEN
100
AcDbCircle
 10
0.1271294658166049
 20
0.9262887173573078
 30
0.0
 40
0.1368
100
AcDbArc
 50
359.9999999999999
 51
19.99999999999999
  0
ARC
  5
2A2
330
2
100
AcDbEntity
  8
0
  6
HIDDEN
100
AcDbCircle
 10
0.1271294658165978
 20
0.926288717357322
 30
0.0
 40
0.2307
100
AcDbArc
 50
0.0000000000000318
 51
20.00000000000013
  0
ARC
  5
2A3
330
2
100
AcDbEntity
  8
0
100
AcDbCircle
 10
0.1271294658165978
 20
0.926288717357322
 30
0.0
 40
0.2775
100
AcDbArc
 50
0.0000000000000318
 51
20.00000000000013
  0
ARC
  5
2A4
330
2
100
AcDbEntity
  8
0
100
AcDbCircle
 10
0.6858794658166012
 20
0.296000000000002
 30
0.0
 40
0.09375
100
AcDbArc
 50
180.0
 51
0.0000000000000318
  0
ARC
  5
2A5
330
2
100
AcDbEntity
  8
0
  6
HIDDEN
100
AcDbCircle
 10
0.6858794658166012
 20
0.296000000000002
 30
0.0
 40
0.04695
100
AcDbArc
 50
180.0
 51
0.0000000000000318
  0
ARC
  5
2A6
330
2
100
AcDbEntity
  8
0
100
AcDbCircle
 10
0.3108794658166012
 20
0.2959999999999985
 30
0.0
 40
0.09375
100
AcDbArc
 50
179.9999999999979
 51
0.0000000000000318
  0
LINE
  5
2A7
330
2
100
AcDbEntity
  8
0
  6
HIDDEN
100
AcDbLine
 10
0.3578294658166001
 20
0.296000000000002
 30
0.0
 11
0.3578294658166001
 21
0.926288717357322
 31
0.0
  0
LINE
  5
2A8
330
2
100
AcDbEntity
  8
0
  6
HIDDEN
100
AcDbLine
 10
0.2639294658166023
 20
0.296000000000002
 30
0.0
 11
0.2639294658166023
 21
0.9262887173573078
 31
0.0
  0
LINE
  5
2A9
330
2
100
AcDbEntity
  8
0
100
AcDbLine
 10
0.4046294658166012
 20
0.296000000000002
 30
0.0
 11
0.4046294658166012
 21
0.926288717357322
 31
0.0
  0
LINE
  5
2AA
330
2
100
AcDbEntity
  8
0
100
AcDbLine
 10
0.2171294658166012
 20
0.296000000000002
 30
0.0
 11
0.2171294658166012
 21
0.9262887173573078
 31
0.0
  0
ARC
  5
2AB
330
2
100
AcDbEntity
  8
0
  6
HIDDEN
100
AcDbCircle
 10
0.3108794658166012
 20
0.2959999999999985
 30
0.0
 40
0.04695
100
AcDbArc
 50
179.9999999999979
 51
0.0000000000000318
  0
ARC
  5
2AC
330
2
100
AcDbEntity
  8
0
100
AcDbCircle
 10
0.1271294658166049
 20
0.9262887173573078
 30
0.0
 40
0.09
100
AcDbArc
 50
359.9999999999999
 51
19.99999999999999
  0
ARC
  5
2B1
330
2
100
AcDbEntity
  8
0
100
AcDbCircle
 10
0.0109892872483464
 20
2.879056944056152
 30
0.0
 40
0.09375
100
AcDbArc
 50
19.99999999999999
 51
200.0
  0
ARC
  5
2B2
330
2
100
AcDbEntity
  8
0
  6
HIDDEN
100
AcDbCircle
 10
0.0109892872483464
 20
2.879056944056152
 30
0.0
 40
0.04695
100
AcDbArc
 50
19.99999999999999
 51
200.0
  0
LINE
  5
2B3
330
2
100
AcDbEntity
  8
0
  6
HIDDEN
100
AcDbLine
 10
0.2556794163401186
 20
0.9730770729642591
 30
0.0
 11
-0.3855140140922693
 21
2.734741544579888
 31
0.0
  0
LINE
  5
2B4
330
2
100
AcDbEntity
  8
0
  6
HIDDEN
100
AcDbLine
 10
0.3439165534319066
 20
1.005192764422553
 30
0.0
 11
-0.2972768770004741
 21
2.766857236038168
 31
0.0
  0
LINE
  5
2B5
330
2
100
AcDbEntity
  8
0
100
AcDbLine
 10
0.3878941680846886
 20
1.021199307130195
 30
0.0
 11
-0.2532992623476922
 21
2.782863778745809
 31
0.0
  0
LINE
  5
2B6
330
2
100
AcDbEntity
  8
0
  6
HIDDEN
100
AcDbLine
 10
0.6306794163401115
 20
1.039199690729934
 30
0.0
 11
-0.0331292812975512
 21
2.862999098327014
 31
0.0
  0
LINE
  5
2B7
330
2
100
AcDbEntity
  8
0
100
AcDbLine
 10
0.5867018016873296
 20
1.023193148022293
 30
0.0
 11
-0.0771068959503332
 21
2.846992555619372
 31
0.0
  0
LINE
  5
2B9
330
2
100
AcDbEntity
  8
0
  6
HIDDEN
100
AcDbLine
 10
0.7219319223926171
 20
1.063030724057363
 30
0.0
 11
0.0551078557942368
 21
2.895114789785294
 31
0.0
  0
LINE
  5
2BA
330
2
100
AcDbEntity
  8
0
100
AcDbLine
 10
0.765909537045399
 20
1.079037266765005
 30
0.0
 11
0.0990854704470188
 21
2.911121332492935
 31
0.0
  0
ARC
  5
2BC
330
2
100
AcDbEntity
  8
0
100
AcDbCircle
 10
0.5521294658166021
 20
1.001227684158414
 30
0.0
 40
0.2275
100
AcDbArc
 50
359.9999999999997
 51
20.00000000000013
  0
ARC
  5
2BD
330
2
100
AcDbEntity
  8
0
  6
HIDDEN
100
AcDbCircle
 10
0.5021294658165978
 20
0.9924113351229829
 30
0.0
 40
0.1368
100
AcDbArc
 50
0.0000000000000318
 51
19.99999999999999
  0
ARC
  5
2BE
330
2
100
AcDbEntity
  8
0
100
AcDbCircle
 10
0.5021294658165978
 20
0.9924113351229829
 30
0.0
 40
0.09
100
AcDbArc
 50
0.0000000000000318
 51
19.99999999999999
  0
ARC
  5
2BF
330
2
100
AcDbEntity
  8
0
  6
HIDDEN
100
AcDbCircle
 10
0.5521294658166021
 20
1.001227684158414
 30
0.0
 40
0.1807
100
AcDbArc
 50
359.9999999999997
 51
20.00000000000013
  0
ARC
  5
2C3
330
2
100
AcDbEntity
  8
0
100
AcDbCircle
 10
-0.3413954455463717
 20
2.750799390309026
 30
0.0
 40
0.09375
100
AcDbArc
 50
19.99999999999999
 51
200.0
  0
ARC
  5
2C4
330
2
100
AcDbEntity
  8
0
  6
HIDDEN
100
AcDbCircle
 10
-0.3413954455463717
 20
2.750799390309026
 30
0.0
 40
0.04695
100
AcDbArc
 50
19.99999999999999
 51
200.0
  0
ENDSEC
  0
SECTION
  2
OBJECTS
  0
DICTIONARY
  5
7
330
0
100
AcDbDictionary
281
     1
  3
ACAD_COLOR
350
20A
  3
ACAD_GROUP
350
1F
  3
ACAD_LAYOUT
350
B
  3
ACAD_MATERIAL
350
209
  3
ACAD_MLINESTYLE
350
20
  3
ACAD_PLOTSETTINGS
350
21
  3
ACAD_PLOTSTYLENAME
350
6
  3
ACAD_TABLESTYLE
350
20B
  3
ACDBHEADERROUNDTRIPXREC
350
328
  3
AcDbVariableDictionary
350
100
  0
DICTIONARY
  5
20A
102
{ACAD_REACTORS
330
7
102
}
330
7
100
AcDbDictionary
281
     1
  0
DICTIONARY
  5
1F
102
{ACAD_REACTORS
330
7
102
}
330
7
100
AcDbDictionary
281
     1
  0
DICTIONARY
  5
B
102
{ACAD_REACTORS
330
7
102
}
330
7
100
AcDbDictionary
281
     1
  3
Layout1
350
F
  3
Model
350
A
  0
DICTIONARY
  5
209
102
{ACAD_REACTORS
330
7
102
}
330
7
100
AcDbDictionary
281
     1
  0
DICTIONARY
  5
20
102
{ACAD_REACTORS
330
7
102
}
330
7
100
AcDbDictionary
281
     1
  3
STANDARD
350
23
  0
DICTIONARY
  5
21
102
{ACAD_REACTORS
330
7
102
}
330
7
100
AcDbDictionary
281
     1
  0
ACDBDICTIONARYWDFLT
  5
6
102
{ACAD_REACTORS
330
7
102
}
330
7
100
AcDbDictionary
281
     1
  3
Normal
350
5
100
AcDbDictionaryWithDefault
340
5
  0
DICTIONARY
  5
20B
102
{ACAD_REACTORS
330
7
102
}
330
7
100
AcDbDictionary
281
     1
  3
Standard
350
20C
  0
DICTIONARY
  5
328
102
{ACAD_REACTORS
330
7
102
}
330
7
100
AcDbDictionary
281
     1
  3
COLORDICT
350
329
  3
MATERIALDICT
350
32A
  0
DICTIONARY
  5
100
102
{ACAD_REACTORS
330
7
102
}
330
7
100
AcDbDictionary
281
     1
  3
CTABLESTYLE
350
316
  3
HIDETEXT
350
327
  0
LAYOUT
  5
F
102
{ACAD_REACTORS
330
B
102
}
102
{ACAD_XDICTIONARY
360
32B
102
}
330
B
100
AcDbPlotSettings
  1

  2
X:\Program Files\AutoCAD2002\plotters\DWF ePlot (optimized for plotting).pc3
  4

  6

 40
0.0
 41
0.0
 42
0.0
 43
0.0
 44
0.0
 45
0.0
 46
0.0
 47
0.0
 48
0.0
 49
0.0
140
0.0
141
0.0
142
1.0
143
1.0
 70
   688
 72
     0
 73
     0
 74
     5
  7

 75
    16
147
1.0
148
0.0
149
0.0
100
AcDbLayout
  1
Layout1
 70
     0
 71
     1
 10
0.0
 20
0.0
 11
12.0
 21
9.0
 12
0.0
 22
0.0
 32
0.0
 14
1.000000000000000E+20
 24
1.000000000000000E+20
 34
1.000000000000000E+20
 15
-1.000000000000000E+20
 25
-1.000000000000000E+20
 35
-1.000000000000000E+20
146
0.0
 13
0.0
 23
0.0
 33
0.0
 16
1.0
 26
0.0
 36
0.0
 17
0.0
 27
1.0
 37
0.0
 76
     0
330
C
  0
LAYOUT
  5
A
102
{ACAD_REACTORS
330
B
102
}
102
{ACAD_XDICTIONARY
360
32D
102
}
330
B
100
AcDbPlotSettings
  1

  2
X:\Program Files\AutoCAD2002\plotters\DWF ePlot (optimized for plotting).pc3
  4

  6

 40
0.0
 41
0.0
 42
0.0
 43
0.0
 44
0.0
 45
0.0
 46
0.0
 47
0.0
 48
0.0
 49
0.0
140
0.0
141
0.0
142
1.0
143
1.0
 70
  1712
 72
     0
 73
     0
 74
     0
  7

 75
     0
147
1.0
148
0.0
149
0.0
100
AcDbLayout
  1
Model
 70
     1
 71
     0
 10
0.0
 20
0.0
 11
12.0
 21
9.0
 12
0.0
 22
0.0
 32
0.0
 14
0.0
 24
0.0
 34
0.0
 15
0.0
 25
0.0
 35
0.0
146
0.0
 13
0.0
 23
0.0
 33
0.0
 16
1.0
 26
0.0
 36
0.0
 17
0.0
 27
1.0
 37
0.0
 76
     0
330
2
  0
MLINESTYLE
  5
23
102
{ACAD_REACTORS
330
20
102
}
330
20
100
AcDbMlineStyle
  2
STANDARD
 70
     0
  3

 62
   256
 51
90.0
 52
90.0
 71
     2
 49
0.5
 62
   256
  6
BYLAYER
 49
-0.5
 62
   256
  6
BYLAYER
  0
ACDBPLACEHOLDER
  5
5
102
{ACAD_REACTORS
330
6
102
}
330
6
  0
ACAD_PROXY_OBJECT
  5
20C
102
{ACAD_REACTORS
330
20B
102
}
330
20B
100
AcDbProxyObject
 90
      499
 91
      505
 95
   983063
 70
     0
 93
     1841
310
4214DD185B99185C9928B81E85EB51B8AE3F2E07A17AD46E2B8FC02B5E8DC0F42B1CFD028000000C1008070000C3001FDFF8000000C1003FBFF000000182007F7FE00000030400FEFFC00000060801FDFF8000000C1003FBFF00000018200000000000000681FA0B0000001820100E000186003FBFF000000182007F7FE000
310
00030400FEFFC00000060801FDFF8000000C1003FBFF000000182007F7FE000000304000AD7A3703D0AC73F4160000003040201C00030C007F7FE00000030400FEFFC00000060801FDFF8000000C1003FBFF000000182007F7FE00000030400FEFFC000000608000
340
12
340
12
340
12
 94
        0
  0
XRECORD
  5
329
102
{ACAD_REACTORS
330
328
102
}
330
328
100
AcDbXrecord
340
20A
  0
XRECORD
  5
32A
102
{ACAD_REACTORS
330
328
102
}
330
328
100
AcDbXrecord
340
209
  0
DICTIONARYVAR
  5
316
102
{ACAD_REACTORS
330
100
102
}
330
100
100
DictionaryVariables
280
     0
  1
STANDARD
  0
DICTIONARYVAR
  5
327
102
{ACAD_REACTORS
330
100
102
}
330
100
100
DictionaryVariables
280
     0
  1
1
  0
DICTIONARY
  5
32B
330
F
100
AcDbDictionary
280
     1
281
     1
  3
ACAD_XREC_ROUNDTRIP
360
32C
  0
DICTIONARY
  5
32D
330
A
100
AcDbDictionary
280
     1
281
     1
  3
ACAD_XREC_ROUNDTRIP
360
32E
  0
XRECORD
  5
32C
102
{ACAD_REACTORS
330
32B
102
}
330
32B
100
AcDbXrecord
102
SHADEPLOT
 70
     0
102
SHADEPLOTRESLEVEL
 70
     2
102
SHADEPLOTCUSTOMDPI
 70
   300
  0
XRECORD
  5
32E
102
{ACAD_REACTORS
330
32D
102
}
330
32D
100
AcDbXrecord
102
SHADEPLOT
 70
     0
102
SHADEPLOTRESLEVEL
 70
     2
102
SHADEPLOTCUSTOMDPI
 70
   300
  0
ENDSEC
  0
EOF
