  0
SECTION
  2
HEADER
  9
$ACADVER
  1
AC1015
  9
$ACADMAINTVER
 70
     6
  9
$DWGCODEPAGE
  3
ANSI_1252
  9
$INSBASE
 10
0.0
 20
0.0
 30
0.0
  9
$EXTMIN
 10
-10.0848345068591
 20
-0.0000000000000047
 30
-0.0015258207003583
  9
$EXTMAX
 10
20.69536104768085
 20
26.95562456155025
 30
0.0000000349246037
  9
$LIMMIN
 10
0.0
 20
0.0
  9
$LIMMAX
 10
24.0
 20
31.5
  9
$ORTHOMODE
 70
     1
  9
$REGENMODE
 70
     1
  9
$FILLMODE
 70
     1
  9
$QTEXTMODE
 70
     0
  9
$MIRRTEXT
 70
     0
  9
$LTSCALE
 40
0.6
  9
$ATTMODE
 70
     1
  9
$TEXTSIZE
 40
0.27
  9
$TRACEWID
 40
0.05
  9
$TEXTSTYLE
  7
STANDARD
  9
$CLAYER
  8
0
  9
$CELTYPE
  6
CONTINUOUS
  9
$CECOLOR
 62
   256
  9
$CELTSCALE
 40
1.0
  9
$DISPSILH
 70
     0
  9
$DIMSCALE
 40
3.0
  9
$DIMASZ
 40
0.125
  9
$DIMEXO
 40
0.062
  9
$DIMDLI
 40
0.375
  9
$DIMRND
 40
0.0
  9
$DIMDLE
 40
0.0
  9
$DIMEXE
 40
0.08
  9
$DIMTP
 40
0.0
  9
$DIMTM
 40
0.0
  9
$DIMTXT
 40
0.09
  9
$DIMCEN
 40
-0.03125
  9
$DIMTSZ
 40
0.0
  9
$DIMTOL
 70
     0
  9
$DIMLIM
 70
     0
  9
$DIMTIH
 70
     1
  9
$DIMTOH
 70
     1
  9
$DIMSE1
 70
     0
  9
$DIMSE2
 70
     0
  9
$DIMTAD
 70
     0
  9
$DIMZIN
 70
     0
  9
$DIMBLK
  1

  9
$DIMASO
 70
     1
  9
$DIMSHO
 70
     0
  9
$DIMPOST
  1

  9
$DIMAPOST
  1

  9
$DIMALT
 70
     0
  9
$DIMALTD
 70
     2
  9
$DIMALTF
 40
25.4
  9
$DIMLFAC
 40
1.0
  9
$DIMTOFL
 70
     0
  9
$DIMTVP
 40
0.0
  9
$DIMTIX
 70
     0
  9
$DIMSOXD
 70
     0
  9
$DIMSAH
 70
     0
  9
$DIMBLK1
  1

  9
$DIMBLK2
  1

  9
$DIMSTYLE
  2
STANDARD
  9
$DIMCLRD
 70
     0
  9
$DIMCLRE
 70
     0
  9
$DIMCLRT
 70
     0
  9
$DIMTFAC
 40
1.0
  9
$DIMGAP
 40
0.09
  9
$DIMJUST
 70
     0
  9
$DIMSD1
 70
     0
  9
$DIMSD2
 70
     0
  9
$DIMTOLJ
 70
     1
  9
$DIMTZIN
 70
     0
  9
$DIMALTZ
 70
     0
  9
$DIMALTTZ
 70
     0
  9
$DIMUPT
 70
     0
  9
$DIMDEC
 70
     5
  9
$DIMTDEC
 70
     5
  9
$DIMALTU
 70
     5
  9
$DIMALTTD
 70
     2
  9
$DIMTXSTY
  7
STANDARD
  9
$DIMAUNIT
 70
     0
  9
$DIMADEC
 70
     0
  9
$DIMALTRND
 40
0.0
  9
$DIMAZIN
 70
     0
  9
$DIMDSEP
 70
    46
  9
$DIMATFIT
 70
     3
  9
$DIMFRAC
 70
     2
  9
$DIMLDRBLK
  1

  9
$DIMLUNIT
 70
     5
  9
$DIMLWD
 70
    -2
  9
$DIMLWE
 70
    -2
  9
$DIMTMOVE
 70
     2
  9
$LUNITS
 70
     5
  9
$LUPREC
 70
     5
  9
$SKETCHINC
 40
0.1
  9
$FILLETRAD
 40
0.0
  9
$AUNITS
 70
     0
  9
$AUPREC
 70
     0
  9
$MENU
  1
ACAD
  9
$ELEVATION
 40
0.0
  9
$PELEVATION
 40
0.0
  9
$THICKNESS
 40
0.0
  9
$LIMCHECK
 70
     0
  9
$CHAMFERA
 40
0.0
  9
$CHAMFERB
 40
0.0
  9
$CHAMFERC
 40
0.0
  9
$CHAMFERD
 40
0.0
  9
$SKPOLY
 70
     0
  9
$TDCREATE
 40
2449426.929260417
  9
$TDUCREATE
 40
2449427.26259375
  9
$TDUPDATE
 40
2454166.967389097
  9
$TDUUPDATE
 40
2454167.300722431
  9
$TDINDWG
 40
0.0468819676
  9
$TDUSRTIMER
 40
0.0468819676
  9
$USRTIMER
 70
     1
  9
$ANGBASE
 50
0.0
  9
$ANGDIR
 70
     0
  9
$PDMODE
 70
     0
  9
$PDSIZE
 40
0.0
  9
$PLINEWID
 40
0.0
  9
$SPLFRAME
 70
     0
  9
$SPLINETYPE
 70
     6
  9
$SPLINESEGS
 70
     8
  9
$HANDSEED
  5
320
  9
$SURFTAB1
 70
     6
  9
$SURFTAB2
 70
     6
  9
$SURFTYPE
 70
     6
  9
$SURFU
 70
     6
  9
$SURFV
 70
     6
  9
$UCSBASE
  2

  9
$UCSNAME
  2

  9
$UCSORG
 10
0.0
 20
0.0
 30
0.0
  9
$UCSXDIR
 10
1.0
 20
0.0
 30
0.0
  9
$UCSYDIR
 10
0.0
 20
1.0
 30
0.0
  9
$UCSORTHOREF
  2

  9
$UCSORTHOVIEW
 70
     0
  9
$UCSORGTOP
 10
0.0
 20
0.0
 30
0.0
  9
$UCSORGBOTTOM
 10
0.0
 20
0.0
 30
0.0
  9
$UCSORGLEFT
 10
0.0
 20
0.0
 30
0.0
  9
$UCSORGRIGHT
 10
0.0
 20
0.0
 30
0.0
  9
$UCSORGFRONT
 10
0.0
 20
0.0
 30
0.0
  9
$UCSORGBACK
 10
0.0
 20
0.0
 30
0.0
  9
$PUCSBASE
  2

  9
$PUCSNAME
  2

  9
$PUCSORG
 10
0.0
 20
0.0
 30
0.0
  9
$PUCSXDIR
 10
1.0
 20
0.0
 30
0.0
  9
$PUCSYDIR
 10
0.0
 20
1.0
 30
0.0
  9
$PUCSORTHOREF
  2

  9
$PUCSORTHOVIEW
 70
     0
  9
$PUCSORGTOP
 10
0.0
 20
0.0
 30
0.0
  9
$PUCSORGBOTTOM
 10
0.0
 20
0.0
 30
0.0
  9
$PUCSORGLEFT
 10
0.0
 20
0.0
 30
0.0
  9
$PUCSORGRIGHT
 10
0.0
 20
0.0
 30
0.0
  9
$PUCSORGFRONT
 10
0.0
 20
0.0
 30
0.0
  9
$PUCSORGBACK
 10
0.0
 20
0.0
 30
0.0
  9
$USERI1
 70
     0
  9
$USERI2
 70
     0
  9
$USERI3
 70
     0
  9
$USERI4
 70
     0
  9
$USERI5
 70
     0
  9
$USERR1
 40
0.0
  9
$USERR2
 40
0.0
  9
$USERR3
 40
0.0
  9
$USERR4
 40
0.0
  9
$USERR5
 40
0.0
  9
$WORLDVIEW
 70
     1
  9
$SHADEDGE
 70
     3
  9
$SHADEDIF
 70
    70
  9
$TILEMODE
 70
     1
  9
$MAXACTVP
 70
    16
  9
$PINSBASE
 10
0.0
 20
0.0
 30
0.0
  9
$PLIMCHECK
 70
     0
  9
$PEXTMIN
 10
1.000000000000000E+20
 20
1.000000000000000E+20
 30
1.000000000000000E+20
  9
$PEXTMAX
 10
-1.000000000000000E+20
 20
-1.000000000000000E+20
 30
-1.000000000000000E+20
  9
$PLIMMIN
 10
0.0
 20
0.0
  9
$PLIMMAX
 10
12.0
 20
9.0
  9
$UNITMODE
 70
     0
  9
$VISRETAIN
 70
     0
  9
$PLINEGEN
 70
     0
  9
$PSLTSCALE
 70
     0
  9
$TREEDEPTH
 70
  3020
  9
$CMLSTYLE
  2
STANDARD
  9
$CMLJUST
 70
     0
  9
$CMLSCALE
 40
1.0
  9
$PROXYGRAPHICS
 70
     1
  9
$MEASUREMENT
 70
     0
  9
$CELWEIGHT
370
    -1
  9
$ENDCAPS
280
     0
  9
$JOINSTYLE
280
     0
  9
$LWDISPLAY
290
     0
  9
$INSUNITS
 70
     0
  9
$HYPERLINKBASE
  1

  9
$STYLESHEET
  1

  9
$XEDIT
290
     1
  9
$CEPSNTYPE
380
     0
  9
$PSTYLEMODE
290
     1
  9
$FINGERPRINTGUID
  2
{FD0E0AA1-4E6E-41BD-BA91-DE5DD7CDD34D}
  9
$VERSIONGUID
  2
{3521FB19-1CA3-44C1-B856-01B160334938}
  9
$EXTNAMES
290
     1
  9
$PSVPSCALE
 40
0.0
  9
$OLESTARTUP
290
     0
  0
ENDSEC
  0
SECTION
  2
CLASSES
  0
CLASS
  1
DICTIONARYVAR
  2
AcDbDictionaryVar
  3
AutoCAD 2000
 90
        0
280
     0
281
     0
  0
CLASS
  1
LWPOLYLINE
  2
AcDbPolyline
  3
AutoCAD 2000
 90
        0
280
     0
281
     1
  0
CLASS
  1
ACDBDICTIONARYWDFLT
  2
AcDbDictionaryWithDefault
  3
AutoCAD 2000
 90
        0
280
     0
281
     0
  0
CLASS
  1
ACDBPLACEHOLDER
  2
AcDbPlaceHolder
  3
ObjectDBX Classes
 90
        0
280
     0
281
     0
  0
CLASS
  1
LAYOUT
  2
AcDbLayout
  3
ObjectDBX Classes
 90
        0
280
     0
281
     0
  0
CLASS
  1
TABLESTYLE
  2
AcDbTableStyle
  3
ObjectDBX Classes
 90
     2047
280
     1
281
     0
  0
ENDSEC
  0
SECTION
  2
TABLES
  0
TABLE
  2
VPORT
  5
19
330
0
100
AcDbSymbolTable
 70
     4
  0
VPORT
  5
310
330
19
100
AcDbSymbolTableRecord
100
AcDbViewportTableRecord
  2
*Active
 70
     0
 10
0.0
 20
0.0
 11
1.0
 21
1.0
 12
8.252614493570789
 22
11.89627082802761
 13
0.0
 23
0.0
 14
0.063
 24
0.063
 15
0.25
 25
0.25
 16
0.0
 26
0.0
 36
1.0
 17
0.0
 27
0.0
 37
0.0
 40
31.89293136143993
 41
1.814583333333333
 42
50.0
 43
0.0
 44
0.0
 50
0.0
 51
0.0
 71
     0
 72
   100
 73
     1
 74
     0
 75
     0
 76
     0
 77
     0
 78
     1
281
     0
 65
     1
110
0.0
120
0.0
130
0.0
111
1.0
121
0.0
131
0.0
112
0.0
122
1.0
132
0.0
 79
     0
146
0.0
  0
ENDTAB
  0
TABLE
  2
LTYPE
  5
14
330
0
100
AcDbSymbolTable
 70
     2
  0
LTYPE
  5
15
330
14
100
AcDbSymbolTableRecord
100
AcDbLinetypeTableRecord
  2
BYBLOCK
 70
     0
  3

 72
    65
 73
     0
 40
0.0
  0
LTYPE
  5
16
330
14
100
AcDbSymbolTableRecord
100
AcDbLinetypeTableRecord
  2
BYLAYER
 70
     0
  3

 72
    65
 73
     0
 40
0.0
  0
LTYPE
  5
8
330
14
100
AcDbSymbolTableRecord
100
AcDbLinetypeTableRecord
  2
CONTINUOUS
 70
     0
  3
Solid line
 72
    65
 73
     0
 40
0.0
  0
LTYPE
  5
24E
330
14
100
AcDbSymbolTableRecord
100
AcDbLinetypeTableRecord
  2
HIDDEN
 70
     0
  3
Hidden __ __ __ __ __ __ __ __ __ __ __ __ __ _
 72
    65
 73
     2
 40
0.375
 49
0.25
 74
     0
 49
-0.125
 74
     0
  0
ENDTAB
  0
TABLE
  2
LAYER
  5
10
330
0
100
AcDbSymbolTable
 70
     2
  0
LAYER
  5
4
330
10
100
AcDbSymbolTableRecord
100
AcDbLayerTableRecord
  2
0
 70
     0
 62
     7
  6
CONTINUOUS
370
    -3
390
5
  0
ENDTAB
  0
TABLE
  2
STYLE
  5
11
330
0
100
AcDbSymbolTable
 70
     1
  0
STYLE
  5
12
330
11
100
AcDbSymbolTableRecord
100
AcDbTextStyleTableRecord
  2
STANDARD
 70
     0
 40
0.0
 41
1.0
 50
0.0
 71
     0
 42
0.27
  3
TXT
  4

  0
ENDTAB
  0
TABLE
  2
VIEW
  5
17
330
0
100
AcDbSymbolTable
 70
     0
  0
ENDTAB
  0
TABLE
  2
UCS
  5
18
330
0
100
AcDbSymbolTable
 70
     0
  0
ENDTAB
  0
TABLE
  2
APPID
  5
1B
330
0
100
AcDbSymbolTable
 70
     2
  0
APPID
  5
1C
330
1B
100
AcDbSymbolTableRecord
100
AcDbRegAppTableRecord
  2
ACAD
 70
     0
  0
APPID
  5
20F
330
1B
100
AcDbSymbolTableRecord
100
AcDbRegAppTableRecord
  2
ACAD_DSTYLE_DIMTEXT_FILL
 70
     0
  0
ENDTAB
  0
TABLE
  2
DIMSTYLE
  5
1D
330
0
100
AcDbSymbolTable
 70
     1
100
AcDbDimStyleTable
  0
DIMSTYLE
105
24
330
1D
100
AcDbSymbolTableRecord
100
AcDbDimStyleTableRecord
  2
STANDARD
 70
     0
  3

  4

340
12
  0
ENDTAB
  0
TABLE
  2
BLOCK_RECORD
  5
1
330
0
100
AcDbSymbolTable
 70
     1
  0
BLOCK_RECORD
  5
2
330
1
100
AcDbSymbolTableRecord
100
AcDbBlockTableRecord
  2
*MODEL_SPACE
340
A
  0
BLOCK_RECORD
  5
C
330
1
100
AcDbSymbolTableRecord
100
AcDbBlockTableRecord
  2
*PAPER_SPACE
340
F
  0
ENDTAB
  0
ENDSEC
  0
SECTION
  2
BLOCKS
  0
BLOCK
  5
3
330
2
100
AcDbEntity
  8
0
100
AcDbBlockBegin
  2
*MODEL_SPACE
 70
     0
 10
0.0
 20
0.0
 30
0.0
  3
*MODEL_SPACE
  1

  4

  0
ENDBLK
  5
9
330
2
100
AcDbEntity
  8
0
100
AcDbBlockEnd
  0
BLOCK
  5
D
330
C
100
AcDbEntity
 67
     1
  8
0
100
AcDbBlockBegin
  2
*PAPER_SPACE
 70
     0
 10
0.0
 20
0.0
 30
0.0
  3
*PAPER_SPACE
  1

  4

  0
ENDBLK
  5
E
330
C
100
AcDbEntity
 67
     1
  8
0
100
AcDbBlockEnd
  0
ENDSEC
  0
SECTION
  2
ENTITIES
  0
LINE
  5
10C
330
2
100
AcDbEntity
  8
0
100
AcDbLine
 10
2.077249999999999
 20
2.795999999999995
 30
0.0
 11
2.077249999999999
 21
9.196000000000002
 31
0.0
  0
LINE
  5
10D
330
2
100
AcDbEntity
  8
0
100
AcDbLine
 10
-2.077249999999999
 20
2.795999999999997
 30
0.0
 11
-2.07725
 21
9.196000000000002
 31
0.0
  0
LINE
  5
10E
330
2
100
AcDbEntity
  8
0
100
AcDbLine
 10
-1.327249999999999
 20
0.0920000000000011
 30
0.0
 11
-1.327249999999999
 21
9.195999999999998
 31
0.0
  0
LINE
  5
10F
330
2
100
AcDbEntity
  8
0
100
AcDbLine
 10
1.327249999999999
 20
0.0920000000000011
 30
0.0
 11
1.32725
 21
9.195999999999998
 31
0.0
  0
LINE
  5
110
330
2
100
AcDbEntity
  8
0
100
AcDbLine
 10
-1.28125
 20
0.0919999999999976
 30
0.0
 11
-1.28125
 21
9.196000000000002
 31
0.0
  0
LINE
  5
111
330
2
100
AcDbEntity
  8
0
100
AcDbLine
 10
1.28125
 20
0.0919999999999976
 30
0.0
 11
1.281250000000001
 21
9.196000000000002
 31
0.0
  0
LINE
  5
112
330
2
100
AcDbEntity
  8
0
100
AcDbLine
 10
-1.235250000000001
 20
0.0459999999999976
 30
0.0
 11
1.235250000000001
 21
0.0459999999999982
 31
0.0
  0
LINE
  5
113
330
2
100
AcDbEntity
  8
0
100
AcDbLine
 10
-1.235250000000001
 20
0.0000000000000011
 30
0.0
 11
1.235250000000001
 21
-0.0000000000000012
 31
0.0
  0
LINE
  5
114
330
2
100
AcDbEntity
  8
0
100
AcDbLine
 10
-1.373250000000002
 20
0.2564999999999978
 30
0.0
 11
-1.373250000000002
 21
2.960499999999999
 31
0.0
  0
ARC
  5
117
330
2
100
AcDbEntity
  8
0
100
AcDbCircle
 10
-1.235250000000001
 20
0.0920000000000011
 30
0.0
 40
0.092
100
AcDbArc
 50
180.0
 51
270.0
  0
ARC
  5
118
330
2
100
AcDbEntity
  8
0
100
AcDbCircle
 10
-1.235250000000001
 20
0.0919999999999976
 30
0.0
 40
0.046
100
AcDbArc
 50
180.0
 51
270.0
  0
LINE
  5
119
330
2
100
AcDbEntity
  8
0
100
AcDbLine
 10
-1.327250000000003
 20
0.2334999999999982
 30
0.0
 11
-1.350250000000003
 21
0.2334999999999982
 31
0.0
  0
ARC
  5
11A
330
2
100
AcDbEntity
  8
0
100
AcDbCircle
 10
-1.350250000000003
 20
0.2564999999999978
 30
0.0
 40
0.023
100
AcDbArc
 50
180.0
 51
270.0000000000001
  0
LINE
  5
125
330
2
100
AcDbEntity
  8
0
100
AcDbLine
 10
-1.831429023449326
 20
2.119428504906401
 30
0.0
 11
-2.077249999999999
 21
2.795999999999995
 31
0.0
  0
LINE
  5
126
330
2
100
AcDbEntity
  8
0
100
AcDbLine
 10
-1.72662499999991
 20
2.045999999999995
 30
0.0
 11
-1.373250000000002
 21
2.045999999999995
 31
0.0
  0
ARC
  5
127
330
2
100
AcDbEntity
  8
0
  6
Continuous
100
AcDbCircle
 10
-1.804749999999999
 20
2.045999999999995
 30
0.0
 40
0.078125
100
AcDbArc
 50
0.0
 51
109.9677703928461
  0
CIRCLE
  5
128
330
2
100
AcDbEntity
  8
0
100
AcDbCircle
 10
-1.827249999999999
 20
3.045999999999999
 30
0.0
 40
0.0855
  0
LINE
  5
129
330
2
100
AcDbEntity
  8
0
100
AcDbLine
 10
-1.327250000000003
 20
2.983499999999999
 30
0.0
 11
-1.350250000000003
 21
2.983499999999999
 31
0.0
  0
ARC
  5
12A
330
2
100
AcDbEntity
  8
0
100
AcDbCircle
 10
-1.350250000000003
 20
2.960499999999999
 30
0.0
 40
0.023
100
AcDbArc
 50
90.00000000000003
 51
180.0000000000001
  0
CIRCLE
  5
12B
330
2
100
AcDbEntity
  8
0
100
AcDbCircle
 10
-1.827249999999999
 20
4.795999999999998
 30
0.0
 40
0.0855
  0
ARC
  5
12C
330
2
100
AcDbEntity
  8
0
100
AcDbCircle
 10
-1.327249999999999
 20
5.420999999999998
 30
0.0
 40
0.1875
100
AcDbArc
 50
89.99999999999987
 51
270.0000000000002
  0
LINE
  5
12D
330
2
100
AcDbEntity
  8
0
100
AcDbLine
 10
1.373250000000002
 20
0.2564999999999978
 30
0.0
 11
1.373249999999999
 21
2.960499999999999
 31
0.0
  0
ARC
  5
12E
330
2
100
AcDbEntity
  8
0
100
AcDbCircle
 10
1.235250000000001
 20
0.0920000000000011
 30
0.0
 40
0.092
100
AcDbArc
 50
270.0
 51
0.0
  0
ARC
  5
12F
330
2
100
AcDbEntity
  8
0
100
AcDbCircle
 10
1.235250000000001
 20
0.0919999999999976
 30
0.0
 40
0.046
100
AcDbArc
 50
270.0
 51
0.0
  0
LINE
  5
130
330
2
100
AcDbEntity
  8
0
100
AcDbLine
 10
1.327249999999999
 20
0.2334999999999982
 30
0.0
 11
1.350250000000003
 21
0.2334999999999982
 31
0.0
  0
ARC
  5
131
330
2
100
AcDbEntity
  8
0
100
AcDbCircle
 10
1.350250000000003
 20
0.2564999999999978
 30
0.0
 40
0.023
100
AcDbArc
 50
270.0
 51
0.0000000000000127
  0
LINE
  5
132
330
2
100
AcDbEntity
  8
0
100
AcDbLine
 10
1.831429023449324
 20
2.119428504906401
 30
0.0
 11
2.077249999999999
 21
2.795999999999995
 31
0.0
  0
ARC
  5
133
330
2
100
AcDbEntity
  8
0
  6
Continuous
100
AcDbCircle
 10
1.804749999999997
 20
2.045999999999995
 30
0.0
 40
0.078125
100
AcDbArc
 50
70.03222960715387
 51
180.0
  0
LINE
  5
134
330
2
100
AcDbEntity
  8
0
100
AcDbLine
 10
1.726624999999997
 20
2.045999999999995
 30
0.0
 11
1.373249999999999
 21
2.045999999999995
 31
0.0
  0
LINE
  5
135
330
2
100
AcDbEntity
  8
0
100
AcDbLine
 10
1.327249999999999
 20
2.983499999999999
 30
0.0
 11
1.350249999999999
 21
2.983499999999999
 31
0.0
  0
ARC
  5
136
330
2
100
AcDbEntity
  8
0
100
AcDbCircle
 10
1.350249999999999
 20
2.960499999999999
 30
0.0
 40
0.023
100
AcDbArc
 50
0.0
 51
90.0
  0
CIRCLE
  5
137
330
2
100
AcDbEntity
  8
0
100
AcDbCircle
 10
1.827249999999999
 20
3.045999999999999
 30
0.0
 40
0.0855
  0
CIRCLE
  5
138
330
2
100
AcDbEntity
  8
0
100
AcDbCircle
 10
1.827249999999999
 20
4.795999999999998
 30
0.0
 40
0.0855
  0
ARC
  5
139
330
2
100
AcDbEntity
  8
0
100
AcDbCircle
 10
1.327249999999999
 20
5.420999999999998
 30
0.0
 40
0.1875
100
AcDbArc
 50
269.9999999999999
 51
90.00000000000017
  0
CIRCLE
  5
13A
330
2
100
AcDbEntity
  8
0
100
AcDbCircle
 10
-1.827249999999999
 20
6.545999999999998
 30
0.0
 40
0.0855
  0
CIRCLE
  5
13B
330
2
100
AcDbEntity
  8
0
100
AcDbCircle
 10
-1.827249999999999
 20
8.295999999999999
 30
0.0
 40
0.0855
  0
LINE
  5
13C
330
2
100
AcDbEntity
  8
0
100
AcDbLine
 10
-2.07725
 20
9.196000000000002
 30
0.0
 11
-1.281250000000001
 21
9.196000000000002
 31
0.0
  0
CIRCLE
  5
13D
330
2
100
AcDbEntity
  8
0
100
AcDbCircle
 10
1.827249999999999
 20
6.545999999999998
 30
0.0
 40
0.0855
  0
CIRCLE
  5
13E
330
2
100
AcDbEntity
  8
0
100
AcDbCircle
 10
1.827249999999999
 20
8.295999999999999
 30
0.0
 40
0.0855
  0
LINE
  5
13F
330
2
100
AcDbEntity
  8
0
100
AcDbLine
 10
2.077249999999999
 20
9.196000000000002
 30
0.0
 11
1.28125
 21
9.196000000000002
 31
0.0
  0
LINE
  5
140
330
2
100
AcDbEntity
  8
0
100
AcDbLine
 10
-1.187531018764457
 20
15.17030408570768
 30
0.0
 11
1.187531018764457
 21
15.17030408570768
 31
0.0
  0
LINE
  5
141
330
2
100
AcDbEntity
  8
0
100
AcDbLine
 10
-1.187531018764457
 20
13.17030408570768
 30
0.0
 11
1.187531018764457
 21
13.17030408570768
 31
0.0
  0
LINE
  5
144
330
2
100
AcDbEntity
  8
0
100
AcDbLine
 10
-1.327250000000003
 20
13.17030408570768
 30
0.0
 11
-1.327249999999999
 21
15.32830408570768
 31
0.0
  0
LINE
  5
145
330
2
100
AcDbEntity
  8
0
100
AcDbLine
 10
-1.28125
 20
13.17030408570768
 30
0.0
 11
-1.28125
 21
15.32830408570768
 31
0.0
  0
LINE
  5
147
330
2
100
AcDbEntity
  8
0
100
AcDbLine
 10
-1.327250000000003
 20
13.17030408570768
 30
0.0
 11
-1.28125
 21
13.17030408570768
 31
0.0
  0
LINE
  5
148
330
2
100
AcDbEntity
  8
0
100
AcDbLine
 10
-1.28125
 20
13.23280408570768
 30
0.0
 11
-1.250031018764457
 21
13.23280408570768
 31
0.0
  0
ARC
  5
149
330
2
100
AcDbEntity
  8
0
100
AcDbCircle
 10
-1.250031018764457
 20
13.17030408570768
 30
0.0
 40
0.0625
100
AcDbArc
 50
0.0000000000032569
 51
90.0
  0
LINE
  5
14A
330
2
100
AcDbEntity
  8
0
100
AcDbLine
 10
-1.327249999999999
 20
13.89780408570769
 30
0.0
 11
-1.28125
 21
13.89780408570769
 31
0.0
  0
LINE
  5
14B
330
2
100
AcDbEntity
  8
0
100
AcDbLine
 10
-1.327249999999999
 20
14.12430408570768
 30
0.0
 11
-1.28125
 21
14.12430408570769
 31
0.0
  0
LINE
  5
15E
330
2
100
AcDbEntity
  8
0
100
AcDbLine
 10
0.0
 20
13.54938882612479
 30
0.0
 11
-0.1209152595828975
 21
13.67030408570769
 31
0.0
  0
LINE
  5
15F
330
2
100
AcDbEntity
  8
0
100
AcDbLine
 10
0.1209152595829011
 20
13.67030408570769
 30
0.0
 11
0.0
 21
13.54938882612479
 31
0.0
  0
LINE
  5
160
330
2
100
AcDbEntity
  8
0
100
AcDbLine
 10
0.0
 20
13.79121934529059
 30
0.0
 11
0.1209152595829011
 21
13.67030408570769
 31
0.0
  0
LINE
  5
161
330
2
100
AcDbEntity
  8
0
100
AcDbLine
 10
-0.1209152595828975
 20
13.67030408570769
 30
0.0
 11
0.0
 21
13.79121934529059
 31
0.0
  0
LINE
  5
163
330
2
100
AcDbEntity
  8
0
100
AcDbLine
 10
-2.077249999999999
 20
15.42030408570768
 30
0.0
 11
-1.373249999999999
 21
15.42030408570768
 31
0.0
  0
LINE
  5
164
330
2
100
AcDbEntity
  8
0
100
AcDbLine
 10
-2.077249999999999
 20
15.37430408570769
 30
0.0
 11
-1.373249999999999
 21
15.37430408570768
 31
0.0
  0
LINE
  5
165
330
2
100
AcDbEntity
  8
0
100
AcDbLine
 10
-2.077249999999999
 20
15.42030408570768
 30
0.0
 11
-2.077249999999999
 21
15.37430408570769
 31
0.0
  0
ARC
  5
166
330
2
100
AcDbEntity
  8
0
100
AcDbCircle
 10
-1.250031018764457
 20
15.17030408570768
 30
0.0
 40
0.0625
100
AcDbArc
 50
270.0
 51
0.0
  0
LINE
  5
167
330
2
100
AcDbEntity
  8
0
100
AcDbLine
 10
-1.28125
 20
15.10780408570768
 30
0.0
 11
-1.250031018764457
 21
15.10780408570768
 31
0.0
  0
ARC
  5
168
330
2
100
AcDbEntity
  8
0
100
AcDbCircle
 10
-1.373249999999999
 20
15.32830408570768
 30
0.0
 40
0.092
100
AcDbArc
 50
359.9999999999999
 51
90.0
  0
ARC
  5
169
330
2
100
AcDbEntity
  8
0
100
AcDbCircle
 10
-1.373249999999999
 20
15.32830408570768
 30
0.0
 40
0.046
100
AcDbArc
 50
359.9999999999999
 51
89.99999999999972
  0
LINE
  5
170
330
2
100
AcDbEntity
  8
0
100
AcDbLine
 10
1.327249999999999
 20
13.17030408570769
 30
0.0
 11
1.327250000000003
 21
15.32830408570769
 31
0.0
  0
LINE
  5
171
330
2
100
AcDbEntity
  8
0
100
AcDbLine
 10
1.28125
 20
13.17030408570769
 30
0.0
 11
1.28125
 21
15.32830408570769
 31
0.0
  0
ARC
  5
172
330
2
100
AcDbEntity
  8
0
100
AcDbCircle
 10
1.250031018764457
 20
13.17030408570768
 30
0.0
 40
0.0625
100
AcDbArc
 50
90.0
 51
179.9999999999967
  0
LINE
  5
173
330
2
100
AcDbEntity
  8
0
100
AcDbLine
 10
1.28125
 20
13.23280408570768
 30
0.0
 11
1.250031018764457
 21
13.23280408570768
 31
0.0
  0
LINE
  5
174
330
2
100
AcDbEntity
  8
0
100
AcDbLine
 10
1.28125
 20
13.17030408570769
 30
0.0
 11
1.327249999999999
 21
13.17030408570769
 31
0.0
  0
LINE
  5
175
330
2
100
AcDbEntity
  8
0
100
AcDbLine
 10
1.281140367813023
 20
13.89780408570768
 30
0.0
 11
1.327249999999999
 21
13.89780408570769
 31
0.0
  0
LINE
  5
176
330
2
100
AcDbEntity
  8
0
100
AcDbLine
 10
1.28125
 20
14.12430408570769
 30
0.0
 11
1.327249999999999
 21
14.12430408570768
 31
0.0
  0
LINE
  5
177
330
2
100
AcDbEntity
  8
0
100
AcDbLine
 10
1.373250000000002
 20
15.42030408570769
 30
0.0
 11
2.077249999999999
 21
15.42030408570768
 31
0.0
  0
LINE
  5
178
330
2
100
AcDbEntity
  8
0
100
AcDbLine
 10
1.373250000000002
 20
15.37430408570769
 30
0.0
 11
2.077249999999999
 21
15.37430408570768
 31
0.0
  0
ARC
  5
179
330
2
100
AcDbEntity
  8
0
100
AcDbCircle
 10
1.373250000000002
 20
15.32830408570769
 30
0.0
 40
0.092
100
AcDbArc
 50
89.9999999999997
 51
179.9999999999999
  0
ARC
  5
17A
330
2
100
AcDbEntity
  8
0
100
AcDbCircle
 10
1.373250000000002
 20
15.32830408570769
 30
0.0
 40
0.046
100
AcDbArc
 50
89.9999999999997
 51
179.9999999999999
  0
ARC
  5
17B
330
2
100
AcDbEntity
  8
0
100
AcDbCircle
 10
1.250031018764457
 20
15.17030408570768
 30
0.0
 40
0.0625
100
AcDbArc
 50
180.0
 51
270.0
  0
LINE
  5
17C
330
2
100
AcDbEntity
  8
0
100
AcDbLine
 10
1.28125
 20
15.10780408570768
 30
0.0
 11
1.250031018764457
 21
15.10780408570768
 31
0.0
  0
LINE
  5
17D
330
2
100
AcDbEntity
  8
0
100
AcDbLine
 10
2.077249999999999
 20
15.42030408570768
 30
0.0
 11
2.077249999999999
 21
15.37430408570768
 31
0.0
  0
ARC
  5
17E
330
2
100
AcDbEntity
  8
0
  6
Continuous
100
AcDbCircle
 10
8.219470553077414
 20
2.045999999999999
 30
0.0
 40
0.078125
100
AcDbArc
 50
180.0
 51
70.03222960715553
  0
LINE
  5
180
330
2
100
AcDbEntity
  8
0
100
AcDbLine
 10
8.192791055427289
 20
1.97270467678537
 30
0.0
 11
8.018650050727533
 21
1.494295323214626
 31
0.0
  0
LINE
  5
181
330
2
100
AcDbEntity
  8
0
100
AcDbLine
 10
7.491970553077415
 20
-0.0000000000000012
 30
0.0
 11
9.491970553077408
 21
-0.0000000000000012
 31
0.0
  0
CIRCLE
  5
182
330
2
100
AcDbEntity
  8
0
  6
Continuous
100
AcDbCircle
 10
7.991970553077408
 20
1.420999999999998
 30
0.0
 40
0.078125
  0
LINE
  5
183
330
2
100
AcDbEntity
  8
0
100
AcDbLine
 10
7.491970553077408
 20
1.952249999999999
 30
0.0
 11
7.491970553077408
 21
0.1728855346309028
 31
0.0
  0
LINE
  5
184
330
2
100
AcDbEntity
  8
0
100
AcDbLine
 10
7.491970553077408
 20
0.0459999999999982
 30
0.0
 11
7.491970553077408
 21
-0.0000000000000047
 31
0.0
  0
LINE
  5
185
330
2
100
AcDbEntity
  8
0
100
AcDbLine
 10
7.556341591119505
 20
-0.0000000000000012
 30
0.0
 11
7.556341591119505
 21
0.1104135471753504
 31
0.0
  0
ARC
  5
186
330
2
100
AcDbEntity
  8
0
100
AcDbCircle
 10
7.493841591119505
 20
0.1104135471753504
 30
0.0
 40
0.0625
100
AcDbArc
 50
0.0
 51
91.71549763334143
  0
LINE
  5
187
330
2
100
AcDbEntity
  8
0
100
AcDbLine
 10
7.491970553077415
 20
0.0459999999999982
 30
0.0
 11
7.556341591119505
 21
0.0459999999999982
 31
0.0
  0
ARC
  5
188
330
2
100
AcDbEntity
  8
0
100
AcDbCircle
 10
7.585720553077408
 20
1.952249999999999
 30
0.0
 40
0.09375
100
AcDbArc
 50
90.0
 51
180.0
  0
LINE
  5
189
330
2
100
AcDbEntity
  8
0
100
AcDbLine
 10
7.585720553077408
 20
2.045999999999999
 30
0.0
 11
8.141470553077415
 21
2.045999999999999
 31
0.0
  0
ARC
  5
18A
330
2
100
AcDbEntity
  8
0
100
AcDbCircle
 10
7.679470553077408
 20
1.795999999999999
 30
0.0
 40
0.078
100
AcDbArc
 50
180.0
 51
0.0
  0
LINE
  5
18B
330
2
100
AcDbEntity
  8
0
100
AcDbLine
 10
7.601470553077412
 20
1.795999999999999
 30
0.0
 11
7.601470553077412
 21
1.858499999999999
 31
0.0
  0
LINE
  5
18C
330
2
100
AcDbEntity
  8
0
100
AcDbLine
 10
7.757470553077411
 20
1.858499999999999
 30
0.0
 11
7.757470553077411
 21
1.795999999999999
 31
0.0
  0
ARC
  5
18D
330
2
100
AcDbEntity
  8
0
100
AcDbCircle
 10
7.679470553077408
 20
1.858499999999999
 30
0.0
 40
0.078
100
AcDbArc
 50
0.0
 51
180.0
  0
LINE
  5
18E
330
2
100
AcDbEntity
  8
0
100
AcDbLine
 10
8.491970553077415
 20
9.196000000000002
 30
0.0
 11
8.491970553077415
 21
2.795999999999997
 31
0.0
  0
LINE
  5
18F
330
2
100
AcDbEntity
  8
0
100
AcDbLine
 10
9.741970553077412
 20
9.195999999999998
 30
0.0
 11
9.741970553077415
 21
2.045999999999999
 31
0.0
  0
LINE
  5
190
330
2
100
AcDbEntity
  8
0
100
AcDbLine
 10
9.787970553077411
 20
9.195999999999998
 30
0.0
 11
9.787970553077415
 21
2.045999999999999
 31
0.0
  0
LINE
  5
195
330
2
100
AcDbEntity
  8
0
100
AcDbLine
 10
9.491970553077408
 20
1.952249999999997
 30
0.0
 11
9.491970553077408
 21
0.1728855346310165
 31
0.0
  0
LINE
  5
19C
330
2
100
AcDbEntity
  8
0
100
AcDbLine
 10
9.427599515035318
 20
0.0459999999999982
 30
0.0
 11
9.491970553077408
 21
0.0459999999999982
 31
0.0
  0
LINE
  5
19D
330
2
100
AcDbEntity
  8
0
100
AcDbLine
 10
9.491970553077408
 20
0.0459999999999982
 30
0.0
 11
9.491970553077408
 21
-0.0000000000000012
 31
0.0
  0
ARC
  5
19E
330
2
100
AcDbEntity
  8
0
100
AcDbCircle
 10
9.490099515035318
 20
0.1104135471753504
 30
0.0
 40
0.0625
100
AcDbArc
 50
88.28450236666839
 51
180.0000000000001
  0
LINE
  5
19F
330
2
100
AcDbEntity
  8
0
100
AcDbLine
 10
9.427599515035318
 20
-0.0000000000000012
 30
0.0
 11
9.427599515035318
 21
0.1104135471753504
 31
0.0
  0
ARC
  5
1B2
330
2
100
AcDbEntity
  8
0
100
AcDbCircle
 10
9.585720553077408
 20
1.952249999999997
 30
0.0
 40
0.09375
100
AcDbArc
 50
90.0
 51
180.0
  0
LINE
  5
1B4
330
2
100
AcDbEntity
  8
0
100
AcDbLine
 10
8.246106890089223
 20
2.119311019298555
 30
0.0
 11
8.491970553077415
 21
2.795999999999997
 31
0.0
  0
LINE
  5
1B8
330
2
100
AcDbEntity
  8
0
100
AcDbLine
 10
9.585720553077408
 20
2.045999999999997
 30
0.0
 11
9.787970553077415
 21
2.045999999999999
 31
0.0
  0
LINE
  5
1B9
330
2
100
AcDbEntity
  8
0
100
AcDbLine
 10
9.741970553077415
 20
2.795999999999997
 30
0.0
 11
9.787970553077415
 21
2.795999999999997
 31
0.0
  0
ARC
  5
1BA
330
2
100
AcDbEntity
  8
0
100
AcDbCircle
 10
9.741970553077415
 20
5.420999999999999
 30
0.0
 40
0.1875
100
AcDbArc
 50
90.0
 51
270.0
  0
LINE
  5
1BC
330
2
100
AcDbEntity
  8
0
100
AcDbLine
 10
8.491970553077415
 20
9.196000000000002
 30
0.0
 11
9.787970553077415
 21
9.196000000000002
 31
0.0
  0
LWPOLYLINE
  5
1BD
330
2
100
AcDbEntity
  8
0
100
AcDbPolyline
 90
        6
 70
     1
 43
0.0
 10
9.01920725920915
 20
5.624024999999994
 10
8.93806067887455
 20
5.483474999999993
 42
0.5773502691896258
 10
8.965123972742813
 20
5.436599999999993
 10
9.127417133412017
 20
5.436599999999993
 42
0.5773502691896247
 10
9.15448042728028
 20
5.483474999999993
 10
9.073333846945676
 20
5.624024999999994
 42
0.5773502691896262
  0
LINE
  5
1C8
330
2
100
AcDbEntity
  8
0
100
AcDbLine
 10
-8.7888345068591
 20
9.196000000000002
 30
0.0
 11
-8.7888345068591
 21
2.795999999999997
 31
0.0
  0
LINE
  5
1C9
330
2
100
AcDbEntity
  8
0
100
AcDbLine
 10
-10.0388345068591
 20
9.195999999999998
 30
0.0
 11
-10.0388345068591
 21
2.045999999999999
 31
0.0
  0
LINE
  5
1CA
330
2
100
AcDbEntity
  8
0
100
AcDbLine
 10
-10.0848345068591
 20
9.195999999999998
 30
0.0
 11
-10.0848345068591
 21
2.045999999999999
 31
0.0
  0
LINE
  5
1CB
330
2
100
AcDbEntity
  8
0
100
AcDbLine
 10
-7.788834506859093
 20
1.952249999999999
 30
0.0
 11
-7.788834506859093
 21
0.1728855346309028
 31
0.0
  0
LINE
  5
1CC
330
2
100
AcDbEntity
  8
0
100
AcDbLine
 10
-9.788834506859093
 20
1.952249999999997
 30
0.0
 11
-9.788834506859093
 21
0.1728855346310165
 31
0.0
  0
LINE
  5
1D6
330
2
100
AcDbEntity
  8
0
100
AcDbLine
 10
-7.7888345068591
 20
-0.0000000000000012
 30
0.0
 11
-9.788834506859093
 21
-0.0000000000000012
 31
0.0
  0
LINE
  5
1D7
330
2
100
AcDbEntity
  8
0
100
AcDbLine
 10
-7.85320554490119
 20
-0.0000000000000012
 30
0.0
 11
-7.85320554490119
 21
0.1104135471753504
 31
0.0
  0
LINE
  5
1D8
330
2
100
AcDbEntity
  8
0
100
AcDbLine
 10
-7.788834506859093
 20
0.0459999999999982
 30
0.0
 11
-7.788834506859093
 21
-0.0000000000000047
 31
0.0
  0
ARC
  5
1D9
330
2
100
AcDbEntity
  8
0
100
AcDbCircle
 10
-7.79070554490119
 20
0.1104135471753504
 30
0.0
 40
0.0625
100
AcDbArc
 50
88.28450236665859
 51
180.0
  0
LINE
  5
1DA
330
2
100
AcDbEntity
  8
0
100
AcDbLine
 10
-7.7888345068591
 20
0.0459999999999982
 30
0.0
 11
-7.85320554490119
 21
0.0459999999999982
 31
0.0
  0
LINE
  5
1DF
330
2
100
AcDbEntity
  8
0
100
AcDbLine
 10
-9.724463468817003
 20
0.0459999999999982
 30
0.0
 11
-9.788834506859093
 21
0.0459999999999982
 31
0.0
  0
LINE
  5
1E0
330
2
100
AcDbEntity
  8
0
100
AcDbLine
 10
-9.788834506859093
 20
0.0459999999999982
 30
0.0
 11
-9.788834506859093
 21
-0.0000000000000012
 31
0.0
  0
ARC
  5
1E1
330
2
100
AcDbEntity
  8
0
100
AcDbCircle
 10
-9.786963468817003
 20
0.1104135471753504
 30
0.0
 40
0.0625
100
AcDbArc
 50
359.9999999999999
 51
91.71549763333161
  0
LINE
  5
1E2
330
2
100
AcDbEntity
  8
0
100
AcDbLine
 10
-9.724463468817003
 20
-0.0000000000000012
 30
0.0
 11
-9.724463468817003
 21
0.1104135471753504
 31
0.0
  0
LINE
  5
1EB
330
2
100
AcDbEntity
  8
0
100
AcDbLine
 10
-7.882584506859093
 20
2.045999999999999
 30
0.0
 11
-8.4383345068591
 21
2.045999999999999
 31
0.0
  0
ARC
  5
1EC
330
2
100
AcDbEntity
  8
0
100
AcDbCircle
 10
-7.882584506859093
 20
1.952249999999999
 30
0.0
 40
0.09375
100
AcDbArc
 50
0.000000000000007
 51
90.0
  0
ARC
  5
1ED
330
2
100
AcDbEntity
  8
0
100
AcDbCircle
 10
-7.976334506859093
 20
1.795999999999999
 30
0.0
 40
0.078
100
AcDbArc
 50
180.0
 51
0.000000000000007
  0
LINE
  5
1EE
330
2
100
AcDbEntity
  8
0
100
AcDbLine
 10
-7.898334506859097
 20
1.795999999999999
 30
0.0
 11
-7.898334506859097
 21
1.858499999999999
 31
0.0
  0
LINE
  5
1EF
330
2
100
AcDbEntity
  8
0
100
AcDbLine
 10
-8.054334506859096
 20
1.858499999999999
 30
0.0
 11
-8.054334506859096
 21
1.795999999999999
 31
0.0
  0
ARC
  5
1F0
330
2
100
AcDbEntity
  8
0
100
AcDbCircle
 10
-7.976334506859093
 20
1.858499999999999
 30
0.0
 40
0.078
100
AcDbArc
 50
0.000000000000007
 51
180.0
  0
ARC
  5
1F1
330
2
100
AcDbEntity
  8
0
  6
Continuous
100
AcDbCircle
 10
-8.516334506859099
 20
2.045999999999999
 30
0.0
 40
0.078125
100
AcDbArc
 50
109.9677703928445
 51
0.000000000000007
  0
CIRCLE
  5
1F2
330
2
100
AcDbEntity
  8
0
  6
Continuous
100
AcDbCircle
 10
-8.288834506859093
 20
1.420999999999998
 30
0.0
 40
0.078125
  0
LINE
  5
1F5
330
2
100
AcDbEntity
  8
0
100
AcDbLine
 10
-8.489655009208974
 20
1.97270467678537
 30
0.0
 11
-8.315514004509218
 21
1.494295323214626
 31
0.0
  0
LINE
  5
1FC
330
2
100
AcDbEntity
  8
0
100
AcDbLine
 10
-8.542970843870908
 20
2.119311019298555
 30
0.0
 11
-8.7888345068591
 21
2.795999999999997
 31
0.0
  0
ARC
  5
1FD
330
2
100
AcDbEntity
  8
0
100
AcDbCircle
 10
-9.882584506859093
 20
1.952249999999997
 30
0.0
 40
0.09375
100
AcDbArc
 50
0.000000000000007
 51
90.0
  0
LINE
  5
1FE
330
2
100
AcDbEntity
  8
0
100
AcDbLine
 10
-9.882584506859093
 20
2.045999999999997
 30
0.0
 11
-10.0848345068591
 21
2.045999999999999
 31
0.0
  0
LINE
  5
203
330
2
100
AcDbEntity
  8
0
100
AcDbLine
 10
-10.0388345068591
 20
2.795999999999997
 30
0.0
 11
-10.0848345068591
 21
2.795999999999997
 31
0.0
  0
LWPOLYLINE
  5
204
330
2
100
AcDbEntity
  8
0
100
AcDbPolyline
 90
        6
 70
     1
 43
0.0
 10
-9.316071212990835
 20
5.624024999999994
 10
-9.234924632656234
 20
5.483474999999993
 42
-0.5773502691896258
 10
-9.261987926524498
 20
5.436599999999993
 10
-9.424281087193702
 20
5.436599999999993
 42
-0.5773502691896247
 10
-9.451344381061965
 20
5.483474999999993
 10
-9.370197800727361
 20
5.624024999999994
 42
-0.5773502691896262
  0
ARC
  5
205
330
2
100
AcDbEntity
  8
0
100
AcDbCircle
 10
-10.0388345068591
 20
5.420999999999999
 30
0.0
 40
0.1875
100
AcDbArc
 50
270.0
 51
90.0
  0
LINE
  5
206
330
2
100
AcDbEntity
  8
0
100
AcDbLine
 10
-8.7888345068591
 20
9.196000000000002
 30
0.0
 11
-10.0848345068591
 21
9.196000000000002
 31
0.0
  0
LINE
  5
28F
330
2
100
AcDbEntity
  8
0
  6
HIDDEN
100
AcDbLine
 10
-7.85320554490119
 20
0.0459999999999982
 30
0.0
 11
-9.724463468817003
 21
0.0459999999999982
 31
0.0
  0
LINE
  5
29B
330
2
100
AcDbEntity
  8
0
  6
HIDDEN
100
AcDbLine
 10
-8.558607977854642
 20
0.2960000000000017
 30
0.0
 11
-8.558607977854642
 21
1.001227684158414
 31
0.0
  0
LINE
  5
29C
330
2
100
AcDbEntity
  8
0
  6
HIDDEN
100
AcDbLine
 10
-8.65250797785464
 20
0.2960000000000017
 30
0.0
 11
-8.65250797785464
 21
0.992411335122983
 31
0.0
  0
LINE
  5
29D
330
2
100
AcDbEntity
  8
0
100
AcDbLine
 10
-8.699307977854641
 20
0.2960000000000017
 30
0.0
 11
-8.699307977854641
 21
0.992411335122983
 31
0.0
  0
LINE
  5
29E
330
2
100
AcDbEntity
  8
0
100
AcDbLine
 10
-8.511807977854641
 20
0.2960000000000017
 30
0.0
 11
-8.511807977854641
 21
1.001227684158414
 31
0.0
  0
LINE
  5
2A0
330
2
100
AcDbEntity
  8
0
100
AcDbLine
 10
-9.079735641983906
 20
0.9570705302566177
 30
0.0
 11
-9.720929072416293
 21
2.718735001872246
 31
0.0
  0
ARC
  5
2A1
330
2
100
AcDbEntity
  8
0
  6
HIDDEN
100
AcDbCircle
 10
-9.164307977854637
 20
0.9262887173573079
 30
0.0
 40
0.1368
100
AcDbArc
 50
359.9999999999999
 51
19.99999999999999
  0
ARC
  5
2A2
330
2
100
AcDbEntity
  8
0
  6
HIDDEN
100
AcDbCircle
 10
-9.164307977854644
 20
0.9262887173573221
 30
0.0
 40
0.2307
100
AcDbArc
 50
0.0000000000000318
 51
20.00000000000013
  0
ARC
  5
2A3
330
2
100
AcDbEntity
  8
0
100
AcDbCircle
 10
-9.164307977854644
 20
0.9262887173573221
 30
0.0
 40
0.2775
100
AcDbArc
 50
0.0000000000000318
 51
20.00000000000013
  0
ARC
  5
2A4
330
2
100
AcDbEntity
  8
0
100
AcDbCircle
 10
-8.605557977854641
 20
0.2960000000000017
 30
0.0
 40
0.09375
100
AcDbArc
 50
180.0
 51
0.0000000000000318
  0
ARC
  5
2A5
330
2
100
AcDbEntity
  8
0
  6
HIDDEN
100
AcDbCircle
 10
-8.605557977854641
 20
0.2960000000000017
 30
0.0
 40
0.04695
100
AcDbArc
 50
180.0
 51
0.0000000000000318
  0
ARC
  5
2A6
330
2
100
AcDbEntity
  8
0
100
AcDbCircle
 10
-8.980557977854641
 20
0.2959999999999982
 30
0.0
 40
0.09375
100
AcDbArc
 50
179.9999999999979
 51
0.0000000000000318
  0
LINE
  5
2A7
330
2
100
AcDbEntity
  8
0
  6
HIDDEN
100
AcDbLine
 10
-8.933607977854642
 20
0.2960000000000017
 30
0.0
 11
-8.933607977854642
 21
0.9262887173573221
 31
0.0
  0
LINE
  5
2A8
330
2
100
AcDbEntity
  8
0
  6
HIDDEN
100
AcDbLine
 10
-9.02750797785464
 20
0.2960000000000017
 30
0.0
 11
-9.02750797785464
 21
0.9262887173573079
 31
0.0
  0
LINE
  5
2A9
330
2
100
AcDbEntity
  8
0
100
AcDbLine
 10
-8.886807977854641
 20
0.2960000000000017
 30
0.0
 11
-8.886807977854641
 21
0.9262887173573221
 31
0.0
  0
LINE
  5
2AA
330
2
100
AcDbEntity
  8
0
100
AcDbLine
 10
-9.074307977854641
 20
0.2960000000000017
 30
0.0
 11
-9.074307977854641
 21
0.9262887173573079
 31
0.0
  0
ARC
  5
2AB
330
2
100
AcDbEntity
  8
0
  6
HIDDEN
100
AcDbCircle
 10
-8.980557977854641
 20
0.2959999999999982
 30
0.0
 40
0.04695
100
AcDbArc
 50
179.9999999999979
 51
0.0000000000000318
  0
ARC
  5
2AC
330
2
100
AcDbEntity
  8
0
100
AcDbCircle
 10
-9.164307977854637
 20
0.9262887173573079
 30
0.0
 40
0.09
100
AcDbArc
 50
359.9999999999999
 51
19.99999999999999
  0
ARC
  5
2B1
330
2
100
AcDbEntity
  8
0
100
AcDbCircle
 10
-9.280448156422896
 20
2.879056944056152
 30
0.0
 40
0.09375
100
AcDbArc
 50
19.99999999999999
 51
200.0
  0
ARC
  5
2B2
330
2
100
AcDbEntity
  8
0
  6
HIDDEN
100
AcDbCircle
 10
-9.280448156422896
 20
2.879056944056152
 30
0.0
 40
0.04695
100
AcDbArc
 50
19.99999999999999
 51
200.0
  0
LINE
  5
2B3
330
2
100
AcDbEntity
  8
0
  6
HIDDEN
100
AcDbLine
 10
-9.035758027331124
 20
0.9730770729642592
 30
0.0
 11
-9.676951457763511
 21
2.734741544579888
 31
0.0
  0
LINE
  5
2B4
330
2
100
AcDbEntity
  8
0
  6
HIDDEN
100
AcDbLine
 10
-8.947520890239336
 20
1.005192764422553
 30
0.0
 11
-9.588714320671716
 21
2.766857236038168
 31
0.0
  0
LINE
  5
2B5
330
2
100
AcDbEntity
  8
0
100
AcDbLine
 10
-8.903543275586554
 20
1.021199307130195
 30
0.0
 11
-9.544736706018934
 21
2.782863778745809
 31
0.0
  0
LINE
  5
2B6
330
2
100
AcDbEntity
  8
0
  6
HIDDEN
100
AcDbLine
 10
-8.660758027331131
 20
1.039199690729934
 30
0.0
 11
-9.324566724968793
 21
2.862999098327014
 31
0.0
  0
LINE
  5
2B7
330
2
100
AcDbEntity
  8
0
100
AcDbLine
 10
-8.704735641983913
 20
1.023193148022293
 30
0.0
 11
-9.368544339621575
 21
2.846992555619372
 31
0.0
  0
LINE
  5
2B9
330
2
100
AcDbEntity
  8
0
  6
HIDDEN
100
AcDbLine
 10
-8.569505521278625
 20
1.063030724057363
 30
0.0
 11
-9.236329587877005
 21
2.895114789785294
 31
0.0
  0
LINE
  5
2BA
330
2
100
AcDbEntity
  8
0
100
AcDbLine
 10
-8.525527906625843
 20
1.079037266765005
 30
0.0
 11
-9.192351973224223
 21
2.911121332492935
 31
0.0
  0
ARC
  5
2BC
330
2
100
AcDbEntity
  8
0
100
AcDbCircle
 10
-8.73930797785464
 20
1.001227684158414
 30
0.0
 40
0.2275
100
AcDbArc
 50
359.9999999999997
 51
20.00000000000013
  0
ARC
  5
2BD
330
2
100
AcDbEntity
  8
0
  6
HIDDEN
100
AcDbCircle
 10
-8.789307977854644
 20
0.992411335122983
 30
0.0
 40
0.1368
100
AcDbArc
 50
0.0000000000000318
 51
19.99999999999999
  0
ARC
  5
2BE
330
2
100
AcDbEntity
  8
0
100
AcDbCircle
 10
-8.789307977854644
 20
0.992411335122983
 30
0.0
 40
0.09
100
AcDbArc
 50
0.0000000000000318
 51
19.99999999999999
  0
ARC
  5
2BF
330
2
100
AcDbEntity
  8
0
  6
HIDDEN
100
AcDbCircle
 10
-8.73930797785464
 20
1.001227684158414
 30
0.0
 40
0.1807
100
AcDbArc
 50
359.9999999999997
 51
20.00000000000013
  0
ARC
  5
2C3
330
2
100
AcDbEntity
  8
0
100
AcDbCircle
 10
-9.632832889217614
 20
2.750799390309026
 30
0.0
 40
0.09375
100
AcDbArc
 50
19.99999999999999
 51
200.0
  0
ARC
  5
2C4
330
2
100
AcDbEntity
  8
0
  6
HIDDEN
100
AcDbCircle
 10
-9.632832889217614
 20
2.750799390309026
 30
0.0
 40
0.04695
100
AcDbArc
 50
19.99999999999999
 51
200.0
  0
LINE
  5
2C8
330
2
100
AcDbEntity
  8
0
  6
HIDDEN
100
AcDbLine
 10
7.556341591119505
 20
0.0459999999999982
 30
0.0
 11
9.427599515035318
 21
0.0459999999999982
 31
0.0
  0
LINE
  5
2D4
330
2
100
AcDbEntity
  8
0
  6
HIDDEN
100
AcDbLine
 10
8.261744024072957
 20
0.2960000000000017
 30
0.0
 11
8.261744024072957
 21
1.001227684158414
 31
0.0
  0
LINE
  5
2D5
330
2
100
AcDbEntity
  8
0
  6
HIDDEN
100
AcDbLine
 10
8.355644024072955
 20
0.2960000000000017
 30
0.0
 11
8.355644024072955
 21
0.992411335122983
 31
0.0
  0
LINE
  5
2D6
330
2
100
AcDbEntity
  8
0
100
AcDbLine
 10
8.402444024072956
 20
0.2960000000000017
 30
0.0
 11
8.402444024072956
 21
0.992411335122983
 31
0.0
  0
LINE
  5
2D7
330
2
100
AcDbEntity
  8
0
100
AcDbLine
 10
8.214944024072956
 20
0.2960000000000017
 30
0.0
 11
8.214944024072956
 21
1.001227684158414
 31
0.0
  0
LINE
  5
2D9
330
2
100
AcDbEntity
  8
0
100
AcDbLine
 10
8.782871688202221
 20
0.9570705302566177
 30
0.0
 11
9.424065118634609
 21
2.718735001872246
 31
0.0
  0
ARC
  5
2DA
330
2
100
AcDbEntity
  8
0
  6
HIDDEN
100
AcDbCircle
 10
8.867444024072952
 20
0.9262887173573079
 30
0.0
 40
0.1368
100
AcDbArc
 50
160.0
 51
180.0000000000001
  0
ARC
  5
2DB
330
2
100
AcDbEntity
  8
0
  6
HIDDEN
100
AcDbCircle
 10
8.86744402407296
 20
0.9262887173573221
 30
0.0
 40
0.2307
100
AcDbArc
 50
159.9999999999999
 51
180.0
  0
ARC
  5
2DC
330
2
100
AcDbEntity
  8
0
100
AcDbCircle
 10
8.86744402407296
 20
0.9262887173573221
 30
0.0
 40
0.2775
100
AcDbArc
 50
159.9999999999999
 51
180.0
  0
ARC
  5
2DD
330
2
100
AcDbEntity
  8
0
100
AcDbCircle
 10
8.308694024072956
 20
0.2960000000000017
 30
0.0
 40
0.09375
100
AcDbArc
 50
180.0
 51
0.000000000000007
  0
ARC
  5
2DE
330
2
100
AcDbEntity
  8
0
  6
HIDDEN
100
AcDbCircle
 10
8.308694024072956
 20
0.2960000000000017
 30
0.0
 40
0.04695
100
AcDbArc
 50
180.0
 51
0.000000000000007
  0
ARC
  5
2DF
330
2
100
AcDbEntity
  8
0
100
AcDbCircle
 10
8.683694024072956
 20
0.2959999999999982
 30
0.0
 40
0.09375
100
AcDbArc
 50
180.0
 51
0.0000000000021189
  0
LINE
  5
2E0
330
2
100
AcDbEntity
  8
0
  6
HIDDEN
100
AcDbLine
 10
8.636744024072957
 20
0.2960000000000017
 30
0.0
 11
8.636744024072957
 21
0.9262887173573221
 31
0.0
  0
LINE
  5
2E1
330
2
100
AcDbEntity
  8
0
  6
HIDDEN
100
AcDbLine
 10
8.730644024072955
 20
0.2960000000000017
 30
0.0
 11
8.730644024072955
 21
0.9262887173573079
 31
0.0
  0
LINE
  5
2E2
330
2
100
AcDbEntity
  8
0
100
AcDbLine
 10
8.589944024072956
 20
0.2960000000000017
 30
0.0
 11
8.589944024072956
 21
0.9262887173573221
 31
0.0
  0
LINE
  5
2E3
330
2
100
AcDbEntity
  8
0
100
AcDbLine
 10
8.777444024072956
 20
0.2960000000000017
 30
0.0
 11
8.777444024072956
 21
0.9262887173573079
 31
0.0
  0
ARC
  5
2E4
330
2
100
AcDbEntity
  8
0
  6
HIDDEN
100
AcDbCircle
 10
8.683694024072956
 20
0.2959999999999982
 30
0.0
 40
0.04695
100
AcDbArc
 50
180.0
 51
0.0000000000021189
  0
ARC
  5
2E5
330
2
100
AcDbEntity
  8
0
100
AcDbCircle
 10
8.867444024072952
 20
0.9262887173573079
 30
0.0
 40
0.09
100
AcDbArc
 50
160.0
 51
180.0000000000001
  0
ARC
  5
2EA
330
2
100
AcDbEntity
  8
0
100
AcDbCircle
 10
8.983584202641211
 20
2.879056944056152
 30
0.0
 40
0.09375
100
AcDbArc
 50
339.9999999999999
 51
160.0
  0
ARC
  5
2EB
330
2
100
AcDbEntity
  8
0
  6
HIDDEN
100
AcDbCircle
 10
8.983584202641211
 20
2.879056944056152
 30
0.0
 40
0.04695
100
AcDbArc
 50
339.9999999999999
 51
160.0
  0
LINE
  5
2EC
330
2
100
AcDbEntity
  8
0
  6
HIDDEN
100
AcDbLine
 10
8.738894073549439
 20
0.9730770729642592
 30
0.0
 11
9.380087503981827
 21
2.734741544579888
 31
0.0
  0
LINE
  5
2ED
330
2
100
AcDbEntity
  8
0
  6
HIDDEN
100
AcDbLine
 10
8.650656936457651
 20
1.005192764422553
 30
0.0
 11
9.291850366890031
 21
2.766857236038168
 31
0.0
  0
LINE
  5
2EE
330
2
100
AcDbEntity
  8
0
100
AcDbLine
 10
8.606679321804869
 20
1.021199307130195
 30
0.0
 11
9.24787275223725
 21
2.782863778745809
 31
0.0
  0
LINE
  5
2EF
330
2
100
AcDbEntity
  8
0
  6
HIDDEN
100
AcDbLine
 10
8.363894073549446
 20
1.039199690729934
 30
0.0
 11
9.027702771187109
 21
2.862999098327014
 31
0.0
  0
LINE
  5
2F0
330
2
100
AcDbEntity
  8
0
100
AcDbLine
 10
8.407871688202228
 20
1.023193148022293
 30
0.0
 11
9.07168038583989
 21
2.846992555619372
 31
0.0
  0
LINE
  5
2F2
330
2
100
AcDbEntity
  8
0
  6
HIDDEN
100
AcDbLine
 10
8.27264156749694
 20
1.063030724057363
 30
0.0
 11
8.939465634095321
 21
2.895114789785294
 31
0.0
  0
LINE
  5
2F3
330
2
100
AcDbEntity
  8
0
100
AcDbLine
 10
8.228663952844158
 20
1.079037266765005
 30
0.0
 11
8.895488019442539
 21
2.911121332492935
 31
0.0
  0
ARC
  5
2F5
330
2
100
AcDbEntity
  8
0
100
AcDbCircle
 10
8.442444024072955
 20
1.001227684158414
 30
0.0
 40
0.2275
100
AcDbArc
 50
159.9999999999999
 51
180.0000000000003
  0
ARC
  5
2F6
330
2
100
AcDbEntity
  8
0
  6
HIDDEN
100
AcDbCircle
 10
8.49244402407296
 20
0.992411335122983
 30
0.0
 40
0.1368
100
AcDbArc
 50
160.0
 51
180.0
  0
ARC
  5
2F7
330
2
100
AcDbEntity
  8
0
100
AcDbCircle
 10
8.49244402407296
 20
0.992411335122983
 30
0.0
 40
0.09
100
AcDbArc
 50
160.0
 51
180.0
  0
ARC
  5
2F8
330
2
100
AcDbEntity
  8
0
  6
HIDDEN
100
AcDbCircle
 10
8.442444024072955
 20
1.001227684158414
 30
0.0
 40
0.1807
100
AcDbArc
 50
159.9999999999999
 51
180.0000000000003
  0
ARC
  5
2FC
330
2
100
AcDbEntity
  8
0
100
AcDbCircle
 10
9.335968935435929
 20
2.750799390309026
 30
0.0
 40
0.09375
100
AcDbArc
 50
339.9999999999999
 51
160.0
  0
ARC
  5
2FD
330
2
100
AcDbEntity
  8
0
  6
HIDDEN
100
AcDbCircle
 10
9.335968935435929
 20
2.750799390309026
 30
0.0
 40
0.04695
100
AcDbArc
 50
339.9999999999999
 51
160.0
  0
ENDSEC
  0
SECTION
  2
OBJECTS
  0
DICTIONARY
  5
7
330
0
100
AcDbDictionary
281
     1
  3
ACAD_COLOR
350
20A
  3
ACAD_GROUP
350
1F
  3
ACAD_LAYOUT
350
B
  3
ACAD_MATERIAL
350
209
  3
ACAD_MLINESTYLE
350
20
  3
ACAD_PLOTSETTINGS
350
21
  3
ACAD_PLOTSTYLENAME
350
6
  3
ACAD_TABLESTYLE
350
20B
  3
ACDBHEADERROUNDTRIPXREC
350
319
  3
AcDbVariableDictionary
350
100
  0
DICTIONARY
  5
20A
102
{ACAD_REACTORS
330
7
102
}
330
7
100
AcDbDictionary
281
     1
  0
DICTIONARY
  5
1F
102
{ACAD_REACTORS
330
7
102
}
330
7
100
AcDbDictionary
281
     1
  0
DICTIONARY
  5
B
102
{ACAD_REACTORS
330
7
102
}
330
7
100
AcDbDictionary
281
     1
  3
Layout1
350
F
  3
Model
350
A
  0
DICTIONARY
  5
209
102
{ACAD_REACTORS
330
7
102
}
330
7
100
AcDbDictionary
281
     1
  0
DICTIONARY
  5
20
102
{ACAD_REACTORS
330
7
102
}
330
7
100
AcDbDictionary
281
     1
  3
STANDARD
350
23
  0
DICTIONARY
  5
21
102
{ACAD_REACTORS
330
7
102
}
330
7
100
AcDbDictionary
281
     1
  0
ACDBDICTIONARYWDFLT
  5
6
102
{ACAD_REACTORS
330
7
102
}
330
7
100
AcDbDictionary
281
     1
  3
Normal
350
5
100
AcDbDictionaryWithDefault
340
5
  0
DICTIONARY
  5
20B
102
{ACAD_REACTORS
330
7
102
}
330
7
100
AcDbDictionary
281
     1
  3
Standard
350
20C
  0
DICTIONARY
  5
319
102
{ACAD_REACTORS
330
7
102
}
330
7
100
AcDbDictionary
281
     1
  3
COLORDICT
350
31A
  3
MATERIALDICT
350
31B
  0
DICTIONARY
  5
100
102
{ACAD_REACTORS
330
7
102
}
330
7
100
AcDbDictionary
281
     1
  3
CTABLESTYLE
350
316
  3
HIDETEXT
350
318
  0
LAYOUT
  5
F
102
{ACAD_REACTORS
330
B
102
}
102
{ACAD_XDICTIONARY
360
31C
102
}
330
B
100
AcDbPlotSettings
  1

  2
X:\Program Files\AutoCAD2002\plotters\DWF ePlot (optimized for plotting).pc3
  4

  6

 40
0.0
 41
0.0
 42
0.0
 43
0.0
 44
0.0
 45
0.0
 46
0.0
 47
0.0
 48
0.0
 49
0.0
140
0.0
141
0.0
142
1.0
143
1.0
 70
   688
 72
     0
 73
     0
 74
     5
  7

 75
    16
147
1.0
148
0.0
149
0.0
100
AcDbLayout
  1
Layout1
 70
     0
 71
     1
 10
0.0
 20
0.0
 11
12.0
 21
9.0
 12
0.0
 22
0.0
 32
0.0
 14
1.000000000000000E+20
 24
1.000000000000000E+20
 34
1.000000000000000E+20
 15
-1.000000000000000E+20
 25
-1.000000000000000E+20
 35
-1.000000000000000E+20
146
0.0
 13
0.0
 23
0.0
 33
0.0
 16
1.0
 26
0.0
 36
0.0
 17
0.0
 27
1.0
 37
0.0
 76
     0
330
C
  0
LAYOUT
  5
A
102
{ACAD_REACTORS
330
B
102
}
102
{ACAD_XDICTIONARY
360
31E
102
}
330
B
100
AcDbPlotSettings
  1

  2
X:\Program Files\AutoCAD2002\plotters\DWF ePlot (optimized for plotting).pc3
  4

  6

 40
0.0
 41
0.0
 42
0.0
 43
0.0
 44
0.0
 45
0.0
 46
0.0
 47
0.0
 48
0.0
 49
0.0
140
0.0
141
0.0
142
1.0
143
1.0
 70
  1712
 72
     0
 73
     0
 74
     0
  7

 75
     0
147
1.0
148
0.0
149
0.0
100
AcDbLayout
  1
Model
 70
     1
 71
     0
 10
0.0
 20
0.0
 11
12.0
 21
9.0
 12
0.0
 22
0.0
 32
0.0
 14
0.0
 24
0.0
 34
0.0
 15
0.0
 25
0.0
 35
0.0
146
0.0
 13
0.0
 23
0.0
 33
0.0
 16
1.0
 26
0.0
 36
0.0
 17
0.0
 27
1.0
 37
0.0
 76
     0
330
2
  0
MLINESTYLE
  5
23
102
{ACAD_REACTORS
330
20
102
}
330
20
100
AcDbMlineStyle
  2
STANDARD
 70
     0
  3

 62
   256
 51
90.0
 52
90.0
 71
     2
 49
0.5
 62
   256
  6
BYLAYER
 49
-0.5
 62
   256
  6
BYLAYER
  0
ACDBPLACEHOLDER
  5
5
102
{ACAD_REACTORS
330
6
102
}
330
6
  0
ACAD_PROXY_OBJECT
  5
20C
102
{ACAD_REACTORS
330
20B
102
}
330
20B
100
AcDbProxyObject
 90
      499
 91
      505
 95
   983063
 70
     0
 93
     1841
310
4214DD185B99185C9928B81E85EB51B8AE3F2E07A17AD46E2B8FC02B5E8DC0F42B1CFD028000000C1008070000C3001FDFF8000000C1003FBFF000000182007F7FE00000030400FEFFC00000060801FDFF8000000C1003FBFF00000018200000000000000681FA0B0000001820100E000186003FBFF000000182007F7FE000
310
00030400FEFFC00000060801FDFF8000000C1003FBFF000000182007F7FE000000304000AD7A3703D0AC73F4160000003040201C00030C007F7FE00000030400FEFFC00000060801FDFF8000000C1003FBFF000000182007F7FE00000030400FEFFC000000608000
340
12
340
12
340
12
 94
        0
  0
XRECORD
  5
31A
102
{ACAD_REACTORS
330
319
102
}
330
319
100
AcDbXrecord
340
20A
  0
XRECORD
  5
31B
102
{ACAD_REACTORS
330
319
102
}
330
319
100
AcDbXrecord
340
209
  0
DICTIONARYVAR
  5
316
102
{ACAD_REACTORS
330
100
102
}
330
100
100
DictionaryVariables
280
     0
  1
STANDARD
  0
DICTIONARYVAR
  5
318
102
{ACAD_REACTORS
330
100
102
}
330
100
100
DictionaryVariables
280
     0
  1
1
  0
DICTIONARY
  5
31C
330
F
100
AcDbDictionary
280
     1
281
     1
  3
ACAD_XREC_ROUNDTRIP
360
31D
  0
DICTIONARY
  5
31E
330
A
100
AcDbDictionary
280
     1
281
     1
  3
ACAD_XREC_ROUNDTRIP
360
31F
  0
XRECORD
  5
31D
102
{ACAD_REACTORS
330
31C
102
}
330
31C
100
AcDbXrecord
102
SHADEPLOT
 70
     0
102
SHADEPLOTRESLEVEL
 70
     2
102
SHADEPLOTCUSTOMDPI
 70
   300
  0
XRECORD
  5
31F
102
{ACAD_REACTORS
330
31E
102
}
330
31E
100
AcDbXrecord
102
SHADEPLOT
 70
     0
102
SHADEPLOTRESLEVEL
 70
     2
102
SHADEPLOTCUSTOMDPI
 70
   300
  0
ENDSEC
  0
EOF
