  0
SECTION
  2
HEADER
  9
$ACADVER
  1
AC1015
  9
$ACADMAINTVER
 70
     6
  9
$DWGCODEPAGE
  3
ANSI_1252
  9
$INSBASE
 10
0.0
 20
0.0
 30
0.0
  9
$EXTMIN
 10
-11.50896273831999
 20
-0.0258883476483184
 30
0.0
  9
$EXTMAX
 10
11.50896273831999
 20
15.69525044398084
 30
0.0
  9
$LIMMIN
 10
0.0
 20
0.0
  9
$LIMMAX
 10
31.5
 20
24.0
  9
$ORTHOMODE
 70
     1
  9
$REGENMODE
 70
     1
  9
$FILLMODE
 70
     1
  9
$QTEXTMODE
 70
     0
  9
$MIRRTEXT
 70
     0
  9
$LTSCALE
 40
0.5
  9
$ATTMODE
 70
     1
  9
$TEXTSIZE
 40
0.27
  9
$TRACEWID
 40
0.05
  9
$TEXTSTYLE
  7
STANDARD
  9
$CLAYER
  8
0
  9
$CELTYPE
  6
HIDDEN
  9
$CECOLOR
 62
   256
  9
$CELTSCALE
 40
1.0
  9
$DISPSILH
 70
     0
  9
$DIMSCALE
 40
1.0
  9
$DIMASZ
 40
0.375
  9
$DIMEXO
 40
0.0625
  9
$DIMDLI
 40
0.75
  9
$DIMRND
 40
0.0
  9
$DIMDLE
 40
0.0
  9
$DIMEXE
 40
0.18
  9
$DIMTP
 40
0.0
  9
$DIMTM
 40
0.0
  9
$DIMTXT
 40
0.27
  9
$DIMCEN
 40
-0.06
  9
$DIMTSZ
 40
0.0
  9
$DIMTOL
 70
     0
  9
$DIMLIM
 70
     0
  9
$DIMTIH
 70
     1
  9
$DIMTOH
 70
     1
  9
$DIMSE1
 70
     0
  9
$DIMSE2
 70
     0
  9
$DIMTAD
 70
     0
  9
$DIMZIN
 70
     0
  9
$DIMBLK
  1

  9
$DIMASO
 70
     0
  9
$DIMSHO
 70
     0
  9
$DIMPOST
  1

  9
$DIMAPOST
  1

  9
$DIMALT
 70
     0
  9
$DIMALTD
 70
     2
  9
$DIMALTF
 40
25.4
  9
$DIMLFAC
 40
1.0
  9
$DIMTOFL
 70
     0
  9
$DIMTVP
 40
0.0
  9
$DIMTIX
 70
     0
  9
$DIMSOXD
 70
     0
  9
$DIMSAH
 70
     0
  9
$DIMBLK1
  1

  9
$DIMBLK2
  1

  9
$DIMSTYLE
  2
Standard
  9
$DIMCLRD
 70
     0
  9
$DIMCLRE
 70
     0
  9
$DIMCLRT
 70
     0
  9
$DIMTFAC
 40
1.0
  9
$DIMGAP
 40
0.09
  9
$DIMJUST
 70
     0
  9
$DIMSD1
 70
     0
  9
$DIMSD2
 70
     0
  9
$DIMTOLJ
 70
     1
  9
$DIMTZIN
 70
     0
  9
$DIMALTZ
 70
     0
  9
$DIMALTTZ
 70
     0
  9
$DIMUPT
 70
     0
  9
$DIMDEC
 70
     3
  9
$DIMTDEC
 70
     3
  9
$DIMALTU
 70
     2
  9
$DIMALTTD
 70
     2
  9
$DIMTXSTY
  7
STANDARD
  9
$DIMAUNIT
 70
     0
  9
$DIMADEC
 70
     0
  9
$DIMALTRND
 40
0.0
  9
$DIMAZIN
 70
     0
  9
$DIMDSEP
 70
    46
  9
$DIMATFIT
 70
     3
  9
$DIMFRAC
 70
     0
  9
$DIMLDRBLK
  1

  9
$DIMLUNIT
 70
     2
  9
$DIMLWD
 70
    -2
  9
$DIMLWE
 70
    -2
  9
$DIMTMOVE
 70
     2
  9
$LUNITS
 70
     2
  9
$LUPREC
 70
     3
  9
$SKETCHINC
 40
0.1
  9
$FILLETRAD
 40
0.0
  9
$AUNITS
 70
     0
  9
$AUPREC
 70
     0
  9
$MENU
  1
ACAD
  9
$ELEVATION
 40
0.0
  9
$PELEVATION
 40
0.0
  9
$THICKNESS
 40
0.0
  9
$LIMCHECK
 70
     0
  9
$CHAMFERA
 40
0.0
  9
$CHAMFERB
 40
0.0
  9
$CHAMFERC
 40
0.0
  9
$CHAMFERD
 40
0.0
  9
$SKPOLY
 70
     0
  9
$TDCREATE
 40
2449212.742961342
  9
$TDUCREATE
 40
2449213.076294676
  9
$TDUPDATE
 40
2454160.606528299
  9
$TDUUPDATE
 40
2454160.939861632
  9
$TDINDWG
 40
0.0436455324
  9
$TDUSRTIMER
 40
0.0436455324
  9
$USRTIMER
 70
     1
  9
$ANGBASE
 50
0.0
  9
$ANGDIR
 70
     0
  9
$PDMODE
 70
     0
  9
$PDSIZE
 40
0.0
  9
$PLINEWID
 40
0.0
  9
$SPLFRAME
 70
     0
  9
$SPLINETYPE
 70
     6
  9
$SPLINESEGS
 70
     8
  9
$HANDSEED
  5
2A4
  9
$SURFTAB1
 70
     6
  9
$SURFTAB2
 70
     6
  9
$SURFTYPE
 70
     6
  9
$SURFU
 70
     6
  9
$SURFV
 70
     6
  9
$UCSBASE
  2

  9
$UCSNAME
  2

  9
$UCSORG
 10
0.0
 20
0.0
 30
0.0
  9
$UCSXDIR
 10
1.0
 20
0.0
 30
0.0
  9
$UCSYDIR
 10
0.0
 20
1.0
 30
0.0
  9
$UCSORTHOREF
  2

  9
$UCSORTHOVIEW
 70
     0
  9
$UCSORGTOP
 10
0.0
 20
0.0
 30
0.0
  9
$UCSORGBOTTOM
 10
0.0
 20
0.0
 30
0.0
  9
$UCSORGLEFT
 10
0.0
 20
0.0
 30
0.0
  9
$UCSORGRIGHT
 10
0.0
 20
0.0
 30
0.0
  9
$UCSORGFRONT
 10
0.0
 20
0.0
 30
0.0
  9
$UCSORGBACK
 10
0.0
 20
0.0
 30
0.0
  9
$PUCSBASE
  2

  9
$PUCSNAME
  2

  9
$PUCSORG
 10
0.0
 20
0.0
 30
0.0
  9
$PUCSXDIR
 10
1.0
 20
0.0
 30
0.0
  9
$PUCSYDIR
 10
0.0
 20
1.0
 30
0.0
  9
$PUCSORTHOREF
  2

  9
$PUCSORTHOVIEW
 70
     0
  9
$PUCSORGTOP
 10
0.0
 20
0.0
 30
0.0
  9
$PUCSORGBOTTOM
 10
0.0
 20
0.0
 30
0.0
  9
$PUCSORGLEFT
 10
0.0
 20
0.0
 30
0.0
  9
$PUCSORGRIGHT
 10
0.0
 20
0.0
 30
0.0
  9
$PUCSORGFRONT
 10
0.0
 20
0.0
 30
0.0
  9
$PUCSORGBACK
 10
0.0
 20
0.0
 30
0.0
  9
$USERI1
 70
     0
  9
$USERI2
 70
     0
  9
$USERI3
 70
     0
  9
$USERI4
 70
     0
  9
$USERI5
 70
     0
  9
$USERR1
 40
0.0
  9
$USERR2
 40
0.0
  9
$USERR3
 40
0.0
  9
$USERR4
 40
0.0
  9
$USERR5
 40
0.0
  9
$WORLDVIEW
 70
     1
  9
$SHADEDGE
 70
     3
  9
$SHADEDIF
 70
    70
  9
$TILEMODE
 70
     1
  9
$MAXACTVP
 70
    16
  9
$PINSBASE
 10
0.0
 20
0.0
 30
0.0
  9
$PLIMCHECK
 70
     0
  9
$PEXTMIN
 10
1.000000000000000E+20
 20
1.000000000000000E+20
 30
1.000000000000000E+20
  9
$PEXTMAX
 10
-1.000000000000000E+20
 20
-1.000000000000000E+20
 30
-1.000000000000000E+20
  9
$PLIMMIN
 10
0.0
 20
0.0
  9
$PLIMMAX
 10
12.0
 20
9.0
  9
$UNITMODE
 70
     0
  9
$VISRETAIN
 70
     0
  9
$PLINEGEN
 70
     1
  9
$PSLTSCALE
 70
     0
  9
$TREEDEPTH
 70
  3020
  9
$CMLSTYLE
  2
Standard
  9
$CMLJUST
 70
     0
  9
$CMLSCALE
 40
1.0
  9
$PROXYGRAPHICS
 70
     1
  9
$MEASUREMENT
 70
     0
  9
$CELWEIGHT
370
    -1
  9
$ENDCAPS
280
     0
  9
$JOINSTYLE
280
     0
  9
$LWDISPLAY
290
     0
  9
$INSUNITS
 70
     0
  9
$HYPERLINKBASE
  1

  9
$STYLESHEET
  1

  9
$XEDIT
290
     1
  9
$CEPSNTYPE
380
     0
  9
$PSTYLEMODE
290
     1
  9
$FINGERPRINTGUID
  2
{2E6BCAE1-1C66-4ADD-BAF8-F420AB2DA8F1}
  9
$VERSIONGUID
  2
{42807DE6-11D8-4A4E-B5AF-EAC259F6E863}
  9
$EXTNAMES
290
     1
  9
$PSVPSCALE
 40
0.0
  9
$OLESTARTUP
290
     0
  0
ENDSEC
  0
SECTION
  2
CLASSES
  0
CLASS
  1
ACDBDICTIONARYWDFLT
  2
AcDbDictionaryWithDefault
  3
AutoCAD 2000
 90
        0
280
     0
281
     0
  0
CLASS
  1
ACDBPLACEHOLDER
  2
AcDbPlaceHolder
  3
ObjectDBX Classes
 90
        0
280
     0
281
     0
  0
CLASS
  1
LAYOUT
  2
AcDbLayout
  3
ObjectDBX Classes
 90
        0
280
     0
281
     0
  0
CLASS
  1
DICTIONARYVAR
  2
AcDbDictionaryVar
  3
AutoCAD 2000
 90
        0
280
     0
281
     0
  0
CLASS
  1
TABLESTYLE
  2
AcDbTableStyle
  3
ObjectDBX Classes
 90
     2047
280
     1
281
     0
  0
CLASS
  1
SORTENTSTABLE
  2
AcDbSortentsTable
  3
AutoCAD 2000
 90
        0
280
     0
281
     0
  0
ENDSEC
  0
SECTION
  2
TABLES
  0
TABLE
  2
VPORT
  5
19
330
0
100
AcDbSymbolTable
 70
     2
  0
VPORT
  5
297
330
19
100
AcDbSymbolTableRecord
100
AcDbViewportTableRecord
  2
*Active
 70
     0
 10
0.0
 20
0.0
 11
1.0
 21
1.0
 12
9.994201350563884
 22
13.73206103788448
 13
0.0
 23
0.0
 14
0.0625
 24
0.0625
 15
0.5
 25
0.5
 16
0.0
 26
0.0
 36
1.0
 17
0.0
 27
0.0
 37
0.0
 40
27.99983381285849
 41
1.550128534704371
 42
50.0
 43
0.0
 44
0.0
 50
0.0
 51
0.0
 71
     0
 72
   100
 73
     1
 74
     1
 75
     0
 76
     0
 77
     0
 78
     0
281
     0
 65
     1
110
0.0
120
0.0
130
0.0
111
1.0
121
0.0
131
0.0
112
0.0
122
1.0
132
0.0
 79
     0
146
0.0
  0
ENDTAB
  0
TABLE
  2
LTYPE
  5
14
330
0
100
AcDbSymbolTable
 70
     2
  0
LTYPE
  5
15
330
14
100
AcDbSymbolTableRecord
100
AcDbLinetypeTableRecord
  2
ByBlock
 70
     0
  3

 72
    65
 73
     0
 40
0.0
  0
LTYPE
  5
16
330
14
100
AcDbSymbolTableRecord
100
AcDbLinetypeTableRecord
  2
ByLayer
 70
     0
  3

 72
    65
 73
     0
 40
0.0
  0
LTYPE
  5
8
330
14
100
AcDbSymbolTableRecord
100
AcDbLinetypeTableRecord
  2
CONTINUOUS
 70
     0
  3
Solid line
 72
    65
 73
     0
 40
0.0
  0
LTYPE
  5
212
330
14
100
AcDbSymbolTableRecord
100
AcDbLinetypeTableRecord
  2
HIDDEN
 70
     0
  3
Hidden __ __ __ __ __ __ __ __ __ __ __ __ __ _
 72
    65
 73
     2
 40
0.375
 49
0.25
 74
     0
 49
-0.125
 74
     0
  0
ENDTAB
  0
TABLE
  2
LAYER
  5
10
330
0
100
AcDbSymbolTable
 70
     2
  0
LAYER
  5
4
330
10
100
AcDbSymbolTableRecord
100
AcDbLayerTableRecord
  2
0
 70
     0
 62
     7
  6
CONTINUOUS
370
    -3
390
5
  0
ENDTAB
  0
TABLE
  2
STYLE
  5
11
330
0
100
AcDbSymbolTable
 70
     2
  0
STYLE
  5
12
330
11
100
AcDbSymbolTableRecord
100
AcDbTextStyleTableRecord
  2
STANDARD
 70
     0
 40
0.0
 41
1.0
 50
0.0
 71
     0
 42
0.27
  3
TXT
  4

  0
ENDTAB
  0
TABLE
  2
VIEW
  5
17
330
0
100
AcDbSymbolTable
 70
     0
  0
ENDTAB
  0
TABLE
  2
UCS
  5
18
330
0
100
AcDbSymbolTable
 70
     0
  0
ENDTAB
  0
TABLE
  2
APPID
  5
1B
330
0
100
AcDbSymbolTable
 70
     1
  0
APPID
  5
1C
330
1B
100
AcDbSymbolTableRecord
100
AcDbRegAppTableRecord
  2
ACAD
 70
     0
  0
ENDTAB
  0
TABLE
  2
DIMSTYLE
  5
1D
330
0
100
AcDbSymbolTable
 70
     1
100
AcDbDimStyleTable
  0
DIMSTYLE
105
24
330
1D
100
AcDbSymbolTableRecord
100
AcDbDimStyleTableRecord
  2
Standard
 70
     0
  3

  4

340
12
  0
ENDTAB
  0
TABLE
  2
BLOCK_RECORD
  5
1
330
0
100
AcDbSymbolTable
 70
     0
  0
BLOCK_RECORD
  5
2
102
{ACAD_XDICTIONARY
360
119
102
}
330
1
100
AcDbSymbolTableRecord
100
AcDbBlockTableRecord
  2
*Model_Space
340
A
  0
BLOCK_RECORD
  5
C
330
1
100
AcDbSymbolTableRecord
100
AcDbBlockTableRecord
  2
*Paper_Space
340
F
  0
ENDTAB
  0
ENDSEC
  0
SECTION
  2
BLOCKS
  0
BLOCK
  5
3
330
2
100
AcDbEntity
  8
0
100
AcDbBlockBegin
  2
*Model_Space
 70
     0
 10
0.0
 20
0.0
 30
0.0
  3
*Model_Space
  1

  4

  0
ENDBLK
  5
9
330
2
100
AcDbEntity
  8
0
100
AcDbBlockEnd
  0
BLOCK
  5
D
330
C
100
AcDbEntity
 67
     1
  8
0
100
AcDbBlockBegin
  2
*Paper_Space
 70
     0
 10
0.0
 20
0.0
 30
0.0
  3
*Paper_Space
  1

  4

  0
ENDBLK
  5
E
330
C
100
AcDbEntity
 67
     1
  8
0
100
AcDbBlockEnd
  0
ENDSEC
  0
SECTION
  2
ENTITIES
  0
LINE
  5
11E
330
2
100
AcDbEntity
  8
0
100
AcDbLine
 10
8.946462738319994
 20
3.60829
 30
0.0
 11
8.946462738319994
 21
7.085620000000002
 31
0.0
  0
LINE
  5
11F
330
2
100
AcDbEntity
  8
0
100
AcDbLine
 10
10.00896273831999
 20
1.499999999999993
 30
0.0
 11
10.00896273831999
 21
9.238700000000002
 31
0.0
  0
LINE
  5
120
330
2
100
AcDbEntity
  8
0
100
AcDbLine
 10
9.946464529371861
 20
9.251427397611288
 30
0.0
 11
9.957333738319996
 21
1.375405288945402
 31
0.0
  0
LINE
  5
121
330
2
100
AcDbEntity
  8
0
100
AcDbLine
 10
8.946462738319994
 20
5.352339999999998
 30
0.0
 11
8.946462738319994
 21
7.946110000000001
 31
0.0
  0
ARC
  5
122
330
2
100
AcDbEntity
  8
0
100
AcDbCircle
 10
9.008962738319994
 20
3.302099999999999
 30
0.0
 40
0.3125
100
AcDbArc
 50
101.53696
 51
258.463
  0
LINE
  5
123
330
2
100
AcDbEntity
  8
0
100
AcDbLine
 10
8.457470738319998
 20
1.918710000000001
 30
0.0
 11
8.946462738319994
 21
2.75
 31
0.0
  0
LINE
  5
124
330
2
100
AcDbEntity
  8
0
  6
HIDDEN
100
AcDbLine
 10
9.696821738319994
 20
0.0519299999999987
 30
0.0
 11
7.696462738319994
 21
0.0519299999999987
 31
0.0
  0
LINE
  5
125
330
2
100
AcDbEntity
  8
0
100
AcDbLine
 10
7.696462738319994
 20
0.0
 30
0.0
 11
9.696462738319994
 21
0.0
 31
0.0
  0
LINE
  5
126
330
2
100
AcDbEntity
  8
0
100
AcDbLine
 10
8.054920738319996
 20
1.148499999999999
 30
0.0
 11
8.491804738319996
 21
1.894920000000003
 31
0.0
  0
LINE
  5
127
330
2
100
AcDbEntity
  8
0
100
AcDbLine
 10
7.696462738319994
 20
0.0
 30
0.0
 11
7.696462738319994
 21
0.6005600000000015
 31
0.0
  0
LINE
  5
128
330
2
100
AcDbEntity
  8
0
100
AcDbLine
 10
7.712396738319995
 20
0.6520900000000012
 30
0.0
 11
8.016827738319996
 21
1.169620000000002
 31
0.0
  0
ARC
  5
129
330
2
100
AcDbEntity
  8
0
100
AcDbCircle
 10
7.820182738319993
 20
0.5905299999999976
 30
0.0
 40
0.1241263
100
AcDbArc
 50
150.2688
 51
175.36401
  0
ARC
  5
12A
330
2
100
AcDbEntity
  8
0
100
AcDbCircle
 10
7.820182738319993
 20
0.5905299999999976
 30
0.0
 40
0.1241263
100
AcDbArc
 50
184.37005
 51
184.37005
  0
LINE
  5
12B
330
2
100
AcDbEntity
  8
0
100
AcDbLine
 10
8.016827738319996
 20
1.169620000000002
 30
0.0
 11
8.054920738319996
 21
1.148499999999999
 31
0.0
  0
LINE
  5
12C
330
2
100
AcDbEntity
  8
0
100
AcDbLine
 10
8.491804738319996
 20
1.894920000000003
 30
0.0
 11
8.457470738319998
 21
1.918710000000001
 31
0.0
  0
ARC
  5
12D
330
2
100
AcDbEntity
  8
0
100
AcDbCircle
 10
13.45271273832
 20
0.0
 30
0.0
 40
3.75625
100
AcDbArc
 50
156.46342
 51
180.0
  0
LINE
  5
12E
330
2
100
AcDbEntity
  8
0
100
AcDbLine
 10
8.946462738319994
 20
2.933410000000002
 30
0.0
 11
8.946462738319994
 21
2.814260000000001
 31
0.0
  0
LINE
  5
12F
330
2
100
AcDbEntity
  8
0
100
AcDbLine
 10
8.946462738319994
 20
2.75
 30
0.0
 11
8.946462738319994
 21
2.995910000000002
 31
0.0
  0
LINE
  5
132
330
2
100
AcDbEntity
  8
0
100
AcDbLine
 10
9.282516738319995
 20
3.933789999999998
 30
0.0
 11
9.396151738319993
 21
4.356660000000002
 31
0.0
  0
LINE
  5
13B
330
2
100
AcDbEntity
  8
0
  6
HIDDEN
100
AcDbLine
 10
-0.9059039999999996
 20
14.38275044398084
 30
0.0
 11
-2.959159999999999
 21
14.38275044398084
 31
0.0
  0
LINE
  5
13C
330
2
100
AcDbEntity
  8
0
100
AcDbLine
 10
-0.8950560000000003
 20
14.33119744398084
 30
0.0
 11
-2.959159999999999
 21
14.33119744398084
 31
0.0
  0
LINE
  5
13D
330
2
100
AcDbEntity
  8
0
100
AcDbLine
 10
-1.031008
 20
15.69525044398084
 30
0.0
 11
-2.959166
 21
15.69525044398084
 31
0.0
  0
LINE
  5
13E
330
2
100
AcDbEntity
  8
0
100
AcDbLine
 10
-2.959166
 20
15.69525044398084
 30
0.0
 11
-2.959159999999999
 21
14.38275044398084
 31
0.0
  0
LINE
  5
13F
330
2
100
AcDbEntity
  8
0
100
AcDbLine
 10
-2.735042
 20
14.44250244398084
 30
0.0
 11
-2.735042
 21
15.69525044398084
 31
0.0
  0
LINE
  5
140
330
2
100
AcDbEntity
  8
0
100
AcDbLine
 10
-2.392052
 20
14.44159044398084
 30
0.0
 11
-2.392052
 21
15.69525044398084
 31
0.0
  0
CIRCLE
  5
141
330
2
100
AcDbEntity
  8
0
100
AcDbCircle
 10
-2.031476
 20
15.25775044398084
 30
0.0
 40
0.0855
  0
ARC
  5
142
330
2
100
AcDbEntity
  8
0
100
AcDbCircle
 10
-2.563549999999999
 20
14.44084444398084
 30
0.0
 40
0.1715
100
AcDbArc
 50
219.7428
 51
320.25723
  0
LINE
  5
143
330
2
100
AcDbEntity
  8
0
100
AcDbLine
 10
-2.959159999999999
 20
14.33119744398084
 30
0.0
 11
-2.959159999999999
 21
14.38275044398084
 31
0.0
  0
ARC
  5
144
330
2
100
AcDbEntity
  8
0
100
AcDbCircle
 10
-2.563549999999999
 20
14.44084444398084
 30
0.0
 40
0.1715
100
AcDbArc
 50
179.4459
 51
199.8001
  0
ARC
  5
145
330
2
100
AcDbEntity
  8
0
100
AcDbCircle
 10
-2.563549999999999
 20
14.44084444398084
 30
0.0
 40
0.1715
100
AcDbArc
 50
340.19988
 51
0.2493000000000296
  0
LINE
  5
146
330
2
100
AcDbEntity
  8
0
100
AcDbLine
 10
-0.833056
 20
12.07025044398084
 30
0.0
 11
0.8330660000000005
 21
12.07025044398084
 31
0.0
  0
LINE
  5
147
330
2
100
AcDbEntity
  8
0
100
AcDbLine
 10
0.7812110000000008
 20
14.07025044398084
 30
0.0
 11
-0.7809039999999996
 21
14.07025044398084
 31
0.0
  0
LINE
  5
148
330
2
100
AcDbEntity
  8
0
100
AcDbLine
 10
-0.833056
 20
14.07025044398084
 30
0.0
 11
-0.833056
 21
12.07025044398084
 31
0.0
  0
LINE
  5
149
330
2
100
AcDbEntity
  8
0
100
AcDbLine
 10
-0.8330559999999991
 20
12.07025044398084
 30
0.0
 11
-0.833056
 21
14.26919744398084
 31
0.0
  0
LINE
  5
14A
330
2
100
AcDbEntity
  8
0
100
AcDbLine
 10
-1.031008
 20
14.38275044398084
 30
0.0
 11
-1.031008
 21
15.69525044398084
 31
0.0
  0
LINE
  5
14B
330
2
100
AcDbEntity
  8
0
100
AcDbLine
 10
-1.734512
 20
14.45343744398084
 30
0.0
 11
-1.734512
 21
15.69525044398084
 31
0.0
  0
LINE
  5
14C
330
2
100
AcDbEntity
  8
0
100
AcDbLine
 10
-1.392499999999999
 20
14.45343744398084
 30
0.0
 11
-1.392499999999999
 21
15.69525044398084
 31
0.0
  0
ARC
  5
14D
330
2
100
AcDbEntity
  8
0
100
AcDbCircle
 10
-1.563506
 20
14.44043344398084
 30
0.0
 40
0.1715
100
AcDbArc
 50
175.6512
 51
199.654
  0
ARC
  5
14E
330
2
100
AcDbEntity
  8
0
100
AcDbCircle
 10
-1.563506
 20
14.44043344398084
 30
0.0
 40
0.1715
100
AcDbArc
 50
340.34596
 51
4.348799999999987
  0
ARC
  5
14F
330
2
100
AcDbEntity
  8
0
100
AcDbCircle
 10
-1.563506
 20
14.44043344398084
 30
0.0
 40
0.1715
100
AcDbArc
 50
219.5642
 51
320.43583
  0
ARC
  5
150
330
2
100
AcDbEntity
  8
0
100
AcDbCircle
 10
-0.8950560000000003
 20
14.26919744398084
 30
0.0
 40
0.062
100
AcDbArc
 50
359.9999999999996
 51
90.00000000000003
  0
ARC
  5
151
330
2
100
AcDbEntity
  8
0
100
AcDbCircle
 10
-0.9059039999999996
 20
14.25775044398084
 30
0.0
 40
0.125
100
AcDbArc
 50
0.0
 51
90.00000000000003
  0
LINE
  5
152
330
2
100
AcDbEntity
  8
0
100
AcDbLine
 10
-0.7809039999999996
 20
12.07025044398084
 30
0.0
 11
-0.7809039999999996
 21
14.25775044398084
 31
0.0
  0
LINE
  5
154
330
2
100
AcDbEntity
  8
0
100
AcDbLine
 10
0.8330660000000005
 20
12.07025044398084
 30
0.0
 11
0.8330660000000005
 21
14.07025044398084
 31
0.0
  0
LINE
  5
155
330
2
100
AcDbEntity
  8
0
  6
HIDDEN
100
AcDbLine
 10
0.9062110000000008
 20
14.38275044398084
 30
0.0
 11
2.955734000000001
 21
14.38275044398084
 31
0.0
  0
LINE
  5
156
330
2
100
AcDbEntity
  8
0
100
AcDbLine
 10
0.8950560000000003
 20
14.33119744398084
 30
0.0
 11
2.955734000000001
 21
14.33119744398084
 31
0.0
  0
LINE
  5
157
330
2
100
AcDbEntity
  8
0
100
AcDbLine
 10
1.031561
 20
15.69525044398084
 30
0.0
 11
2.955734000000001
 21
15.69525044398084
 31
0.0
  0
LINE
  5
158
330
2
100
AcDbEntity
  8
0
100
AcDbLine
 10
1.031561
 20
14.38275044398084
 30
0.0
 11
1.031561
 21
15.69525044398084
 31
0.0
  0
LINE
  5
159
330
2
100
AcDbEntity
  8
0
100
AcDbLine
 10
1.738187000000002
 20
14.44084844398084
 30
0.0
 11
1.738187000000002
 21
15.69525044398084
 31
0.0
  0
LINE
  5
15A
330
2
100
AcDbEntity
  8
0
100
AcDbLine
 10
1.395197
 20
14.44176044398084
 30
0.0
 11
1.395197
 21
15.69525044398084
 31
0.0
  0
ARC
  5
15B
330
2
100
AcDbEntity
  8
0
100
AcDbCircle
 10
0.8950560000000003
 20
14.26919744398084
 30
0.0
 40
0.062
100
AcDbArc
 50
90.00000000000003
 51
180.0
  0
ARC
  5
15C
330
2
100
AcDbEntity
  8
0
100
AcDbCircle
 10
0.9062110000000008
 20
14.25775044398084
 30
0.0
 40
0.125
100
AcDbArc
 50
90.00000000000003
 51
180.0
  0
LINE
  5
15D
330
2
100
AcDbEntity
  8
0
100
AcDbLine
 10
0.8330560000000009
 20
14.07025044398084
 30
0.0
 11
0.8330560000000009
 21
14.26919744398084
 31
0.0
  0
LINE
  5
15E
330
2
100
AcDbEntity
  8
0
100
AcDbLine
 10
0.7812110000000008
 20
12.07025044398084
 30
0.0
 11
0.7812110000000008
 21
14.25775044398084
 31
0.0
  0
ARC
  5
15F
330
2
100
AcDbEntity
  8
0
100
AcDbCircle
 10
1.566689
 20
14.44010144398084
 30
0.0
 40
0.1715
100
AcDbArc
 50
179.4459
 51
199.5367
  0
ARC
  5
160
330
2
100
AcDbEntity
  8
0
100
AcDbCircle
 10
1.566689
 20
14.44010144398084
 30
0.0
 40
0.1715
100
AcDbArc
 50
340.46334
 51
0.2493000000000296
  0
ARC
  5
161
330
2
100
AcDbEntity
  8
0
100
AcDbCircle
 10
1.567954
 20
14.43574444398084
 30
0.0
 40
0.1715
100
AcDbArc
 50
219.3782
 51
320.62178
  0
LINE
  5
162
330
2
100
AcDbEntity
  8
0
100
AcDbLine
 10
2.955734000000001
 20
15.69525044398084
 30
0.0
 11
2.955734000000001
 21
14.38275044398084
 31
0.0
  0
LINE
  5
163
330
2
100
AcDbEntity
  8
0
100
AcDbLine
 10
2.395684000000001
 20
14.45300744398084
 30
0.0
 11
2.395684000000001
 21
15.69525044398084
 31
0.0
  0
LINE
  5
164
330
2
100
AcDbEntity
  8
0
100
AcDbLine
 10
2.737704000000001
 20
14.45300744398084
 30
0.0
 11
2.737704000000001
 21
15.69525044398084
 31
0.0
  0
CIRCLE
  5
165
330
2
100
AcDbEntity
  8
0
100
AcDbCircle
 10
2.031024
 20
15.25775044398084
 30
0.0
 40
0.0855
  0
ARC
  5
166
330
2
100
AcDbEntity
  8
0
100
AcDbCircle
 10
2.566694
 20
14.44000244398084
 30
0.0
 40
0.1715
100
AcDbArc
 50
175.6512
 51
199.5017
  0
LINE
  5
167
330
2
100
AcDbEntity
  8
0
100
AcDbLine
 10
2.955734000000001
 20
14.33119744398084
 30
0.0
 11
2.955734000000001
 21
14.38275044398084
 31
0.0
  0
ARC
  5
168
330
2
100
AcDbEntity
  8
0
100
AcDbCircle
 10
2.566694
 20
14.44000244398084
 30
0.0
 40
0.1715
100
AcDbArc
 50
340.49831
 51
4.348799999999987
  0
ARC
  5
169
330
2
100
AcDbEntity
  8
0
100
AcDbCircle
 10
2.566694
 20
14.44000244398084
 30
0.0
 40
0.1715
100
AcDbArc
 50
219.3782
 51
320.62178
  0
LINE
  5
16B
330
2
100
AcDbEntity
  8
0
100
AcDbLine
 10
-1.851766
 20
7.954419999999999
 30
0.0
 11
-2.026168999999999
 21
8.127479999999999
 31
0.0
  0
CIRCLE
  5
16C
330
2
100
AcDbEntity
  8
0
100
AcDbCircle
 10
-1.958873
 20
8.61722
 30
0.0
 40
0.0855
  0
LINE
  5
16D
330
2
100
AcDbEntity
  8
0
100
AcDbLine
 10
-1.69544
 20
9.35566
 30
0.0
 11
-2.431578999999999
 21
9.35566
 31
0.0
  0
LINE
  5
16E
330
2
100
AcDbEntity
  8
0
100
AcDbLine
 10
-2.026168999999999
 20
8.127479999999999
 30
0.0
 11
-2.959166
 21
9.053279999999997
 31
0.0
  0
ARC
  5
16F
330
2
100
AcDbEntity
  8
0
100
AcDbCircle
 10
-2.563556
 20
9.246140000000001
 30
0.0
 40
0.1715
100
AcDbArc
 50
355.6512
 51
184.3488
  0
ARC
  5
170
330
2
100
AcDbEntity
  8
0
100
AcDbCircle
 10
-2.563556
 20
9.091329999999999
 30
0.0
 40
0.1715
100
AcDbArc
 50
175.6512
 51
4.348846
  0
LINE
  5
171
330
2
100
AcDbEntity
  8
0
100
AcDbLine
 10
-2.959166
 20
9.35566
 30
0.0
 11
-2.959166
 21
9.30348
 31
0.0
  0
LINE
  5
172
330
2
100
AcDbEntity
  8
0
100
AcDbLine
 10
-2.959166
 20
9.053279999999997
 30
0.0
 11
-2.959166
 21
9.30348
 31
0.0
  0
LINE
  5
173
330
2
100
AcDbEntity
  8
0
100
AcDbLine
 10
-2.734562
 20
9.104340000000001
 30
0.0
 11
-2.734562
 21
9.233129999999999
 31
0.0
  0
LINE
  5
174
330
2
100
AcDbEntity
  8
0
100
AcDbLine
 10
-2.695531999999999
 20
9.35566
 30
0.0
 11
-2.959166
 21
9.35566
 31
0.0
  0
LINE
  5
175
330
2
100
AcDbEntity
  8
0
100
AcDbLine
 10
-2.392549
 20
9.104340000000001
 30
0.0
 11
-2.392549
 21
9.233129999999999
 31
0.0
  0
LINE
  5
176
330
2
100
AcDbEntity
  8
0
100
AcDbLine
 10
-1.708075999999999
 20
5.864039999999999
 30
0.0
 11
-1.708075999999999
 21
7.584759999999999
 31
0.0
  0
LINE
  5
177
330
2
100
AcDbEntity
  8
0
100
AcDbLine
 10
0.7810240000000004
 20
5.864039999999999
 30
0.0
 11
0.7810240000000004
 21
8.800450000000001
 31
0.0
  0
LINE
  5
178
330
2
100
AcDbEntity
  8
0
100
AcDbLine
 10
1.707787000000002
 20
5.864039999999999
 30
0.0
 11
1.707787000000002
 21
7.584759999999999
 31
0.0
  0
LINE
  5
179
330
2
100
AcDbEntity
  8
0
100
AcDbLine
 10
0.8330560000000009
 20
8.854479999999999
 30
0.0
 11
0.8330560000000009
 21
5.864039999999999
 31
0.0
  0
LINE
  5
17A
330
2
100
AcDbEntity
  8
0
100
AcDbLine
 10
-0.833056
 20
8.85465
 30
0.0
 11
-0.833056
 21
5.864039999999999
 31
0.0
  0
LINE
  5
17B
330
2
100
AcDbEntity
  8
0
100
AcDbLine
 10
-0.7814759999999996
 20
8.800450000000001
 30
0.0
 11
-0.7814759999999996
 21
5.864039999999999
 31
0.0
  0
LINE
  5
17C
330
2
100
AcDbEntity
  8
0
100
AcDbLine
 10
-0.833056
 20
5.864039999999999
 30
0.0
 11
-0.8330559999999991
 21
0.125
 31
0.0
  0
LINE
  5
17D
330
2
100
AcDbEntity
  8
0
100
AcDbLine
 10
-0.7814759999999996
 20
5.864039999999999
 30
0.0
 11
-0.7814759999999996
 21
0.1140399999999993
 31
0.0
  0
LINE
  5
17E
330
2
100
AcDbEntity
  8
0
100
AcDbLine
 10
0.8330560000000009
 20
5.864039999999999
 30
0.0
 11
0.8330560000000009
 21
0.125
 31
0.0
  0
ARC
  5
17F
330
2
100
AcDbEntity
  8
0
100
AcDbCircle
 10
1.941448000000001
 20
3.363519999999998
 30
0.0
 40
0.4835864
100
AcDbArc
 50
180.0
 51
224.1876
  0
LINE
  5
180
330
2
100
AcDbEntity
  8
0
100
AcDbLine
 10
-1.708075999999999
 20
2.940129999999998
 30
0.0
 11
-1.708075999999999
 21
3.867239999999999
 31
0.0
  0
LINE
  5
181
330
2
100
AcDbEntity
  8
0
100
AcDbLine
 10
0.7810240000000004
 20
0.1140399999999993
 30
0.0
 11
0.7810240000000004
 21
5.864039999999999
 31
0.0
  0
LINE
  5
182
330
2
100
AcDbEntity
  8
0
100
AcDbLine
 10
-0.708056
 20
0.0
 30
0.0
 11
0.7080560000000009
 21
0.0
 31
0.0
  0
LINE
  5
183
330
2
100
AcDbEntity
  8
0
100
AcDbLine
 10
-0.7189759999999996
 20
0.0515399999999993
 30
0.0
 11
0.7185240000000004
 21
0.0515399999999993
 31
0.0
  0
ARC
  5
184
330
2
100
AcDbEntity
  8
0
100
AcDbCircle
 10
-0.708056
 20
0.125
 30
0.0
 40
0.125
100
AcDbArc
 50
180.0
 51
270.0
  0
ARC
  5
185
330
2
100
AcDbEntity
  8
0
100
AcDbCircle
 10
-0.7189759999999996
 20
0.1140399999999993
 30
0.0
 40
0.0625
100
AcDbArc
 50
180.0
 51
270.0
  0
LINE
  5
186
330
2
100
AcDbEntity
  8
0
100
AcDbLine
 10
-1.270207999999999
 20
2.126869999999999
 30
0.0
 11
-1.708075999999999
 21
2.940129999999998
 31
0.0
  0
ARC
  5
187
330
2
100
AcDbEntity
  8
0
100
AcDbCircle
 10
-1.336768999999999
 20
1.627579999999998
 30
0.0
 40
0.5037125
100
AcDbArc
 50
0.0000000000001527
 51
82.40677
  0
ARC
  5
188
330
2
100
AcDbEntity
  8
0
100
AcDbCircle
 10
0.7185240000000004
 20
0.1140399999999993
 30
0.0
 40
0.0625
100
AcDbArc
 50
270.0
 51
0.0
  0
ARC
  5
189
330
2
100
AcDbEntity
  8
0
100
AcDbCircle
 10
0.7080560000000009
 20
0.125
 30
0.0
 40
0.125
100
AcDbArc
 50
270.0
 51
0.0
  0
LINE
  5
18A
330
2
100
AcDbEntity
  8
0
100
AcDbLine
 10
1.270482000000001
 20
2.126869999999999
 30
0.0
 11
1.667079000000001
 21
2.864429999999999
 31
0.0
  0
ARC
  5
18B
330
2
100
AcDbEntity
  8
0
100
AcDbCircle
 10
1.270482000000001
 20
1.685610000000001
 30
0.0
 40
0.4412591
100
AcDbArc
 50
90.0
 51
172.4423
  0
ARC
  5
18C
330
2
100
AcDbEntity
  8
0
100
AcDbCircle
 10
1.270482000000001
 20
1.685610000000001
 30
0.0
 40
0.4412591
100
AcDbArc
 50
187.1682
 51
187.5577
  0
ARC
  5
18D
330
2
100
AcDbEntity
  8
0
100
AcDbCircle
 10
1.545487000000001
 20
2.90729
 30
0.0
 40
0.1289244
100
AcDbArc
 50
326.2219
 51
68.81197
  0
LINE
  5
18F
330
2
100
AcDbEntity
  8
0
100
AcDbLine
 10
-1.708075999999999
 20
5.013760000000001
 30
0.0
 11
-1.708075999999999
 21
5.864039999999999
 31
0.0
  0
ARC
  5
190
330
2
100
AcDbEntity
  8
0
100
AcDbCircle
 10
-1.941754
 20
4.430499999999999
 30
0.0
 40
0.4835864
100
AcDbArc
 50
315.5673
 51
0.0
  0
ARC
  5
191
330
2
100
AcDbEntity
  8
0
100
AcDbCircle
 10
-1.416503
 20
3.862469999999998
 30
0.0
 40
0.2916122
100
AcDbArc
 50
127.9603
 51
180.8635
  0
ARC
  5
192
330
2
100
AcDbEntity
  8
0
100
AcDbCircle
 10
-1.989208
 20
4.430499999999999
 30
0.0
 40
0.531041
100
AcDbArc
 50
0.0
 51
47.2855
  0
ARC
  5
193
330
2
100
AcDbEntity
  8
0
100
AcDbCircle
 10
-1.416541
 20
5.020440000000001
 30
0.0
 40
0.2916122
100
AcDbArc
 50
232.0397
 51
232.0397
  0
ARC
  5
194
330
2
100
AcDbEntity
  8
0
100
AcDbCircle
 10
-1.989208
 20
4.430499999999999
 30
0.0
 40
0.531041
100
AcDbArc
 50
53.52366000000001
 51
53.52366000000001
  0
ARC
  5
195
330
2
100
AcDbEntity
  8
0
100
AcDbCircle
 10
-1.416541
 20
5.020440000000001
 30
0.0
 40
0.2916122
100
AcDbArc
 50
179.1365
 51
222.6143
  0
LINE
  5
196
330
2
100
AcDbEntity
  8
0
100
AcDbLine
 10
1.707787000000002
 20
3.948529999999998
 30
0.0
 11
1.707787000000002
 21
5.864039999999999
 31
0.0
  0
ARC
  5
198
330
2
100
AcDbEntity
  8
0
100
AcDbCircle
 10
1.988902
 20
3.363519999999998
 30
0.0
 40
0.531041
100
AcDbArc
 50
132.2519
 51
180.0
  0
ARC
  5
199
330
2
100
AcDbEntity
  8
0
100
AcDbCircle
 10
1.416207
 20
3.952919999999999
 30
0.0
 40
0.2916122
100
AcDbArc
 50
317.3857
 51
0.8635444999999999
  0
LINE
  5
19A
330
2
100
AcDbEntity
  8
0
100
AcDbLine
 10
-1.735849
 20
8.337759999999999
 30
0.0
 11
-1.735849
 21
9.244329999999998
 31
0.0
  0
LINE
  5
19B
330
2
100
AcDbEntity
  8
0
100
AcDbLine
 10
-1.392859
 20
8.33868
 30
0.0
 11
-1.392859
 21
9.243419999999997
 31
0.0
  0
LINE
  5
19C
330
2
100
AcDbEntity
  8
0
100
AcDbLine
 10
-1.141695
 20
9.17895
 30
0.0
 11
-0.7814759999999996
 21
8.800450000000001
 31
0.0
  0
ARC
  5
19D
330
2
100
AcDbEntity
  8
0
100
AcDbCircle
 10
-2.255431
 20
7.584759999999999
 30
0.0
 40
0.547355
100
AcDbArc
 50
0.0000000000001527
 51
42.48254
  0
ARC
  5
19E
330
2
100
AcDbEntity
  8
0
100
AcDbCircle
 10
-1.564350999999999
 20
8.337019999999999
 30
0.0
 40
0.1715
100
AcDbArc
 50
179.7507
 51
0.5540603
  0
LINE
  5
19F
330
2
100
AcDbEntity
  8
0
100
AcDbLine
 10
-1.141695
 20
9.35566
 30
0.0
 11
-1.433261
 21
9.35566
 31
0.0
  0
ARC
  5
1A0
330
2
100
AcDbEntity
  8
0
100
AcDbCircle
 10
-1.564350999999999
 20
9.245079999999998
 30
0.0
 40
0.1715
100
AcDbArc
 50
359.446
 51
180.2493
  0
LINE
  5
1A1
330
2
100
AcDbEntity
  8
0
100
AcDbLine
 10
-1.141695
 20
9.30348
 30
0.0
 11
-1.141695
 21
9.35566
 31
0.0
  0
LINE
  5
1A2
330
2
100
AcDbEntity
  8
0
100
AcDbLine
 10
-1.141695
 20
9.30348
 30
0.0
 11
-1.141695
 21
9.17895
 31
0.0
  0
LINE
  5
1A3
330
2
100
AcDbEntity
  8
0
100
AcDbLine
 10
1.851477000000001
 20
7.954419999999999
 30
0.0
 11
2.955734000000001
 21
9.053279999999997
 31
0.0
  0
LINE
  5
1A4
330
2
100
AcDbEntity
  8
0
100
AcDbLine
 10
1.39574
 20
8.33868
 30
0.0
 11
1.39574
 21
9.243419999999997
 31
0.0
  0
LINE
  5
1A5
330
2
100
AcDbEntity
  8
0
100
AcDbLine
 10
1.738729000000001
 20
8.337759999999999
 30
0.0
 11
1.738729000000001
 21
9.244329999999998
 31
0.0
  0
LINE
  5
1A6
330
2
100
AcDbEntity
  8
0
100
AcDbLine
 10
1.145519
 20
9.17895
 30
0.0
 11
0.7810240000000004
 21
8.800450000000001
 31
0.0
  0
ARC
  5
1A7
330
2
100
AcDbEntity
  8
0
100
AcDbCircle
 10
2.255144
 20
7.584759999999999
 30
0.0
 40
0.547355
100
AcDbArc
 50
137.5175
 51
180.0
  0
ARC
  5
1A8
330
2
100
AcDbEntity
  8
0
100
AcDbCircle
 10
1.567231000000001
 20
8.337019999999999
 30
0.0
 40
0.1715
100
AcDbArc
 50
179.4459
 51
0.2493315
  0
CIRCLE
  5
1A9
330
2
100
AcDbEntity
  8
0
100
AcDbCircle
 10
1.959299
 20
8.61722
 30
0.0
 40
0.0855
  0
LINE
  5
1AA
330
2
100
AcDbEntity
  8
0
100
AcDbLine
 10
2.434454000000001
 20
9.35566
 30
0.0
 11
1.698320000000001
 21
9.35566
 31
0.0
  0
LINE
  5
1AB
330
2
100
AcDbEntity
  8
0
100
AcDbLine
 10
1.436142
 20
9.35566
 30
0.0
 11
1.145519
 21
9.35566
 31
0.0
  0
LINE
  5
1AC
330
2
100
AcDbEntity
  8
0
100
AcDbLine
 10
1.145519
 20
9.35566
 30
0.0
 11
1.145519
 21
9.30348
 31
0.0
  0
LINE
  5
1AD
330
2
100
AcDbEntity
  8
0
100
AcDbLine
 10
1.145519
 20
9.30348
 30
0.0
 11
1.145519
 21
9.17895
 31
0.0
  0
ARC
  5
1AE
330
2
100
AcDbEntity
  8
0
100
AcDbCircle
 10
1.567231000000001
 20
9.245079999999998
 30
0.0
 40
0.1715
100
AcDbArc
 50
359.7507
 51
180.5541
  0
ARC
  5
1AF
330
2
100
AcDbEntity
  8
0
100
AcDbCircle
 10
2.566434000000001
 20
9.091329999999999
 30
0.0
 40
0.1715
100
AcDbArc
 50
175.6512
 51
4.348846
  0
ARC
  5
1B0
330
2
100
AcDbEntity
  8
0
100
AcDbCircle
 10
2.566434000000001
 20
9.246140000000001
 30
0.0
 40
0.1715
100
AcDbArc
 50
355.6512
 51
184.3488
  0
LINE
  5
1B1
330
2
100
AcDbEntity
  8
0
100
AcDbLine
 10
2.395434000000002
 20
9.104340000000001
 30
0.0
 11
2.395434000000002
 21
9.233129999999999
 31
0.0
  0
LINE
  5
1B2
330
2
100
AcDbEntity
  8
0
100
AcDbLine
 10
2.955734000000001
 20
9.30348
 30
0.0
 11
2.955734000000001
 21
9.35566
 31
0.0
  0
LINE
  5
1B3
330
2
100
AcDbEntity
  8
0
100
AcDbLine
 10
2.737444
 20
9.104340000000001
 30
0.0
 11
2.737444
 21
9.233129999999999
 31
0.0
  0
LINE
  5
1B4
330
2
100
AcDbEntity
  8
0
100
AcDbLine
 10
2.955734000000001
 20
9.053279999999997
 30
0.0
 11
2.955734000000001
 21
9.30348
 31
0.0
  0
LINE
  5
1B5
330
2
100
AcDbEntity
  8
0
100
AcDbLine
 10
2.955734000000001
 20
9.35566
 30
0.0
 11
2.698414
 21
9.35566
 31
0.0
  0
LINE
  5
1B6
330
2
100
AcDbEntity
  8
0
100
AcDbLine
 10
9.336108154331591
 20
3.770361024935539
 30
0.0
 11
9.282660033252324
 21
3.863063165434539
 31
0.0
  0
LINE
  5
1B7
330
2
100
AcDbEntity
  8
0
100
AcDbLine
 10
9.336108154331591
 20
3.770361024935539
 30
0.0
 11
9.428746655220284
 21
3.823919373053236
 31
0.0
  0
ARC
  5
1B8
330
2
100
AcDbEntity
  8
0
100
AcDbCircle
 10
9.336376649808017
 20
3.894035643633877
 30
0.0
 40
0.062
100
AcDbArc
 50
165.0000000000001
 51
209.9639
  0
ARC
  5
1B9
330
2
100
AcDbEntity
  8
0
100
AcDbCircle
 10
9.397712939777374
 20
3.877600634269868
 30
0.0
 40
0.062
100
AcDbArc
 50
300.0361
 51
345.0000000000001
  0
ARC
  5
1BA
330
2
100
AcDbEntity
  8
0
100
AcDbCircle
 10
9.32184531308647
 20
3.59445879680975
 30
0.0
 40
0.062
100
AcDbArc
 50
300.0361
 51
345.0000000000001
  0
ARC
  5
1BB
330
2
100
AcDbEntity
  8
0
100
AcDbCircle
 10
9.260509023117116
 20
3.61089380617376
 30
0.0
 40
0.062
100
AcDbArc
 50
165.0000000000001
 51
209.9639
  0
LINE
  5
1BC
330
2
100
AcDbEntity
  8
0
100
AcDbLine
 10
9.26024052764069
 20
3.487219187475425
 30
0.0
 11
9.35287902852938
 21
3.540777535593115
 31
0.0
  0
LINE
  5
1BD
330
2
100
AcDbEntity
  8
0
100
AcDbLine
 10
9.26024052764069
 20
3.487219187475425
 30
0.0
 11
9.206792406561419
 21
3.579921327974418
 31
0.0
  0
LINE
  5
1BE
330
2
100
AcDbEntity
  8
0
100
AcDbLine
 10
9.381732714316392
 20
3.578412016013395
 30
0.0
 11
9.577262738319995
 21
4.308140000000002
 31
0.0
  0
LINE
  5
1BF
330
2
100
AcDbEntity
  8
0
100
AcDbLine
 10
9.200621621887194
 20
3.626940586970118
 30
0.0
 11
9.396151645890793
 21
4.356668570956725
 31
0.0
  0
LINE
  5
1C0
330
2
100
AcDbEntity
  8
0
100
AcDbLine
 10
0.9580660000000005
 20
13.58066344398084
 30
0.0
 11
0.9532559999999997
 21
13.57576344398084
 31
0.0
  0
LINE
  5
1C1
330
2
100
AcDbEntity
  8
0
100
AcDbLine
 10
0.9697560000000003
 20
13.45566344398084
 30
0.0
 11
1.114566
 21
13.45566344398084
 31
0.0
  0
ARC
  5
1C2
330
2
100
AcDbEntity
  8
0
100
AcDbCircle
 10
0.9167760000000005
 20
13.51816344398084
 30
0.0
 40
0.015
100
AcDbArc
 50
135.0000000000001
 51
224.9999999999999
  0
ARC
  5
1C3
330
2
100
AcDbEntity
  8
0
100
AcDbCircle
 10
0.9709059999999994
 20
13.48666344398084
 30
0.0
 40
0.031
100
AcDbArc
 50
224.9999999999999
 51
270.0
  0
ARC
  5
1C4
330
2
100
AcDbEntity
  8
0
100
AcDbCircle
 10
0.9642760000000017
 20
13.56566344398084
 30
0.0
 40
0.015
100
AcDbArc
 50
90.00000000000003
 51
135.0000000000001
  0
ARC
  5
1C5
330
2
100
AcDbEntity
  8
0
100
AcDbCircle
 10
0.9768660000000011
 20
13.57824344398084
 30
0.0
 40
0.015
100
AcDbArc
 50
90.00000000000003
 51
135.0000000000001
  0
ARC
  5
1C6
330
2
100
AcDbEntity
  8
0
100
AcDbCircle
 10
1.118805999999999
 20
13.60824344398084
 30
0.0
 40
0.015
100
AcDbArc
 50
270.0
 51
0.0
  0
ARC
  5
1C7
330
2
100
AcDbEntity
  8
0
100
AcDbCircle
 10
1.118805999999999
 20
13.59566344398084
 30
0.0
 40
0.015
100
AcDbArc
 50
270.0
 51
0.0
  0
LINE
  5
1C8
330
2
100
AcDbEntity
  8
0
100
AcDbLine
 10
1.114566
 20
13.45566344398084
 30
0.0
 11
0.9709059999999994
 21
13.45566344398084
 31
0.0
  0
ARC
  5
1C9
330
2
100
AcDbEntity
  8
0
100
AcDbCircle
 10
1.118805999999999
 20
13.62806344398084
 30
0.0
 40
0.015
100
AcDbArc
 50
0.0
 51
59.14390000000005
  0
ARC
  5
1CA
330
2
100
AcDbEntity
  8
0
100
AcDbCircle
 10
1.130566
 20
13.63467344398084
 30
0.0
 40
0.015
100
AcDbArc
 50
0.0
 51
59.03629999999993
  0
ARC
  5
1CB
330
2
100
AcDbEntity
  8
0
100
AcDbCircle
 10
1.114566
 20
13.48666344398084
 30
0.0
 40
0.031
100
AcDbArc
 50
270.0
 51
0.0
  0
LINE
  5
1CC
330
2
100
AcDbEntity
  8
0
100
AcDbLine
 10
1.145566000000001
 20
13.48666344398084
 30
0.0
 11
1.145566000000001
 21
13.63467344398084
 31
0.0
  0
LINE
  5
1CD
330
2
100
AcDbEntity
  8
0
100
AcDbLine
 10
1.133796
 20
13.59566344398084
 30
0.0
 11
1.133796
 21
13.60824344398084
 31
0.0
  0
LINE
  5
1CE
330
2
100
AcDbEntity
  8
0
100
AcDbLine
 10
1.126496000000001
 20
13.64094344398084
 30
0.0
 11
0.8332260000000016
 21
13.81615344398084
 31
0.0
  0
LINE
  5
1CF
330
2
100
AcDbEntity
  8
0
100
AcDbLine
 10
1.133796
 20
13.60824344398084
 30
0.0
 11
1.133796
 21
13.62806344398084
 31
0.0
  0
LINE
  5
1D0
330
2
100
AcDbEntity
  8
0
100
AcDbLine
 10
0.9768660000000011
 20
13.59324344398084
 30
0.0
 11
1.118805999999999
 21
13.59324344398084
 31
0.0
  0
LINE
  5
1D1
330
2
100
AcDbEntity
  8
0
100
AcDbLine
 10
0.9580660000000005
 20
13.58066344398084
 30
0.0
 11
0.9662559999999996
 21
13.58885344398084
 31
0.0
  0
LINE
  5
1D2
330
2
100
AcDbEntity
  8
0
100
AcDbLine
 10
0.9642760000000017
 20
13.58066344398084
 30
0.0
 11
1.118805999999999
 21
13.58066344398084
 31
0.0
  0
LINE
  5
1D3
330
2
100
AcDbEntity
  8
0
100
AcDbLine
 10
0.9061760000000003
 20
13.52877344398084
 30
0.0
 11
0.9536760000000015
 21
13.57627344398084
 31
0.0
  0
LINE
  5
1D4
330
2
100
AcDbEntity
  8
0
100
AcDbLine
 10
0.9489859999999997
 20
13.46474344398084
 30
0.0
 11
0.9061760000000003
 21
13.50755344398084
 31
0.0
  0
LINE
  5
1D5
330
2
100
AcDbEntity
  8
0
100
AcDbLine
 10
0.8330660000000005
 20
13.64316344398084
 30
0.0
 11
0.9455660000000012
 21
13.56816344398084
 31
0.0
  0
LINE
  5
1D6
330
2
100
AcDbEntity
  8
0
100
AcDbLine
 10
0.8330660000000005
 20
13.83066344398084
 30
0.0
 11
1.138286000000001
 21
13.64753344398084
 31
0.0
  0
LINE
  5
1D7
330
2
100
AcDbEntity
  8
0
100
AcDbLine
 10
-0.9580560000000009
 20
13.58066344398084
 30
0.0
 11
-0.953246
 21
13.57576344398084
 31
0.0
  0
LINE
  5
1D8
330
2
100
AcDbEntity
  8
0
100
AcDbLine
 10
-0.9697460000000007
 20
13.45566344398084
 30
0.0
 11
-1.114556
 21
13.45566344398084
 31
0.0
  0
ARC
  5
1D9
330
2
100
AcDbEntity
  8
0
100
AcDbCircle
 10
-0.9167660000000009
 20
13.51816344398084
 30
0.0
 40
0.015
100
AcDbArc
 50
315.0
 51
45.00000000000001
  0
ARC
  5
1DA
330
2
100
AcDbEntity
  8
0
100
AcDbCircle
 10
-0.9708959999999998
 20
13.48666344398084
 30
0.0
 40
0.031
100
AcDbArc
 50
270.0
 51
315.0
  0
ARC
  5
1DB
330
2
100
AcDbEntity
  8
0
100
AcDbCircle
 10
-0.9642660000000021
 20
13.56566344398084
 30
0.0
 40
0.015
100
AcDbArc
 50
45.00000000000001
 51
90.00000000000003
  0
ARC
  5
1DC
330
2
100
AcDbEntity
  8
0
100
AcDbCircle
 10
-0.9768560000000015
 20
13.57824344398084
 30
0.0
 40
0.015
100
AcDbArc
 50
45.00000000000001
 51
90.00000000000003
  0
ARC
  5
1DD
330
2
100
AcDbEntity
  8
0
100
AcDbCircle
 10
-1.118796
 20
13.60824344398084
 30
0.0
 40
0.015
100
AcDbArc
 50
180.0
 51
270.0
  0
ARC
  5
1DE
330
2
100
AcDbEntity
  8
0
100
AcDbCircle
 10
-1.118796
 20
13.59566344398084
 30
0.0
 40
0.015
100
AcDbArc
 50
180.0
 51
270.0
  0
LINE
  5
1DF
330
2
100
AcDbEntity
  8
0
100
AcDbLine
 10
-1.114556
 20
13.45566344398084
 30
0.0
 11
-0.9708959999999998
 21
13.45566344398084
 31
0.0
  0
ARC
  5
1E0
330
2
100
AcDbEntity
  8
0
100
AcDbCircle
 10
-1.118796
 20
13.62806344398084
 30
0.0
 40
0.015
100
AcDbArc
 50
120.8561000000001
 51
180.0
  0
ARC
  5
1E1
330
2
100
AcDbEntity
  8
0
100
AcDbCircle
 10
-1.130556
 20
13.63467344398084
 30
0.0
 40
0.015
100
AcDbArc
 50
120.9637000000001
 51
180.0
  0
ARC
  5
1E2
330
2
100
AcDbEntity
  8
0
100
AcDbCircle
 10
-1.114556
 20
13.48666344398084
 30
0.0
 40
0.031
100
AcDbArc
 50
180.0
 51
270.0
  0
LINE
  5
1E3
330
2
100
AcDbEntity
  8
0
100
AcDbLine
 10
-1.145556000000001
 20
13.48666344398084
 30
0.0
 11
-1.145556000000001
 21
13.63467344398084
 31
0.0
  0
LINE
  5
1E4
330
2
100
AcDbEntity
  8
0
100
AcDbLine
 10
-1.133786000000001
 20
13.59566344398084
 30
0.0
 11
-1.133786000000001
 21
13.60824344398084
 31
0.0
  0
LINE
  5
1E5
330
2
100
AcDbEntity
  8
0
100
AcDbLine
 10
-1.126486000000002
 20
13.64094344398084
 30
0.0
 11
-0.833216000000002
 21
13.81615344398084
 31
0.0
  0
LINE
  5
1E6
330
2
100
AcDbEntity
  8
0
100
AcDbLine
 10
-1.133786000000001
 20
13.60824344398084
 30
0.0
 11
-1.133786000000001
 21
13.62806344398084
 31
0.0
  0
LINE
  5
1E7
330
2
100
AcDbEntity
  8
0
100
AcDbLine
 10
-0.9768560000000015
 20
13.59324344398084
 30
0.0
 11
-1.118796
 21
13.59324344398084
 31
0.0
  0
LINE
  5
1E8
330
2
100
AcDbEntity
  8
0
100
AcDbLine
 10
-0.9580560000000009
 20
13.58066344398084
 30
0.0
 11
-0.9662459999999999
 21
13.58885344398084
 31
0.0
  0
LINE
  5
1E9
330
2
100
AcDbEntity
  8
0
100
AcDbLine
 10
-0.9642660000000021
 20
13.58066344398084
 30
0.0
 11
-1.118796
 21
13.58066344398084
 31
0.0
  0
LINE
  5
1EA
330
2
100
AcDbEntity
  8
0
100
AcDbLine
 10
-0.9061660000000007
 20
13.52877344398084
 30
0.0
 11
-0.9536660000000019
 21
13.57627344398084
 31
0.0
  0
LINE
  5
1EB
330
2
100
AcDbEntity
  8
0
100
AcDbLine
 10
-0.948976
 20
13.46474344398084
 30
0.0
 11
-0.9061660000000007
 21
13.50755344398084
 31
0.0
  0
LINE
  5
1EC
330
2
100
AcDbEntity
  8
0
100
AcDbLine
 10
-0.8330560000000009
 20
13.64316344398084
 30
0.0
 11
-0.9455560000000016
 21
13.56816344398084
 31
0.0
  0
LINE
  5
1ED
330
2
100
AcDbEntity
  8
0
100
AcDbLine
 10
-0.8330560000000009
 20
13.83066344398084
 30
0.0
 11
-1.138276000000001
 21
13.64753344398084
 31
0.0
  0
ARC
  5
1EE
330
2
100
AcDbEntity
  8
0
100
AcDbCircle
 10
1.088404000000001
 20
3.802429999999998
 30
0.0
 40
0.062
100
AcDbArc
 50
323.2667
 51
42.18270000000002
  0
ARC
  5
1EF
330
2
100
AcDbEntity
  8
0
100
AcDbCircle
 10
1.061804
 20
3.796599999999998
 30
0.0
 40
0.031
100
AcDbArc
 50
322.8492
 51
41.67051000000001
  0
LINE
  5
1F0
330
2
100
AcDbEntity
  8
0
100
AcDbLine
 10
0.9673739999999995
 20
3.620649999999998
 30
0.0
 11
1.086514000000001
 21
3.777879999999996
 31
0.0
  0
LINE
  5
1F1
330
2
100
AcDbEntity
  8
0
100
AcDbLine
 10
0.981814
 20
3.555929999999997
 30
0.0
 11
0.9673739999999995
 21
3.620649999999998
 31
0.0
  0
LINE
  5
1F2
330
2
100
AcDbEntity
  8
0
100
AcDbLine
 10
1.138094000000001
 20
3.765339999999998
 30
0.0
 11
0.981814
 21
3.555929999999997
 31
0.0
  0
LINE
  5
1F3
330
2
100
AcDbEntity
  8
0
100
AcDbLine
 10
0.8330540000000006
 20
4.176539999999999
 30
0.0
 11
1.134344000000001
 21
3.844059999999995
 31
0.0
  0
LINE
  5
1F4
330
2
100
AcDbEntity
  8
0
100
AcDbLine
 10
0.8337040000000009
 20
4.099509999999999
 30
0.0
 11
1.084964000000001
 21
3.817209999999999
 31
0.0
  0
ARC
  5
1F5
330
2
100
AcDbEntity
  8
0
100
AcDbCircle
 10
-1.088403999999999
 20
4.802429999999998
 30
0.0
 40
0.062
100
AcDbArc
 50
137.8173
 51
216.7333
  0
ARC
  5
1F6
330
2
100
AcDbEntity
  8
0
100
AcDbCircle
 10
-1.061803999999999
 20
4.796599999999998
 30
0.0
 40
0.031
100
AcDbArc
 50
138.32949
 51
217.1508000000001
  0
LINE
  5
1F7
330
2
100
AcDbEntity
  8
0
100
AcDbLine
 10
-0.9673739999999995
 20
4.620649999999998
 30
0.0
 11
-1.086513999999999
 21
4.777879999999996
 31
0.0
  0
LINE
  5
1F8
330
2
100
AcDbEntity
  8
0
100
AcDbLine
 10
-0.981814
 20
4.555929999999997
 30
0.0
 11
-0.9673739999999995
 21
4.620649999999998
 31
0.0
  0
LINE
  5
1F9
330
2
100
AcDbEntity
  8
0
100
AcDbLine
 10
-1.138093999999999
 20
4.765339999999998
 30
0.0
 11
-0.981814
 21
4.555929999999997
 31
0.0
  0
LINE
  5
1FA
330
2
100
AcDbEntity
  8
0
100
AcDbLine
 10
-0.8330539999999989
 20
5.176539999999999
 30
0.0
 11
-1.134343999999999
 21
4.844059999999995
 31
0.0
  0
LINE
  5
1FB
330
2
100
AcDbEntity
  8
0
100
AcDbLine
 10
-0.8337039999999991
 20
5.099509999999999
 30
0.0
 11
-1.084963999999999
 21
4.817209999999999
 31
0.0
  0
LINE
  5
213
330
2
100
AcDbEntity
  8
0
  6
HIDDEN
100
AcDbLine
 10
-1.141695
 20
9.300699999999999
 30
0.0
 11
-2.959708469828271
 21
9.300699999999999
 31
0.0
  0
LINE
  5
216
330
2
100
AcDbEntity
  8
0
  6
HIDDEN
100
AcDbLine
 10
2.962990000000001
 20
9.300699999999999
 30
0.0
 11
1.144976530171729
 21
9.300699999999999
 31
0.0
  0
LINE
  5
25C
330
2
100
AcDbEntity
  8
0
100
AcDbLine
 10
10.00047039350885
 20
9.41436
 30
0.0
 11
11.50896273831999
 21
9.41436
 31
0.0
  0
LINE
  5
25D
330
2
100
AcDbEntity
  8
0
100
AcDbLine
 10
11.50896273831999
 20
9.272463175410667
 30
0.0
 11
10.06951270064124
 21
9.272463175410669
 31
0.0
  0
LINE
  5
25E
330
2
100
AcDbEntity
  8
0
100
AcDbLine
 10
10.04646452937186
 20
9.351427397611289
 30
0.0
 11
11.50896273831999
 21
9.351427397611289
 31
0.0
  0
LINE
  5
25F
330
2
100
AcDbEntity
  8
0
100
AcDbLine
 10
9.023764540110832
 20
8.147121224846757
 30
0.0
 11
9.856567295789974
 21
9.069774540823323
 31
0.0
  0
ARC
  5
260
330
2
100
AcDbEntity
  8
0
100
AcDbCircle
 10
9.246462738319995
 20
7.946110000000001
 30
0.0
 40
0.3
100
AcDbArc
 50
137.9300473352724
 51
180.0
  0
LINE
  5
261
330
2
100
AcDbEntity
  8
0
100
AcDbLine
 10
9.855447704849791
 20
8.259083264138576
 30
0.0
 11
9.856877467747445
 21
9.25436
 31
0.0
  0
ARC
  5
262
330
2
100
AcDbEntity
  8
0
100
AcDbCircle
 10
9.966637830595097
 20
8.278732726135162
 30
0.0
 40
0.1129129993402536
100
AcDbArc
 50
190.0218093717479
 51
259.2220691983233
  0
ARC
  5
263
330
2
100
AcDbEntity
  8
0
100
AcDbCircle
 10
10.01687746774745
 20
9.25436
 30
0.0
 40
0.16
100
AcDbArc
 50
90.0
 51
180.0
  0
ARC
  5
264
330
2
100
AcDbEntity
  8
0
100
AcDbCircle
 10
10.06951270064124
 20
9.212463175410669
 30
0.0
 40
0.06
100
AcDbArc
 50
90.0
 51
180.0
  0
ARC
  5
265
330
2
100
AcDbEntity
  8
0
100
AcDbCircle
 10
10.04646452937186
 20
9.251427397611288
 30
0.0
 40
0.1
100
AcDbArc
 50
90.0
 51
180.0
  0
LINE
  5
266
330
2
100
AcDbEntity
  8
0
100
AcDbLine
 10
11.50896273831999
 20
9.41436
 30
0.0
 11
11.50896273831999
 21
9.272463175410667
 31
0.0
  0
ARC
  5
267
330
2
100
AcDbEntity
  8
0
100
AcDbCircle
 10
9.966637830595097
 20
9.030432721810307
 30
0.0
 40
0.1129129993402536
100
AcDbArc
 50
190.0218093717479
 51
259.2220691983233
  0
LINE
  5
268
330
2
100
AcDbEntity
  8
0
100
AcDbLine
 10
-8.946462738319994
 20
3.60829
 30
0.0
 11
-8.946462738319994
 21
7.085620000000002
 31
0.0
  0
LINE
  5
269
330
2
100
AcDbEntity
  8
0
100
AcDbLine
 10
-10.00896273831999
 20
1.499999999999993
 30
0.0
 11
-10.00896273831999
 21
9.238700000000002
 31
0.0
  0
LINE
  5
26A
330
2
100
AcDbEntity
  8
0
100
AcDbLine
 10
-9.946464529371859
 20
9.251427397611288
 30
0.0
 11
-9.957333738319996
 21
1.375405288945402
 31
0.0
  0
LINE
  5
26B
330
2
100
AcDbEntity
  8
0
100
AcDbLine
 10
-8.946462738319994
 20
5.352339999999998
 30
0.0
 11
-8.946462738319994
 21
7.946110000000001
 31
0.0
  0
ARC
  5
26C
330
2
100
AcDbEntity
  8
0
100
AcDbCircle
 10
-9.008962738319994
 20
3.302099999999999
 30
0.0
 40
0.3125
100
AcDbArc
 50
281.537
 51
78.46304000000004
  0
LINE
  5
26D
330
2
100
AcDbEntity
  8
0
100
AcDbLine
 10
-8.457470738319998
 20
1.918710000000001
 30
0.0
 11
-8.946462738319994
 21
2.75
 31
0.0
  0
LINE
  5
26E
330
2
100
AcDbEntity
  8
0
  6
HIDDEN
100
AcDbLine
 10
-9.696821738319994
 20
0.0519299999999987
 30
0.0
 11
-7.696462738319993
 21
0.0519299999999987
 31
0.0
  0
LINE
  5
26F
330
2
100
AcDbEntity
  8
0
100
AcDbLine
 10
-7.696462738319993
 20
0.0
 30
0.0
 11
-9.696462738319994
 21
0.0
 31
0.0
  0
LINE
  5
270
330
2
100
AcDbEntity
  8
0
100
AcDbLine
 10
-8.054920738319996
 20
1.148499999999999
 30
0.0
 11
-8.491804738319996
 21
1.894920000000003
 31
0.0
  0
LINE
  5
271
330
2
100
AcDbEntity
  8
0
100
AcDbLine
 10
-7.696462738319993
 20
0.0
 30
0.0
 11
-7.696462738319993
 21
0.6005600000000015
 31
0.0
  0
LINE
  5
272
330
2
100
AcDbEntity
  8
0
100
AcDbLine
 10
-7.712396738319995
 20
0.6520900000000012
 30
0.0
 11
-8.016827738319996
 21
1.169620000000002
 31
0.0
  0
ARC
  5
273
330
2
100
AcDbEntity
  8
0
100
AcDbCircle
 10
-7.820182738319992
 20
0.5905299999999976
 30
0.0
 40
0.1241263
100
AcDbArc
 50
4.635989999999994
 51
29.7312
  0
ARC
  5
274
330
2
100
AcDbEntity
  8
0
100
AcDbCircle
 10
-7.820182738319992
 20
0.5905299999999976
 30
0.0
 40
0.1241263
100
AcDbArc
 50
355.62995
 51
355.62995
  0
LINE
  5
275
330
2
100
AcDbEntity
  8
0
100
AcDbLine
 10
-8.016827738319996
 20
1.169620000000002
 30
0.0
 11
-8.054920738319996
 21
1.148499999999999
 31
0.0
  0
LINE
  5
276
330
2
100
AcDbEntity
  8
0
100
AcDbLine
 10
-8.491804738319996
 20
1.894920000000003
 30
0.0
 11
-8.457470738319998
 21
1.918710000000001
 31
0.0
  0
ARC
  5
277
330
2
100
AcDbEntity
  8
0
100
AcDbCircle
 10
-13.45271273832
 20
0.0
 30
0.0
 40
3.75625
100
AcDbArc
 50
0.000000000000007
 51
23.53658000000001
  0
LINE
  5
278
330
2
100
AcDbEntity
  8
0
100
AcDbLine
 10
-8.946462738319994
 20
2.933410000000002
 30
0.0
 11
-8.946462738319994
 21
2.814260000000001
 31
0.0
  0
LINE
  5
279
330
2
100
AcDbEntity
  8
0
100
AcDbLine
 10
-8.946462738319994
 20
2.75
 30
0.0
 11
-8.946462738319994
 21
2.995910000000002
 31
0.0
  0
LINE
  5
27A
330
2
100
AcDbEntity
  8
0
100
AcDbLine
 10
-9.336108154331591
 20
3.770361024935539
 30
0.0
 11
-9.282660033252324
 21
3.863063165434539
 31
0.0
  0
LINE
  5
27B
330
2
100
AcDbEntity
  8
0
100
AcDbLine
 10
-9.336108154331591
 20
3.770361024935539
 30
0.0
 11
-9.428746655220284
 21
3.823919373053236
 31
0.0
  0
ARC
  5
27C
330
2
100
AcDbEntity
  8
0
100
AcDbCircle
 10
-9.336376649808017
 20
3.894035643633877
 30
0.0
 40
0.062
100
AcDbArc
 50
330.0361
 51
14.99999999999994
  0
ARC
  5
27D
330
2
100
AcDbEntity
  8
0
100
AcDbCircle
 10
-9.397712939777374
 20
3.877600634269868
 30
0.0
 40
0.062
100
AcDbArc
 50
194.9999999999999
 51
239.9639
  0
ARC
  5
27E
330
2
100
AcDbEntity
  8
0
100
AcDbCircle
 10
-9.32184531308647
 20
3.59445879680975
 30
0.0
 40
0.062
100
AcDbArc
 50
194.9999999999999
 51
239.9639
  0
ARC
  5
27F
330
2
100
AcDbEntity
  8
0
100
AcDbCircle
 10
-9.260509023117116
 20
3.61089380617376
 30
0.0
 40
0.062
100
AcDbArc
 50
330.0361
 51
14.99999999999994
  0
LINE
  5
280
330
2
100
AcDbEntity
  8
0
100
AcDbLine
 10
-9.26024052764069
 20
3.487219187475425
 30
0.0
 11
-9.35287902852938
 21
3.540777535593115
 31
0.0
  0
LINE
  5
281
330
2
100
AcDbEntity
  8
0
100
AcDbLine
 10
-9.26024052764069
 20
3.487219187475425
 30
0.0
 11
-9.206792406561419
 21
3.579921327974418
 31
0.0
  0
LINE
  5
282
330
2
100
AcDbEntity
  8
0
100
AcDbLine
 10
-9.381732714316392
 20
3.578412016013395
 30
0.0
 11
-9.577262738319995
 21
4.308140000000002
 31
0.0
  0
LINE
  5
283
330
2
100
AcDbEntity
  8
0
100
AcDbLine
 10
-9.200621621887194
 20
3.626940586970118
 30
0.0
 11
-9.396151645890793
 21
4.356668570956725
 31
0.0
  0
LINE
  5
284
330
2
100
AcDbEntity
  8
0
100
AcDbLine
 10
-9.282516738319995
 20
3.933789999999998
 30
0.0
 11
-9.396151738319993
 21
4.356660000000002
 31
0.0
  0
LINE
  5
285
330
2
100
AcDbEntity
  8
0
100
AcDbLine
 10
-10.00047039350885
 20
9.41436
 30
0.0
 11
-11.50896273831999
 21
9.41436
 31
0.0
  0
LINE
  5
286
330
2
100
AcDbEntity
  8
0
100
AcDbLine
 10
-11.50896273831999
 20
9.272463175410667
 30
0.0
 11
-10.06951270064124
 21
9.272463175410669
 31
0.0
  0
LINE
  5
287
330
2
100
AcDbEntity
  8
0
100
AcDbLine
 10
-10.04646452937186
 20
9.351427397611289
 30
0.0
 11
-11.50896273831999
 21
9.351427397611289
 31
0.0
  0
LINE
  5
288
330
2
100
AcDbEntity
  8
0
100
AcDbLine
 10
-9.023764540110832
 20
8.147121224846757
 30
0.0
 11
-9.856567295789972
 21
9.069774540823323
 31
0.0
  0
ARC
  5
289
330
2
100
AcDbEntity
  8
0
100
AcDbCircle
 10
-9.246462738319995
 20
7.946110000000001
 30
0.0
 40
0.3
100
AcDbArc
 50
0.000000000000007
 51
42.06995266472763
  0
LINE
  5
28A
330
2
100
AcDbEntity
  8
0
100
AcDbLine
 10
-9.855447704849791
 20
8.259083264138576
 30
0.0
 11
-9.856877467747445
 21
9.25436
 31
0.0
  0
ARC
  5
28B
330
2
100
AcDbEntity
  8
0
100
AcDbCircle
 10
-9.966637830595097
 20
8.278732726135162
 30
0.0
 40
0.1129129993402536
100
AcDbArc
 50
280.7779308016767
 51
349.9781906282522
  0
ARC
  5
28C
330
2
100
AcDbEntity
  8
0
100
AcDbCircle
 10
-10.01687746774745
 20
9.25436
 30
0.0
 40
0.16
100
AcDbArc
 50
0.000000000000007
 51
90.0
  0
ARC
  5
28D
330
2
100
AcDbEntity
  8
0
100
AcDbCircle
 10
-10.06951270064124
 20
9.212463175410669
 30
0.0
 40
0.06
100
AcDbArc
 50
0.000000000000007
 51
90.0
  0
ARC
  5
28E
330
2
100
AcDbEntity
  8
0
100
AcDbCircle
 10
-10.04646452937186
 20
9.251427397611288
 30
0.0
 40
0.1
100
AcDbArc
 50
0.000000000000007
 51
90.0
  0
LINE
  5
28F
330
2
100
AcDbEntity
  8
0
100
AcDbLine
 10
-11.50896273831999
 20
9.41436
 30
0.0
 11
-11.50896273831999
 21
9.272463175410667
 31
0.0
  0
ARC
  5
290
330
2
100
AcDbEntity
  8
0
100
AcDbCircle
 10
-9.966637830595097
 20
9.030432721810307
 30
0.0
 40
0.1129129993402536
100
AcDbArc
 50
280.7779308016767
 51
349.9781906282522
  0
ENDSEC
  0
SECTION
  2
OBJECTS
  0
DICTIONARY
  5
7
330
0
100
AcDbDictionary
281
     1
  3
ACAD_COLOR
350
111
  3
ACAD_GROUP
350
1F
  3
ACAD_LAYOUT
350
B
  3
ACAD_MATERIAL
350
110
  3
ACAD_MLINESTYLE
350
20
  3
ACAD_PLOTSETTINGS
350
21
  3
ACAD_PLOTSTYLENAME
350
6
  3
ACAD_TABLESTYLE
350
112
  3
ACDBHEADERROUNDTRIPXREC
350
29D
  3
AcDbVariableDictionary
350
10C
  0
DICTIONARY
  5
119
330
2
100
AcDbDictionary
280
     1
281
     1
  3
ACAD_SORTENTS
360
11A
  0
DICTIONARY
  5
111
102
{ACAD_REACTORS
330
7
102
}
330
7
100
AcDbDictionary
281
     1
  0
DICTIONARY
  5
1F
102
{ACAD_REACTORS
330
7
102
}
330
7
100
AcDbDictionary
281
     1
  0
DICTIONARY
  5
B
102
{ACAD_REACTORS
330
7
102
}
330
7
100
AcDbDictionary
281
     1
  3
Layout1
350
F
  3
Model
350
A
  0
DICTIONARY
  5
110
102
{ACAD_REACTORS
330
7
102
}
330
7
100
AcDbDictionary
281
     1
  0
DICTIONARY
  5
20
102
{ACAD_REACTORS
330
7
102
}
330
7
100
AcDbDictionary
281
     1
  3
Standard
350
23
  0
DICTIONARY
  5
21
102
{ACAD_REACTORS
330
7
102
}
330
7
100
AcDbDictionary
281
     1
  0
ACDBDICTIONARYWDFLT
  5
6
102
{ACAD_REACTORS
330
7
102
}
330
7
100
AcDbDictionary
281
     1
  3
Normal
350
5
100
AcDbDictionaryWithDefault
340
5
  0
DICTIONARY
  5
112
102
{ACAD_REACTORS
330
7
102
}
330
7
100
AcDbDictionary
281
     1
  3
Standard
350
113
  0
DICTIONARY
  5
29D
102
{ACAD_REACTORS
330
7
102
}
330
7
100
AcDbDictionary
281
     1
  3
COLORDICT
350
29E
  3
MATERIALDICT
350
29F
  0
DICTIONARY
  5
10C
102
{ACAD_REACTORS
330
7
102
}
330
7
100
AcDbDictionary
281
     1
  3
CTABLESTYLE
350
203
  3
DIMASSOC
350
10E
  3
HIDETEXT
350
10D
  0
SORTENTSTABLE
  5
11A
102
{ACAD_REACTORS
330
119
102
}
330
119
100
AcDbSortentsTable
330
2
331
13F
  5
17B
331
156
  5
1AA
331
1EB
  5
1A5
331
1A5
  5
166
331
151
  5
18E
331
120
  5
1D8
331
1B9
  5
1EC
331
155
  5
1A9
331
1AB
  5
16C
331
1E1
  5
19B
331
1D6
  5
1D5
331
1E3
  5
19D
331
1A6
  5
167
331
18B
  5
13E
331
125
  5
1DD
331
1A1
  5
162
331
177
  5
12A
331
161
  5
1B6
331
12A
  5
1E2
331
192
  5
14D
331
1CC
  5
1CB
331
1A4
  5
165
331
165
  5
1BA
331
1F3
  5
157
331
17A
  5
12D
331
1F5
  5
142
331
149
  5
186
331
1E9
  5
1A3
331
16F
  5
122
331
18F
  5
149
331
172
  5
125
331
12F
  5
1E7
331
157
  5
1AB
331
1B4
  5
175
331
18A
  5
13D
331
19C
  5
15D
331
1BD
  5
1F0
331
15A
  5
1AF
331
1DA
  5
193
331
1D4
  5
1D3
331
152
  5
18F
331
1F1
  5
155
331
19D
  5
15E
331
144
  5
180
331
1F7
  5
144
331
143
  5
17F
331
1AF
  5
170
331
124
  5
1DC
331
1CB
  5
1CA
331
1DC
  5
195
331
162
  5
1B7
331
1B1
  5
172
331
178
  5
12B
331
16E
  5
121
331
127
  5
1DF
331
126
  5
1DE
331
128
  5
1E0
331
181
  5
134
331
1D2
  5
1D1
331
163
  5
1B8
331
142
  5
17E
331
12B
  5
1E3
331
1CD
  5
1CC
331
18C
  5
13F
331
15C
  5
1B1
331
14B
  5
188
331
1ED
  5
1A7
331
19B
  5
15C
331
180
  5
133
331
170
  5
123
331
17C
  5
12F
331
1C0
  5
1BF
331
174
  5
127
331
171
  5
124
331
1D0
  5
1CF
331
1BF
  5
1F2
331
1B5
  5
176
331
1EF
  5
153
331
1CF
  5
1CE
331
176
  5
129
331
1C6
  5
1C5
331
166
  5
1BB
331
160
  5
1B5
331
1C1
  5
1C0
331
1AA
  5
16B
331
16C
  5
11F
331
1CE
  5
1CD
331
1C5
  5
1C4
331
147
  5
184
331
11E
  5
1D6
331
1E6
  5
1A0
331
1D7
  5
190
331
1F6
  5
143
331
1F9
  5
146
331
1B7
  5
1EA
331
145
  5
182
331
13C
  5
178
331
198
  5
159
331
1A9
  5
16A
331
1EC
  5
1A6
331
184
  5
137
331
15D
  5
1B2
331
189
  5
13C
331
1CA
  5
1C9
331
1C3
  5
1C2
331
1DE
  5
197
331
183
  5
136
331
1D5
  5
1D4
331
1E0
  5
19A
331
14A
  5
187
331
154
  5
1A8
331
14E
  5
18B
331
193
  5
14E
331
17E
  5
131
331
186
  5
139
331
1D1
  5
1D0
331
129
  5
1E1
331
1A7
  5
168
331
1F2
  5
156
331
164
  5
1B9
331
182
  5
135
331
1B0
  5
171
331
179
  5
12C
331
1BB
  5
1EE
331
1A0
  5
161
331
175
  5
128
331
1AE
  5
16F
331
1D8
  5
191
331
1FA
  5
147
331
17B
  5
12E
331
1A3
  5
164
331
13B
  5
177
331
1B3
  5
174
331
1A8
  5
169
331
1B6
  5
1E9
331
1E5
  5
19F
331
1F0
  5
154
331
141
  5
17D
331
12E
  5
1E6
331
17F
  5
132
331
1AD
  5
16E
331
1B8
  5
1EB
331
1AC
  5
16D
331
15E
  5
1B3
331
19A
  5
15B
331
173
  5
126
331
140
  5
17C
331
19E
  5
15F
331
18D
  5
140
331
1C2
  5
1C1
331
14D
  5
18A
331
14F
  5
18C
331
15F
  5
1B4
331
1DF
  5
199
331
12C
  5
1E4
331
13D
  5
179
331
1EE
  5
152
331
187
  5
13A
331
1C4
  5
1C3
331
167
  5
1BC
331
122
  5
1DA
331
1F8
  5
145
331
12D
  5
1E5
331
168
  5
1BD
331
1BC
  5
1EF
331
190
  5
14B
331
15B
  5
1B0
331
11F
  5
1D7
331
1DB
  5
194
331
194
  5
14F
331
196
  5
151
331
1E4
  5
19E
331
1A2
  5
163
331
1E2
  5
19C
331
146
  5
183
331
195
  5
150
331
158
  5
1AD
331
1B2
  5
173
331
185
  5
138
331
150
  5
18D
331
121
  5
1D9
331
1D9
  5
192
331
1C8
  5
1C7
331
1C9
  5
1C8
331
1C7
  5
1C6
331
1FB
  5
148
331
1BE
  5
1F1
331
16D
  5
120
331
13E
  5
17A
331
148
  5
185
331
14C
  5
189
331
17D
  5
130
331
1BA
  5
1ED
331
188
  5
13B
331
159
  5
1AE
331
123
  5
1DB
331
19F
  5
160
331
1E8
  5
1A2
331
1DD
  5
196
331
169
  5
1BE
331
1E7
  5
1A1
331
199
  5
15A
331
132
  5
1F3
331
1D3
  5
1D2
331
1F4
  5
158
331
1EA
  5
1A4
331
16B
  5
11E
331
191
  5
14C
  0
LAYOUT
  5
F
102
{ACAD_REACTORS
330
B
102
}
102
{ACAD_XDICTIONARY
360
2A0
102
}
330
B
100
AcDbPlotSettings
  1

  2
X:\Program Files\AutoCAD2002\plotters\DWF ePlot (optimized for plotting).pc3
  4

  6

 40
0.0
 41
0.0
 42
0.0
 43
0.0
 44
0.0
 45
0.0
 46
0.0
 47
0.0
 48
0.0
 49
0.0
140
0.0
141
0.0
142
1.0
143
1.0
 70
   688
 72
     0
 73
     0
 74
     5
  7

 75
    16
147
1.0
148
0.0
149
0.0
100
AcDbLayout
  1
Layout1
 70
     0
 71
     1
 10
0.0
 20
0.0
 11
12.0
 21
9.0
 12
0.0
 22
0.0
 32
0.0
 14
1.000000000000000E+20
 24
1.000000000000000E+20
 34
1.000000000000000E+20
 15
-1.000000000000000E+20
 25
-1.000000000000000E+20
 35
-1.000000000000000E+20
146
0.0
 13
0.0
 23
0.0
 33
0.0
 16
1.0
 26
0.0
 36
0.0
 17
0.0
 27
1.0
 37
0.0
 76
     0
330
C
  0
LAYOUT
  5
A
102
{ACAD_REACTORS
330
B
102
}
102
{ACAD_XDICTIONARY
360
2A2
102
}
330
B
100
AcDbPlotSettings
  1

  2
X:\Program Files\AutoCAD2002\plotters\DWF ePlot (optimized for plotting).pc3
  4

  6

 40
0.0
 41
0.0
 42
0.0
 43
0.0
 44
0.0
 45
0.0
 46
0.0
 47
0.0
 48
0.0
 49
0.0
140
0.0
141
0.0
142
1.0
143
1.0
 70
  1712
 72
     0
 73
     0
 74
     0
  7

 75
     0
147
1.0
148
0.0
149
0.0
100
AcDbLayout
  1
Model
 70
     1
 71
     0
 10
0.0
 20
0.0
 11
12.0
 21
9.0
 12
0.0
 22
0.0
 32
0.0
 14
0.0
 24
0.0
 34
0.0
 15
0.0
 25
0.0
 35
0.0
146
0.0
 13
0.0
 23
0.0
 33
0.0
 16
1.0
 26
0.0
 36
0.0
 17
0.0
 27
1.0
 37
0.0
 76
     0
330
2
  0
MLINESTYLE
  5
23
102
{ACAD_REACTORS
330
20
102
}
330
20
100
AcDbMlineStyle
  2
STANDARD
 70
     0
  3

 62
   256
 51
90.0
 52
90.0
 71
     2
 49
0.5
 62
   256
  6
BYLAYER
 49
-0.5
 62
   256
  6
BYLAYER
  0
ACDBPLACEHOLDER
  5
5
102
{ACAD_REACTORS
330
6
102
}
330
6
  0
ACAD_PROXY_OBJECT
  5
113
102
{ACAD_REACTORS
330
112
102
}
330
112
100
AcDbProxyObject
 90
      499
 91
      504
 95
   983063
 70
     0
 93
     1841
310
4214DD185B99185C9928B81E85EB51B8AE3F2E07A17AD46E2B8FC02B5E8DC0F42B1CFD028000000C1008070000C3001FDFF8000000C1003FBFF000000182007F7FE00000030400FEFFC00000060801FDFF8000000C1003FBFF00000018200000000000000681FA0B0000001820100E000186003FBFF000000182007F7FE000
310
00030400FEFFC00000060801FDFF8000000C1003FBFF000000182007F7FE000000304000AD7A3703D0AC73F4160000003040201C00030C007F7FE00000030400FEFFC00000060801FDFF8000000C1003FBFF000000182007F7FE00000030400FEFFC000000608000
340
12
340
12
340
12
 94
        0
  0
XRECORD
  5
29E
102
{ACAD_REACTORS
330
29D
102
}
330
29D
100
AcDbXrecord
340
111
  0
XRECORD
  5
29F
102
{ACAD_REACTORS
330
29D
102
}
330
29D
100
AcDbXrecord
340
110
  0
DICTIONARYVAR
  5
203
102
{ACAD_REACTORS
330
10C
102
}
330
10C
100
DictionaryVariables
280
     0
  1
STANDARD
  0
DICTIONARYVAR
  5
10E
102
{ACAD_REACTORS
330
10C
102
}
330
10C
100
DictionaryVariables
280
     0
  1
2
  0
DICTIONARYVAR
  5
10D
102
{ACAD_REACTORS
330
10C
102
}
330
10C
100
DictionaryVariables
280
     0
  1
1
  0
DICTIONARY
  5
2A0
330
F
100
AcDbDictionary
280
     1
281
     1
  3
ACAD_XREC_ROUNDTRIP
360
2A1
  0
DICTIONARY
  5
2A2
330
A
100
AcDbDictionary
280
     1
281
     1
  3
ACAD_XREC_ROUNDTRIP
360
2A3
  0
XRECORD
  5
2A1
102
{ACAD_REACTORS
330
2A0
102
}
330
2A0
100
AcDbXrecord
102
SHADEPLOT
 70
     0
102
SHADEPLOTRESLEVEL
 70
     2
102
SHADEPLOTCUSTOMDPI
 70
   300
  0
XRECORD
  5
2A3
102
{ACAD_REACTORS
330
2A2
102
}
330
2A2
100
AcDbXrecord
102
SHADEPLOT
 70
     0
102
SHADEPLOTRESLEVEL
 70
     2
102
SHADEPLOTCUSTOMDPI
 70
   300
  0
ENDSEC
  0
EOF
