  0
SECTION
  2
HEADER
  9
$ACADVER
  1
AC1015
  9
$ACADMAINTVER
 70
     6
  9
$DWGCODEPAGE
  3
ANSI_1252
  9
$INSBASE
 10
0.0
 20
0.0
 30
0.0
  9
$EXTMIN
 10
-2.959166
 20
-0.0793824524191173
 30
0.0
  9
$EXTMAX
 10
2.955734000000001
 20
11.1850658952292
 30
0.0
  9
$LIMMIN
 10
0.0
 20
0.0
  9
$LIMMAX
 10
31.5
 20
24.0
  9
$ORTHOMODE
 70
     1
  9
$REGENMODE
 70
     1
  9
$FILLMODE
 70
     1
  9
$QTEXTMODE
 70
     0
  9
$MIRRTEXT
 70
     0
  9
$LTSCALE
 40
0.5
  9
$ATTMODE
 70
     1
  9
$TEXTSIZE
 40
0.27
  9
$TRACEWID
 40
0.05
  9
$TEXTSTYLE
  7
STANDARD
  9
$CLAYER
  8
0
  9
$CELTYPE
  6
ByLayer
  9
$CECOLOR
 62
   256
  9
$CELTSCALE
 40
1.0
  9
$DISPSILH
 70
     0
  9
$DIMSCALE
 40
1.0
  9
$DIMASZ
 40
0.375
  9
$DIMEXO
 40
0.0625
  9
$DIMDLI
 40
0.75
  9
$DIMRND
 40
0.0
  9
$DIMDLE
 40
0.0
  9
$DIMEXE
 40
0.18
  9
$DIMTP
 40
0.0
  9
$DIMTM
 40
0.0
  9
$DIMTXT
 40
0.27
  9
$DIMCEN
 40
-0.06
  9
$DIMTSZ
 40
0.0
  9
$DIMTOL
 70
     0
  9
$DIMLIM
 70
     0
  9
$DIMTIH
 70
     1
  9
$DIMTOH
 70
     1
  9
$DIMSE1
 70
     0
  9
$DIMSE2
 70
     0
  9
$DIMTAD
 70
     0
  9
$DIMZIN
 70
     0
  9
$DIMBLK
  1

  9
$DIMASO
 70
     0
  9
$DIMSHO
 70
     0
  9
$DIMPOST
  1

  9
$DIMAPOST
  1

  9
$DIMALT
 70
     0
  9
$DIMALTD
 70
     2
  9
$DIMALTF
 40
25.4
  9
$DIMLFAC
 40
1.0
  9
$DIMTOFL
 70
     0
  9
$DIMTVP
 40
0.0
  9
$DIMTIX
 70
     0
  9
$DIMSOXD
 70
     0
  9
$DIMSAH
 70
     0
  9
$DIMBLK1
  1

  9
$DIMBLK2
  1

  9
$DIMSTYLE
  2
Standard
  9
$DIMCLRD
 70
     0
  9
$DIMCLRE
 70
     0
  9
$DIMCLRT
 70
     0
  9
$DIMTFAC
 40
1.0
  9
$DIMGAP
 40
0.09
  9
$DIMJUST
 70
     0
  9
$DIMSD1
 70
     0
  9
$DIMSD2
 70
     0
  9
$DIMTOLJ
 70
     1
  9
$DIMTZIN
 70
     0
  9
$DIMALTZ
 70
     0
  9
$DIMALTTZ
 70
     0
  9
$DIMUPT
 70
     0
  9
$DIMDEC
 70
     3
  9
$DIMTDEC
 70
     3
  9
$DIMALTU
 70
     2
  9
$DIMALTTD
 70
     2
  9
$DIMTXSTY
  7
STANDARD
  9
$DIMAUNIT
 70
     0
  9
$DIMADEC
 70
     0
  9
$DIMALTRND
 40
0.0
  9
$DIMAZIN
 70
     0
  9
$DIMDSEP
 70
    46
  9
$DIMATFIT
 70
     3
  9
$DIMFRAC
 70
     0
  9
$DIMLDRBLK
  1

  9
$DIMLUNIT
 70
     2
  9
$DIMLWD
 70
    -2
  9
$DIMLWE
 70
    -2
  9
$DIMTMOVE
 70
     2
  9
$LUNITS
 70
     2
  9
$LUPREC
 70
     3
  9
$SKETCHINC
 40
0.1
  9
$FILLETRAD
 40
0.0
  9
$AUNITS
 70
     0
  9
$AUPREC
 70
     0
  9
$MENU
  1
ACAD
  9
$ELEVATION
 40
0.0
  9
$PELEVATION
 40
0.0
  9
$THICKNESS
 40
0.0
  9
$LIMCHECK
 70
     0
  9
$CHAMFERA
 40
0.0
  9
$CHAMFERB
 40
0.0
  9
$CHAMFERC
 40
0.0
  9
$CHAMFERD
 40
0.0
  9
$SKPOLY
 70
     0
  9
$TDCREATE
 40
2449212.781142824
  9
$TDUCREATE
 40
2449213.114476157
  9
$TDUPDATE
 40
2454160.606822002
  9
$TDUUPDATE
 40
2454160.940155336
  9
$TDINDWG
 40
0.0368628009
  9
$TDUSRTIMER
 40
0.0368628009
  9
$USRTIMER
 70
     1
  9
$ANGBASE
 50
0.0
  9
$ANGDIR
 70
     0
  9
$PDMODE
 70
     0
  9
$PDSIZE
 40
0.0
  9
$PLINEWID
 40
0.0
  9
$SPLFRAME
 70
     0
  9
$SPLINETYPE
 70
     6
  9
$SPLINESEGS
 70
     8
  9
$HANDSEED
  5
265
  9
$SURFTAB1
 70
     6
  9
$SURFTAB2
 70
     6
  9
$SURFTYPE
 70
     6
  9
$SURFU
 70
     6
  9
$SURFV
 70
     6
  9
$UCSBASE
  2

  9
$UCSNAME
  2

  9
$UCSORG
 10
0.0
 20
0.0
 30
0.0
  9
$UCSXDIR
 10
1.0
 20
0.0
 30
0.0
  9
$UCSYDIR
 10
0.0
 20
1.0
 30
0.0
  9
$UCSORTHOREF
  2

  9
$UCSORTHOVIEW
 70
     0
  9
$UCSORGTOP
 10
0.0
 20
0.0
 30
0.0
  9
$UCSORGBOTTOM
 10
0.0
 20
0.0
 30
0.0
  9
$UCSORGLEFT
 10
0.0
 20
0.0
 30
0.0
  9
$UCSORGRIGHT
 10
0.0
 20
0.0
 30
0.0
  9
$UCSORGFRONT
 10
0.0
 20
0.0
 30
0.0
  9
$UCSORGBACK
 10
0.0
 20
0.0
 30
0.0
  9
$PUCSBASE
  2

  9
$PUCSNAME
  2

  9
$PUCSORG
 10
0.0
 20
0.0
 30
0.0
  9
$PUCSXDIR
 10
1.0
 20
0.0
 30
0.0
  9
$PUCSYDIR
 10
0.0
 20
1.0
 30
0.0
  9
$PUCSORTHOREF
  2

  9
$PUCSORTHOVIEW
 70
     0
  9
$PUCSORGTOP
 10
0.0
 20
0.0
 30
0.0
  9
$PUCSORGBOTTOM
 10
0.0
 20
0.0
 30
0.0
  9
$PUCSORGLEFT
 10
0.0
 20
0.0
 30
0.0
  9
$PUCSORGRIGHT
 10
0.0
 20
0.0
 30
0.0
  9
$PUCSORGFRONT
 10
0.0
 20
0.0
 30
0.0
  9
$PUCSORGBACK
 10
0.0
 20
0.0
 30
0.0
  9
$USERI1
 70
     0
  9
$USERI2
 70
     0
  9
$USERI3
 70
     0
  9
$USERI4
 70
     0
  9
$USERI5
 70
     0
  9
$USERR1
 40
0.0
  9
$USERR2
 40
0.0
  9
$USERR3
 40
0.0
  9
$USERR4
 40
0.0
  9
$USERR5
 40
0.0
  9
$WORLDVIEW
 70
     1
  9
$SHADEDGE
 70
     3
  9
$SHADEDIF
 70
    70
  9
$TILEMODE
 70
     1
  9
$MAXACTVP
 70
    16
  9
$PINSBASE
 10
0.0
 20
0.0
 30
0.0
  9
$PLIMCHECK
 70
     0
  9
$PEXTMIN
 10
1.000000000000000E+20
 20
1.000000000000000E+20
 30
1.000000000000000E+20
  9
$PEXTMAX
 10
-1.000000000000000E+20
 20
-1.000000000000000E+20
 30
-1.000000000000000E+20
  9
$PLIMMIN
 10
0.0
 20
0.0
  9
$PLIMMAX
 10
12.0
 20
9.0
  9
$UNITMODE
 70
     0
  9
$VISRETAIN
 70
     0
  9
$PLINEGEN
 70
     1
  9
$PSLTSCALE
 70
     0
  9
$TREEDEPTH
 70
  3020
  9
$CMLSTYLE
  2
Standard
  9
$CMLJUST
 70
     0
  9
$CMLSCALE
 40
1.0
  9
$PROXYGRAPHICS
 70
     1
  9
$MEASUREMENT
 70
     0
  9
$CELWEIGHT
370
    -1
  9
$ENDCAPS
280
     0
  9
$JOINSTYLE
280
     0
  9
$LWDISPLAY
290
     0
  9
$INSUNITS
 70
     0
  9
$HYPERLINKBASE
  1

  9
$STYLESHEET
  1

  9
$XEDIT
290
     1
  9
$CEPSNTYPE
380
     0
  9
$PSTYLEMODE
290
     1
  9
$FINGERPRINTGUID
  2
{AA6EC39E-D8A0-4634-BF21-C27635E9AE5B}
  9
$VERSIONGUID
  2
{21839872-5F7A-40BB-BCD7-2B2D41C21574}
  9
$EXTNAMES
290
     1
  9
$PSVPSCALE
 40
0.0
  9
$OLESTARTUP
290
     0
  0
ENDSEC
  0
SECTION
  2
CLASSES
  0
CLASS
  1
ACDBDICTIONARYWDFLT
  2
AcDbDictionaryWithDefault
  3
AutoCAD 2000
 90
        0
280
     0
281
     0
  0
CLASS
  1
ACDBPLACEHOLDER
  2
AcDbPlaceHolder
  3
ObjectDBX Classes
 90
        0
280
     0
281
     0
  0
CLASS
  1
LAYOUT
  2
AcDbLayout
  3
ObjectDBX Classes
 90
        0
280
     0
281
     0
  0
CLASS
  1
DICTIONARYVAR
  2
AcDbDictionaryVar
  3
AutoCAD 2000
 90
        0
280
     0
281
     0
  0
CLASS
  1
TABLESTYLE
  2
AcDbTableStyle
  3
ObjectDBX Classes
 90
     2047
280
     1
281
     0
  0
CLASS
  1
SORTENTSTABLE
  2
AcDbSortentsTable
  3
AutoCAD 2000
 90
        0
280
     0
281
     0
  0
ENDSEC
  0
SECTION
  2
TABLES
  0
TABLE
  2
VPORT
  5
19
330
0
100
AcDbSymbolTable
 70
     2
  0
VPORT
  5
258
330
19
100
AcDbSymbolTableRecord
100
AcDbViewportTableRecord
  2
*Active
 70
     0
 10
0.0
 20
0.0
 11
1.0
 21
1.0
 12
4.770932697891091
 22
12.12663849555015
 13
0.0
 23
0.0
 14
0.0625
 24
0.0625
 15
0.5
 25
0.5
 16
0.0
 26
0.0
 36
1.0
 17
0.0
 27
0.0
 37
0.0
 40
29.23280260459923
 41
1.55012853470437
 42
50.0
 43
0.0
 44
0.0
 50
0.0
 51
0.0
 71
     0
 72
   100
 73
     1
 74
     1
 75
     0
 76
     0
 77
     0
 78
     0
281
     0
 65
     1
110
0.0
120
0.0
130
0.0
111
1.0
121
0.0
131
0.0
112
0.0
122
1.0
132
0.0
 79
     0
146
0.0
  0
ENDTAB
  0
TABLE
  2
LTYPE
  5
14
330
0
100
AcDbSymbolTable
 70
     2
  0
LTYPE
  5
15
330
14
100
AcDbSymbolTableRecord
100
AcDbLinetypeTableRecord
  2
ByBlock
 70
     0
  3

 72
    65
 73
     0
 40
0.0
  0
LTYPE
  5
16
330
14
100
AcDbSymbolTableRecord
100
AcDbLinetypeTableRecord
  2
ByLayer
 70
     0
  3

 72
    65
 73
     0
 40
0.0
  0
LTYPE
  5
8
330
14
100
AcDbSymbolTableRecord
100
AcDbLinetypeTableRecord
  2
CONTINUOUS
 70
     0
  3
Solid line
 72
    65
 73
     0
 40
0.0
  0
LTYPE
  5
242
330
14
100
AcDbSymbolTableRecord
100
AcDbLinetypeTableRecord
  2
HIDDEN
 70
     0
  3
Hidden __ __ __ __ __ __ __ __ __ __ __ __ __ _
 72
    65
 73
     2
 40
0.375
 49
0.25
 74
     0
 49
-0.125
 74
     0
  0
ENDTAB
  0
TABLE
  2
LAYER
  5
10
330
0
100
AcDbSymbolTable
 70
     2
  0
LAYER
  5
4
330
10
100
AcDbSymbolTableRecord
100
AcDbLayerTableRecord
  2
0
 70
     0
 62
     7
  6
CONTINUOUS
370
    -3
390
5
  0
ENDTAB
  0
TABLE
  2
STYLE
  5
11
330
0
100
AcDbSymbolTable
 70
     2
  0
STYLE
  5
12
330
11
100
AcDbSymbolTableRecord
100
AcDbTextStyleTableRecord
  2
STANDARD
 70
     0
 40
0.0
 41
1.0
 50
0.0
 71
     0
 42
0.27
  3
TXT
  4

  0
ENDTAB
  0
TABLE
  2
VIEW
  5
17
330
0
100
AcDbSymbolTable
 70
     0
  0
ENDTAB
  0
TABLE
  2
UCS
  5
18
330
0
100
AcDbSymbolTable
 70
     0
  0
ENDTAB
  0
TABLE
  2
APPID
  5
1B
330
0
100
AcDbSymbolTable
 70
     1
  0
APPID
  5
1C
330
1B
100
AcDbSymbolTableRecord
100
AcDbRegAppTableRecord
  2
ACAD
 70
     0
  0
ENDTAB
  0
TABLE
  2
DIMSTYLE
  5
1D
330
0
100
AcDbSymbolTable
 70
     1
100
AcDbDimStyleTable
  0
DIMSTYLE
105
24
330
1D
100
AcDbSymbolTableRecord
100
AcDbDimStyleTableRecord
  2
Standard
 70
     0
  3

  4

340
12
  0
ENDTAB
  0
TABLE
  2
BLOCK_RECORD
  5
1
330
0
100
AcDbSymbolTable
 70
     0
  0
BLOCK_RECORD
  5
2
102
{ACAD_XDICTIONARY
360
11E
102
}
330
1
100
AcDbSymbolTableRecord
100
AcDbBlockTableRecord
  2
*Model_Space
340
A
  0
BLOCK_RECORD
  5
C
330
1
100
AcDbSymbolTableRecord
100
AcDbBlockTableRecord
  2
*Paper_Space
340
F
  0
ENDTAB
  0
ENDSEC
  0
SECTION
  2
BLOCKS
  0
BLOCK
  5
3
330
2
100
AcDbEntity
  8
0
100
AcDbBlockBegin
  2
*Model_Space
 70
     0
 10
0.0
 20
0.0
 30
0.0
  3
*Model_Space
  1

  4

  0
ENDBLK
  5
9
330
2
100
AcDbEntity
  8
0
100
AcDbBlockEnd
  0
BLOCK
  5
D
330
C
100
AcDbEntity
 67
     1
  8
0
100
AcDbBlockBegin
  2
*Paper_Space
 70
     0
 10
0.0
 20
0.0
 30
0.0
  3
*Paper_Space
  1

  4

  0
ENDBLK
  5
E
330
C
100
AcDbEntity
 67
     1
  8
0
100
AcDbBlockEnd
  0
ENDSEC
  0
SECTION
  2
ENTITIES
  0
LINE
  5
16E
330
2
100
AcDbEntity
  8
0
100
AcDbLine
 10
0.7810240000000004
 20
0.0605458952292004
 30
0.0
 11
0.7810240000000004
 21
10.56787589522921
 31
0.0
  0
LINE
  5
16F
330
2
100
AcDbEntity
  8
0
100
AcDbLine
 10
-0.7814759999999996
 20
10.5678758952292
 30
0.0
 11
-0.7814759999999996
 21
0.0605458952292004
 31
0.0
  0
LINE
  5
170
330
2
100
AcDbEntity
  8
0
100
AcDbLine
 10
-0.708056
 20
-0.0534941047707989
 30
0.0
 11
0.7080560000000009
 21
-0.0534941047707989
 31
0.0
  0
LINE
  5
171
330
2
100
AcDbEntity
  8
0
100
AcDbLine
 10
-0.7189759999999996
 20
-0.0019541047707996
 30
0.0
 11
0.7185240000000004
 21
-0.0019541047707996
 31
0.0
  0
ARC
  5
173
330
2
100
AcDbEntity
  8
0
100
AcDbCircle
 10
-0.708056
 20
0.0715058952292011
 30
0.0
 40
0.125
100
AcDbArc
 50
180.0
 51
270.0
  0
ARC
  5
174
330
2
100
AcDbEntity
  8
0
100
AcDbCircle
 10
-0.7189759999999996
 20
0.0605458952292004
 30
0.0
 40
0.0625
100
AcDbArc
 50
180.0
 51
270.0
  0
LINE
  5
177
330
2
100
AcDbEntity
  8
0
100
AcDbLine
 10
-0.7814759999999996
 20
0.4439658952292014
 30
0.0
 11
-0.7814759999999996
 21
0.3264658952292017
 31
0.0
  0
ARC
  5
179
330
2
100
AcDbEntity
  8
0
100
AcDbCircle
 10
0.7185240000000004
 20
0.0605458952292004
 30
0.0
 40
0.0625
100
AcDbArc
 50
270.0
 51
0.0
  0
ARC
  5
17A
330
2
100
AcDbEntity
  8
0
100
AcDbCircle
 10
0.7080560000000009
 20
0.0715058952292011
 30
0.0
 40
0.125
100
AcDbArc
 50
270.0
 51
0.0
  0
LINE
  5
17D
330
2
100
AcDbEntity
  8
0
100
AcDbLine
 10
0.7810240000000004
 20
0.4439658952292014
 30
0.0
 11
0.7810240000000004
 21
0.3264658952292017
 31
0.0
  0
LINE
  5
17E
330
2
100
AcDbEntity
  8
0
100
AcDbLine
 10
-1.851766
 20
9.721845895229201
 30
0.0
 11
-2.959166
 21
10.8207058952292
 31
0.0
  0
CIRCLE
  5
17F
330
2
100
AcDbEntity
  8
0
100
AcDbCircle
 10
-1.958873
 20
10.3846458952292
 30
0.0
 40
0.0855
  0
LINE
  5
180
330
2
100
AcDbEntity
  8
0
100
AcDbLine
 10
-1.69544
 20
11.1230858952292
 30
0.0
 11
-2.431578999999999
 21
11.1230858952292
 31
0.0
  0
ARC
  5
181
330
2
100
AcDbEntity
  8
0
100
AcDbCircle
 10
-2.563556
 20
11.0135658952292
 30
0.0
 40
0.1715
100
AcDbArc
 50
355.6512
 51
184.3488
  0
ARC
  5
182
330
2
100
AcDbEntity
  8
0
100
AcDbCircle
 10
-2.563556
 20
10.8587558952292
 30
0.0
 40
0.1715
100
AcDbArc
 50
175.6512
 51
4.348846
  0
LINE
  5
183
330
2
100
AcDbEntity
  8
0
100
AcDbLine
 10
-2.959166
 20
11.1230858952292
 30
0.0
 11
-2.959166
 21
11.0709058952292
 31
0.0
  0
LINE
  5
184
330
2
100
AcDbEntity
  8
0
100
AcDbLine
 10
-2.959166
 20
10.8207058952292
 30
0.0
 11
-2.959166
 21
11.0709058952292
 31
0.0
  0
LINE
  5
185
330
2
100
AcDbEntity
  8
0
100
AcDbLine
 10
-2.734562
 20
10.8717658952292
 30
0.0
 11
-2.734562
 21
11.0005558952292
 31
0.0
  0
LINE
  5
186
330
2
100
AcDbEntity
  8
0
100
AcDbLine
 10
-2.695531999999999
 20
11.1230858952292
 30
0.0
 11
-2.959166
 21
11.1230858952292
 31
0.0
  0
LINE
  5
187
330
2
100
AcDbEntity
  8
0
100
AcDbLine
 10
-2.392549
 20
10.8717658952292
 30
0.0
 11
-2.392549
 21
11.0005558952292
 31
0.0
  0
LINE
  5
188
330
2
100
AcDbEntity
  8
0
100
AcDbLine
 10
-1.708075999999999
 20
4.906175895229202
 30
0.0
 11
-1.708075999999999
 21
9.352185895229201
 31
0.0
  0
LINE
  5
189
330
2
100
AcDbEntity
  8
0
100
AcDbLine
 10
-1.708075999999999
 20
8.309405895229201
 30
0.0
 11
-1.708075999999999
 21
9.352185895229201
 31
0.0
  0
LINE
  5
18A
330
2
100
AcDbEntity
  8
0
100
AcDbLine
 10
0.7810240000000004
 20
7.881465895229201
 30
0.0
 11
0.7810240000000004
 21
10.5678758952292
 31
0.0
  0
LINE
  5
18B
330
2
100
AcDbEntity
  8
0
100
AcDbLine
 10
1.707787000000002
 20
3.8409558952292
 30
0.0
 11
1.707787000000002
 21
9.352185895229201
 31
0.0
  0
LINE
  5
18D
330
2
100
AcDbEntity
  8
0
100
AcDbLine
 10
-0.833056
 20
10.6220758952292
 30
0.0
 11
-0.833056
 21
0.0715058952292012
 31
0.0
  0
LINE
  5
18F
330
2
100
AcDbEntity
  8
0
100
AcDbLine
 10
0.8330560000000009
 20
10.621907121995
 30
0.0
 11
0.8330560000000009
 21
0.0715058952292011
 31
0.0
  0
LINE
  5
190
330
2
100
AcDbEntity
  8
0
100
AcDbLine
 10
-1.708075999999999
 20
2.8325558952292
 30
0.0
 11
-1.708075999999999
 21
3.759665895229201
 31
0.0
  0
LINE
  5
191
330
2
100
AcDbEntity
  8
0
100
AcDbLine
 10
-1.270207999999999
 20
2.019295895229202
 30
0.0
 11
-1.708075999999999
 21
2.8325558952292
 31
0.0
  0
ARC
  5
192
330
2
100
AcDbEntity
  8
0
100
AcDbCircle
 10
-1.336768999999999
 20
1.5200058952292
 30
0.0
 40
0.5037125
100
AcDbArc
 50
0.0000000000001527
 51
82.40677
  0
ARC
  5
193
330
2
100
AcDbEntity
  8
0
100
AcDbCircle
 10
-1.941754
 20
4.322925895229203
 30
0.0
 40
0.4835864
100
AcDbArc
 50
315.5673
 51
0.0
  0
ARC
  5
194
330
2
100
AcDbEntity
  8
0
100
AcDbCircle
 10
-1.416503
 20
3.7548958952292
 30
0.0
 40
0.2916122
100
AcDbArc
 50
127.9603
 51
180.8635
  0
ARC
  5
195
330
2
100
AcDbEntity
  8
0
100
AcDbCircle
 10
-1.989208
 20
4.322925895229203
 30
0.0
 40
0.531041
100
AcDbArc
 50
0.0
 51
47.2855
  0
ARC
  5
196
330
2
100
AcDbEntity
  8
0
100
AcDbCircle
 10
-1.416541
 20
4.912865895229201
 30
0.0
 40
0.2916122
100
AcDbArc
 50
232.0397
 51
232.0397
  0
ARC
  5
197
330
2
100
AcDbEntity
  8
0
100
AcDbCircle
 10
-1.989208
 20
4.322925895229203
 30
0.0
 40
0.531041
100
AcDbArc
 50
53.52366000000001
 51
53.52366000000001
  0
ARC
  5
198
330
2
100
AcDbEntity
  8
0
100
AcDbCircle
 10
-1.416541
 20
4.912865895229201
 30
0.0
 40
0.2916122
100
AcDbArc
 50
179.1365
 51
222.6143
  0
ARC
  5
199
330
2
100
AcDbEntity
  8
0
100
AcDbCircle
 10
1.941448000000001
 20
3.2559458952292
 30
0.0
 40
0.4835864
100
AcDbArc
 50
180.0
 51
224.1876
  0
LINE
  5
19A
330
2
100
AcDbEntity
  8
0
100
AcDbLine
 10
1.270482000000001
 20
2.019295895229202
 30
0.0
 11
1.667079000000001
 21
2.756855895229201
 31
0.0
  0
ARC
  5
19B
330
2
100
AcDbEntity
  8
0
100
AcDbCircle
 10
1.270482000000001
 20
1.578035895229201
 30
0.0
 40
0.4412591
100
AcDbArc
 50
90.0
 51
172.4423
  0
ARC
  5
19C
330
2
100
AcDbEntity
  8
0
100
AcDbCircle
 10
1.270482000000001
 20
1.578035895229201
 30
0.0
 40
0.4412591
100
AcDbArc
 50
187.1682
 51
187.5577
  0
ARC
  5
19D
330
2
100
AcDbEntity
  8
0
100
AcDbCircle
 10
1.545487000000001
 20
2.799715895229202
 30
0.0
 40
0.1289244
100
AcDbArc
 50
326.2219
 51
68.81197
  0
ARC
  5
19F
330
2
100
AcDbEntity
  8
0
100
AcDbCircle
 10
1.988902
 20
3.2559458952292
 30
0.0
 40
0.531041
100
AcDbArc
 50
132.2519
 51
180.0
  0
ARC
  5
1A0
330
2
100
AcDbEntity
  8
0
100
AcDbCircle
 10
1.416207
 20
3.845345895229201
 30
0.0
 40
0.2916122
100
AcDbArc
 50
317.3857
 51
0.8635444999999999
  0
CIRCLE
  5
1A1
330
2
100
AcDbEntity
  8
0
100
AcDbCircle
 10
-1.395074
 20
8.511365895229201
 30
0.0
 40
0.0855
  0
LINE
  5
1A2
330
2
100
AcDbEntity
  8
0
100
AcDbLine
 10
1.707787000000002
 20
8.448865895229201
 30
0.0
 11
1.707787000000002
 21
7.638965895229202
 31
0.0
  0
CIRCLE
  5
1A3
330
2
100
AcDbEntity
  8
0
100
AcDbCircle
 10
1.396293
 20
8.511365895229201
 30
0.0
 40
0.0855
  0
LINE
  5
1A4
330
2
100
AcDbEntity
  8
0
100
AcDbLine
 10
-1.735849
 20
10.1051858952292
 30
0.0
 11
-1.735849
 21
11.0117558952292
 31
0.0
  0
LINE
  5
1A5
330
2
100
AcDbEntity
  8
0
100
AcDbLine
 10
-1.392859
 20
10.1061058952292
 30
0.0
 11
-1.392859
 21
11.0108458952292
 31
0.0
  0
LINE
  5
1A6
330
2
100
AcDbEntity
  8
0
100
AcDbLine
 10
-1.141695
 20
10.9463758952292
 30
0.0
 11
-0.7814759999999996
 21
10.5678758952292
 31
0.0
  0
ARC
  5
1A7
330
2
100
AcDbEntity
  8
0
100
AcDbCircle
 10
-2.255431
 20
9.352185895229201
 30
0.0
 40
0.547355
100
AcDbArc
 50
0.0000000000001527
 51
42.48254
  0
ARC
  5
1A8
330
2
100
AcDbEntity
  8
0
100
AcDbCircle
 10
-1.564350999999999
 20
10.1044458952292
 30
0.0
 40
0.1715
100
AcDbArc
 50
179.7507
 51
0.5540603
  0
LINE
  5
1A9
330
2
100
AcDbEntity
  8
0
100
AcDbLine
 10
-1.141695
 20
11.1230858952292
 30
0.0
 11
-1.433261
 21
11.1230858952292
 31
0.0
  0
ARC
  5
1AA
330
2
100
AcDbEntity
  8
0
100
AcDbCircle
 10
-1.564350999999999
 20
11.0125058952292
 30
0.0
 40
0.1715
100
AcDbArc
 50
359.446
 51
180.2493
  0
LINE
  5
1AB
330
2
100
AcDbEntity
  8
0
100
AcDbLine
 10
-1.141695
 20
11.0709058952292
 30
0.0
 11
-1.141695
 21
11.1230858952292
 31
0.0
  0
LINE
  5
1AC
330
2
100
AcDbEntity
  8
0
100
AcDbLine
 10
-1.141695
 20
11.0709058952292
 30
0.0
 11
-1.141695
 21
10.9463758952292
 31
0.0
  0
LINE
  5
1AD
330
2
100
AcDbEntity
  8
0
100
AcDbLine
 10
1.851477000000001
 20
9.721845895229201
 30
0.0
 11
2.955734000000001
 21
10.8207058952292
 31
0.0
  0
LINE
  5
1AE
330
2
100
AcDbEntity
  8
0
100
AcDbLine
 10
1.39574
 20
10.1061058952292
 30
0.0
 11
1.39574
 21
11.0108458952292
 31
0.0
  0
LINE
  5
1AF
330
2
100
AcDbEntity
  8
0
100
AcDbLine
 10
1.738729000000001
 20
10.1051858952292
 30
0.0
 11
1.738729000000001
 21
11.0117558952292
 31
0.0
  0
LINE
  5
1B0
330
2
100
AcDbEntity
  8
0
100
AcDbLine
 10
1.145519
 20
10.9463758952292
 30
0.0
 11
0.7810240000000004
 21
10.5678758952292
 31
0.0
  0
ARC
  5
1B1
330
2
100
AcDbEntity
  8
0
100
AcDbCircle
 10
2.255144
 20
9.352185895229201
 30
0.0
 40
0.547355
100
AcDbArc
 50
137.5175
 51
180.0
  0
ARC
  5
1B2
330
2
100
AcDbEntity
  8
0
100
AcDbCircle
 10
1.567231000000001
 20
10.1044458952292
 30
0.0
 40
0.1715
100
AcDbArc
 50
179.4459
 51
0.2493315
  0
CIRCLE
  5
1B3
330
2
100
AcDbEntity
  8
0
100
AcDbCircle
 10
1.959299
 20
10.3846458952292
 30
0.0
 40
0.0855
  0
LINE
  5
1B4
330
2
100
AcDbEntity
  8
0
100
AcDbLine
 10
2.434454000000001
 20
11.1230858952292
 30
0.0
 11
1.698320000000001
 21
11.1230858952292
 31
0.0
  0
LINE
  5
1B5
330
2
100
AcDbEntity
  8
0
100
AcDbLine
 10
1.436142
 20
11.1230858952292
 30
0.0
 11
1.145519
 21
11.1230858952292
 31
0.0
  0
LINE
  5
1B6
330
2
100
AcDbEntity
  8
0
100
AcDbLine
 10
1.145519
 20
11.1230858952292
 30
0.0
 11
1.145519
 21
11.0709058952292
 31
0.0
  0
LINE
  5
1B7
330
2
100
AcDbEntity
  8
0
100
AcDbLine
 10
1.145519
 20
11.0709058952292
 30
0.0
 11
1.145519
 21
10.9463758952292
 31
0.0
  0
ARC
  5
1B8
330
2
100
AcDbEntity
  8
0
100
AcDbCircle
 10
1.567231000000001
 20
11.0125058952292
 30
0.0
 40
0.1715
100
AcDbArc
 50
359.7507
 51
180.5541
  0
ARC
  5
1B9
330
2
100
AcDbEntity
  8
0
100
AcDbCircle
 10
2.566434000000001
 20
10.8587558952292
 30
0.0
 40
0.1715
100
AcDbArc
 50
175.6512
 51
4.348846
  0
ARC
  5
1BA
330
2
100
AcDbEntity
  8
0
100
AcDbCircle
 10
2.566434000000001
 20
11.0135658952292
 30
0.0
 40
0.1715
100
AcDbArc
 50
355.6512
 51
184.3488
  0
LINE
  5
1BB
330
2
100
AcDbEntity
  8
0
100
AcDbLine
 10
2.395434000000002
 20
10.8717658952292
 30
0.0
 11
2.395434000000002
 21
11.0005558952292
 31
0.0
  0
LINE
  5
1BC
330
2
100
AcDbEntity
  8
0
100
AcDbLine
 10
2.955734000000001
 20
11.0709058952292
 30
0.0
 11
2.955734000000001
 21
11.1230858952292
 31
0.0
  0
LINE
  5
1BD
330
2
100
AcDbEntity
  8
0
100
AcDbLine
 10
2.737444
 20
10.8717658952292
 30
0.0
 11
2.737444
 21
11.0005558952292
 31
0.0
  0
LINE
  5
1BE
330
2
100
AcDbEntity
  8
0
100
AcDbLine
 10
2.955734000000001
 20
10.8207058952292
 30
0.0
 11
2.955734000000001
 21
11.0709058952292
 31
0.0
  0
LINE
  5
1BF
330
2
100
AcDbEntity
  8
0
100
AcDbLine
 10
2.955734000000001
 20
11.1230858952292
 30
0.0
 11
2.698414
 21
11.1230858952292
 31
0.0
  0
ARC
  5
1F8
330
2
100
AcDbEntity
  8
0
100
AcDbCircle
 10
1.088404000000001
 20
3.694855895229201
 30
0.0
 40
0.062
100
AcDbArc
 50
323.2667
 51
42.18270000000002
  0
ARC
  5
1F9
330
2
100
AcDbEntity
  8
0
100
AcDbCircle
 10
1.061804
 20
3.689025895229202
 30
0.0
 40
0.031
100
AcDbArc
 50
322.8492
 51
41.67051000000001
  0
LINE
  5
1FA
330
2
100
AcDbEntity
  8
0
100
AcDbLine
 10
0.9673739999999995
 20
3.513075895229202
 30
0.0
 11
1.086514000000001
 21
3.6703058952292
 31
0.0
  0
LINE
  5
1FB
330
2
100
AcDbEntity
  8
0
100
AcDbLine
 10
0.981814
 20
3.4483558952292
 30
0.0
 11
0.9673739999999995
 21
3.513075895229202
 31
0.0
  0
LINE
  5
1FC
330
2
100
AcDbEntity
  8
0
100
AcDbLine
 10
1.138094000000001
 20
3.657765895229202
 30
0.0
 11
0.981814
 21
3.4483558952292
 31
0.0
  0
LINE
  5
1FD
330
2
100
AcDbEntity
  8
0
100
AcDbLine
 10
0.8330540000000006
 20
4.068965895229201
 30
0.0
 11
1.134344000000001
 21
3.736485895229201
 31
0.0
  0
LINE
  5
1FE
330
2
100
AcDbEntity
  8
0
100
AcDbLine
 10
0.8337040000000009
 20
3.991935895229201
 30
0.0
 11
1.084964000000001
 21
3.709635895229202
 31
0.0
  0
ARC
  5
1FF
330
2
100
AcDbEntity
  8
0
100
AcDbCircle
 10
-1.088403999999999
 20
4.694855895229201
 30
0.0
 40
0.062
100
AcDbArc
 50
137.8173
 51
216.7333
  0
ARC
  5
200
330
2
100
AcDbEntity
  8
0
100
AcDbCircle
 10
-1.061803999999999
 20
4.689025895229202
 30
0.0
 40
0.031
100
AcDbArc
 50
138.32949
 51
217.1508000000001
  0
LINE
  5
201
330
2
100
AcDbEntity
  8
0
100
AcDbLine
 10
-0.9673739999999995
 20
4.513075895229202
 30
0.0
 11
-1.086513999999999
 21
4.6703058952292
 31
0.0
  0
LINE
  5
202
330
2
100
AcDbEntity
  8
0
100
AcDbLine
 10
-0.981814
 20
4.4483558952292
 30
0.0
 11
-0.9673739999999995
 21
4.513075895229202
 31
0.0
  0
LINE
  5
203
330
2
100
AcDbEntity
  8
0
100
AcDbLine
 10
-1.138093999999999
 20
4.657765895229202
 30
0.0
 11
-0.981814
 21
4.4483558952292
 31
0.0
  0
LINE
  5
204
330
2
100
AcDbEntity
  8
0
100
AcDbLine
 10
-0.8330539999999989
 20
5.068965895229201
 30
0.0
 11
-1.134343999999999
 21
4.736485895229201
 31
0.0
  0
LINE
  5
205
330
2
100
AcDbEntity
  8
0
100
AcDbLine
 10
-0.8337039999999991
 20
4.991935895229201
 30
0.0
 11
-1.084963999999999
 21
4.709635895229202
 31
0.0
  0
LINE
  5
244
330
2
100
AcDbEntity
  8
0
  6
HIDDEN
100
AcDbLine
 10
-2.959166
 20
11.0709058952292
 30
0.0
 11
-1.141695
 21
11.0709058952292
 31
0.0
  0
LINE
  5
245
330
2
100
AcDbEntity
  8
0
  6
HIDDEN
100
AcDbLine
 10
1.145519
 20
11.0709058952292
 30
0.0
 11
2.955734000000001
 21
11.0709058952292
 31
0.0
  0
ENDSEC
  0
SECTION
  2
OBJECTS
  0
DICTIONARY
  5
7
330
0
100
AcDbDictionary
281
     1
  3
ACAD_COLOR
350
116
  3
ACAD_GROUP
350
1F
  3
ACAD_LAYOUT
350
B
  3
ACAD_MATERIAL
350
115
  3
ACAD_MLINESTYLE
350
20
  3
ACAD_PLOTSETTINGS
350
21
  3
ACAD_PLOTSTYLENAME
350
6
  3
ACAD_TABLESTYLE
350
117
  3
ACDBHEADERROUNDTRIPXREC
350
25E
  3
AcDbVariableDictionary
350
111
  0
DICTIONARY
  5
11E
330
2
100
AcDbDictionary
280
     1
281
     1
  3
ACAD_SORTENTS
360
11F
  0
DICTIONARY
  5
116
102
{ACAD_REACTORS
330
7
102
}
330
7
100
AcDbDictionary
281
     1
  0
DICTIONARY
  5
1F
102
{ACAD_REACTORS
330
7
102
}
330
7
100
AcDbDictionary
281
     1
  0
DICTIONARY
  5
B
102
{ACAD_REACTORS
330
7
102
}
330
7
100
AcDbDictionary
281
     1
  3
Layout1
350
F
  3
Model
350
A
  0
DICTIONARY
  5
115
102
{ACAD_REACTORS
330
7
102
}
330
7
100
AcDbDictionary
281
     1
  0
DICTIONARY
  5
20
102
{ACAD_REACTORS
330
7
102
}
330
7
100
AcDbDictionary
281
     1
  3
Standard
350
23
  0
DICTIONARY
  5
21
102
{ACAD_REACTORS
330
7
102
}
330
7
100
AcDbDictionary
281
     1
  0
ACDBDICTIONARYWDFLT
  5
6
102
{ACAD_REACTORS
330
7
102
}
330
7
100
AcDbDictionary
281
     1
  3
Normal
350
5
100
AcDbDictionaryWithDefault
340
5
  0
DICTIONARY
  5
117
102
{ACAD_REACTORS
330
7
102
}
330
7
100
AcDbDictionary
281
     1
  3
Standard
350
118
  0
DICTIONARY
  5
25E
102
{ACAD_REACTORS
330
7
102
}
330
7
100
AcDbDictionary
281
     1
  3
COLORDICT
350
25F
  3
MATERIALDICT
350
260
  0
DICTIONARY
  5
111
102
{ACAD_REACTORS
330
7
102
}
330
7
100
AcDbDictionary
281
     1
  3
CTABLESTYLE
350
20D
  3
DIMASSOC
350
113
  3
HIDETEXT
350
112
  0
SORTENTSTABLE
  5
11F
102
{ACAD_REACTORS
330
11E
102
}
330
11E
100
AcDbSortentsTable
330
2
331
1B8
  5
17B
331
1AC
  5
16F
331
1B1
  5
174
331
1B4
  5
177
331
1AE
  5
171
331
17E
  5
133
331
195
  5
151
331
196
  5
152
331
1B0
  5
173
331
18A
  5
13F
331
181
  5
136
331
171
  5
126
331
1B6
  5
179
331
177
  5
12C
331
193
  5
14F
331
1F9
  5
15C
331
1A5
  5
168
331
17F
  5
134
331
170
  5
125
331
184
  5
139
331
191
  5
14D
331
189
  5
13E
331
183
  5
138
331
173
  5
128
331
1A4
  5
167
331
1FC
  5
15F
331
179
  5
12E
331
174
  5
129
331
1FB
  5
15E
331
1AA
  5
16D
331
17D
  5
132
331
202
  5
147
331
1FD
  5
160
331
198
  5
155
331
16E
  5
123
331
201
  5
146
331
197
  5
154
331
19C
  5
159
331
1BC
  5
17F
331
1AB
  5
16E
331
1AF
  5
172
331
1B7
  5
17A
331
187
  5
13C
331
19B
  5
158
331
1FF
  5
144
331
186
  5
13B
331
192
  5
14E
331
194
  5
150
331
18D
  5
142
331
185
  5
13A
331
199
  5
156
331
180
  5
135
331
1B3
  5
176
331
17A
  5
12F
331
1BF
  5
182
331
1A6
  5
169
331
1AD
  5
170
331
1BE
  5
181
331
1A8
  5
16B
331
1A7
  5
16A
331
1A3
  5
166
331
18F
  5
14B
331
182
  5
137
331
19D
  5
15A
331
1BB
  5
17E
331
19A
  5
157
331
1B5
  5
178
331
1A1
  5
164
331
1FE
  5
161
331
1A0
  5
163
331
200
  5
145
331
1BD
  5
180
331
1F8
  5
15B
331
18B
  5
140
331
1B2
  5
175
331
188
  5
13D
331
1B9
  5
17C
331
204
  5
149
331
205
  5
14A
331
203
  5
148
331
1FA
  5
15D
331
16F
  5
124
331
1BA
  5
17D
331
190
  5
14C
331
19F
  5
162
331
1A9
  5
16C
331
1A2
  5
165
  0
LAYOUT
  5
F
102
{ACAD_REACTORS
330
B
102
}
102
{ACAD_XDICTIONARY
360
261
102
}
330
B
100
AcDbPlotSettings
  1

  2
X:\Program Files\AutoCAD2002\plotters\DWF ePlot (optimized for plotting).pc3
  4

  6

 40
0.0
 41
0.0
 42
0.0
 43
0.0
 44
0.0
 45
0.0
 46
0.0
 47
0.0
 48
0.0
 49
0.0
140
0.0
141
0.0
142
1.0
143
1.0
 70
   688
 72
     0
 73
     0
 74
     5
  7

 75
    16
147
1.0
148
0.0
149
0.0
100
AcDbLayout
  1
Layout1
 70
     0
 71
     1
 10
0.0
 20
0.0
 11
12.0
 21
9.0
 12
0.0
 22
0.0
 32
0.0
 14
1.000000000000000E+20
 24
1.000000000000000E+20
 34
1.000000000000000E+20
 15
-1.000000000000000E+20
 25
-1.000000000000000E+20
 35
-1.000000000000000E+20
146
0.0
 13
0.0
 23
0.0
 33
0.0
 16
1.0
 26
0.0
 36
0.0
 17
0.0
 27
1.0
 37
0.0
 76
     0
330
C
  0
LAYOUT
  5
A
102
{ACAD_REACTORS
330
B
102
}
102
{ACAD_XDICTIONARY
360
263
102
}
330
B
100
AcDbPlotSettings
  1

  2
X:\Program Files\AutoCAD2002\plotters\DWF ePlot (optimized for plotting).pc3
  4

  6

 40
0.0
 41
0.0
 42
0.0
 43
0.0
 44
0.0
 45
0.0
 46
0.0
 47
0.0
 48
0.0
 49
0.0
140
0.0
141
0.0
142
1.0
143
1.0
 70
  1712
 72
     0
 73
     0
 74
     0
  7

 75
     0
147
1.0
148
0.0
149
0.0
100
AcDbLayout
  1
Model
 70
     1
 71
     0
 10
0.0
 20
0.0
 11
12.0
 21
9.0
 12
0.0
 22
0.0
 32
0.0
 14
0.0
 24
0.0
 34
0.0
 15
0.0
 25
0.0
 35
0.0
146
0.0
 13
0.0
 23
0.0
 33
0.0
 16
1.0
 26
0.0
 36
0.0
 17
0.0
 27
1.0
 37
0.0
 76
     0
330
2
  0
MLINESTYLE
  5
23
102
{ACAD_REACTORS
330
20
102
}
330
20
100
AcDbMlineStyle
  2
STANDARD
 70
     0
  3

 62
   256
 51
90.0
 52
90.0
 71
     2
 49
0.5
 62
   256
  6
BYLAYER
 49
-0.5
 62
   256
  6
BYLAYER
  0
ACDBPLACEHOLDER
  5
5
102
{ACAD_REACTORS
330
6
102
}
330
6
  0
ACAD_PROXY_OBJECT
  5
118
102
{ACAD_REACTORS
330
117
102
}
330
117
100
AcDbProxyObject
 90
      499
 91
      504
 95
   983063
 70
     0
 93
     1841
310
4214DD185B99185C9928B81E85EB51B8AE3F2E07A17AD46E2B8FC02B5E8DC0F42B1CFD028000000C1008070000C3001FDFF8000000C1003FBFF000000182007F7FE00000030400FEFFC00000060801FDFF8000000C1003FBFF00000018200000000000000681FA0B0000001820100E000186003FBFF000000182007F7FE000
310
00030400FEFFC00000060801FDFF8000000C1003FBFF000000182007F7FE000000304000AD7A3703D0AC73F4160000003040201C00030C007F7FE00000030400FEFFC00000060801FDFF8000000C1003FBFF000000182007F7FE00000030400FEFFC000000608000
340
12
340
12
340
12
 94
        0
  0
XRECORD
  5
25F
102
{ACAD_REACTORS
330
25E
102
}
330
25E
100
AcDbXrecord
340
116
  0
XRECORD
  5
260
102
{ACAD_REACTORS
330
25E
102
}
330
25E
100
AcDbXrecord
340
115
  0
DICTIONARYVAR
  5
20D
102
{ACAD_REACTORS
330
111
102
}
330
111
100
DictionaryVariables
280
     0
  1
STANDARD
  0
DICTIONARYVAR
  5
113
102
{ACAD_REACTORS
330
111
102
}
330
111
100
DictionaryVariables
280
     0
  1
2
  0
DICTIONARYVAR
  5
112
102
{ACAD_REACTORS
330
111
102
}
330
111
100
DictionaryVariables
280
     0
  1
1
  0
DICTIONARY
  5
261
330
F
100
AcDbDictionary
280
     1
281
     1
  3
ACAD_XREC_ROUNDTRIP
360
262
  0
DICTIONARY
  5
263
330
A
100
AcDbDictionary
280
     1
281
     1
  3
ACAD_XREC_ROUNDTRIP
360
264
  0
XRECORD
  5
262
102
{ACAD_REACTORS
330
261
102
}
330
261
100
AcDbXrecord
102
SHADEPLOT
 70
     0
102
SHADEPLOTRESLEVEL
 70
     2
102
SHADEPLOTCUSTOMDPI
 70
   300
  0
XRECORD
  5
264
102
{ACAD_REACTORS
330
263
102
}
330
263
100
AcDbXrecord
102
SHADEPLOT
 70
     0
102
SHADEPLOTRESLEVEL
 70
     2
102
SHADEPLOTCUSTOMDPI
 70
   300
  0
ENDSEC
  0
EOF
