  0
SECTION
  2
HEADER
  9
$ACADVER
  1
AC1015
  9
$ACADMAINTVER
 70
     6
  9
$DWGCODEPAGE
  3
ANSI_1252
  9
$INSBASE
 10
0.0
 20
0.0
 30
0.0
  9
$EXTMIN
 10
-13.59095107886049
 20
-0.0793824524191173
 30
0.0
  9
$EXTMAX
 10
13.59095107886049
 20
20.18394299816623
 30
0.0
  9
$LIMMIN
 10
0.0
 20
0.0
  9
$LIMMAX
 10
31.5
 20
24.0
  9
$ORTHOMODE
 70
     1
  9
$REGENMODE
 70
     1
  9
$FILLMODE
 70
     1
  9
$QTEXTMODE
 70
     0
  9
$MIRRTEXT
 70
     0
  9
$LTSCALE
 40
0.5
  9
$ATTMODE
 70
     1
  9
$TEXTSIZE
 40
0.27
  9
$TRACEWID
 40
0.05
  9
$TEXTSTYLE
  7
STANDARD
  9
$CLAYER
  8
0
  9
$CELTYPE
  6
ByLayer
  9
$CECOLOR
 62
   256
  9
$CELTSCALE
 40
1.0
  9
$DISPSILH
 70
     0
  9
$DIMSCALE
 40
1.0
  9
$DIMASZ
 40
0.375
  9
$DIMEXO
 40
0.0625
  9
$DIMDLI
 40
0.75
  9
$DIMRND
 40
0.0
  9
$DIMDLE
 40
0.0
  9
$DIMEXE
 40
0.18
  9
$DIMTP
 40
0.0
  9
$DIMTM
 40
0.0
  9
$DIMTXT
 40
0.27
  9
$DIMCEN
 40
-0.06
  9
$DIMTSZ
 40
0.0
  9
$DIMTOL
 70
     0
  9
$DIMLIM
 70
     0
  9
$DIMTIH
 70
     1
  9
$DIMTOH
 70
     1
  9
$DIMSE1
 70
     0
  9
$DIMSE2
 70
     0
  9
$DIMTAD
 70
     0
  9
$DIMZIN
 70
     0
  9
$DIMBLK
  1

  9
$DIMASO
 70
     0
  9
$DIMSHO
 70
     0
  9
$DIMPOST
  1

  9
$DIMAPOST
  1

  9
$DIMALT
 70
     0
  9
$DIMALTD
 70
     2
  9
$DIMALTF
 40
25.4
  9
$DIMLFAC
 40
1.0
  9
$DIMTOFL
 70
     0
  9
$DIMTVP
 40
0.0
  9
$DIMTIX
 70
     0
  9
$DIMSOXD
 70
     0
  9
$DIMSAH
 70
     0
  9
$DIMBLK1
  1

  9
$DIMBLK2
  1

  9
$DIMSTYLE
  2
Standard
  9
$DIMCLRD
 70
     0
  9
$DIMCLRE
 70
     0
  9
$DIMCLRT
 70
     0
  9
$DIMTFAC
 40
1.0
  9
$DIMGAP
 40
0.09
  9
$DIMJUST
 70
     0
  9
$DIMSD1
 70
     0
  9
$DIMSD2
 70
     0
  9
$DIMTOLJ
 70
     1
  9
$DIMTZIN
 70
     0
  9
$DIMALTZ
 70
     0
  9
$DIMALTTZ
 70
     0
  9
$DIMUPT
 70
     0
  9
$DIMDEC
 70
     3
  9
$DIMTDEC
 70
     3
  9
$DIMALTU
 70
     2
  9
$DIMALTTD
 70
     2
  9
$DIMTXSTY
  7
STANDARD
  9
$DIMAUNIT
 70
     0
  9
$DIMADEC
 70
     0
  9
$DIMALTRND
 40
0.0
  9
$DIMAZIN
 70
     0
  9
$DIMDSEP
 70
    46
  9
$DIMATFIT
 70
     3
  9
$DIMFRAC
 70
     0
  9
$DIMLDRBLK
  1

  9
$DIMLUNIT
 70
     2
  9
$DIMLWD
 70
    -2
  9
$DIMLWE
 70
    -2
  9
$DIMTMOVE
 70
     2
  9
$LUNITS
 70
     2
  9
$LUPREC
 70
     3
  9
$SKETCHINC
 40
0.1
  9
$FILLETRAD
 40
0.0
  9
$AUNITS
 70
     0
  9
$AUPREC
 70
     0
  9
$MENU
  1
ACAD
  9
$ELEVATION
 40
0.0
  9
$PELEVATION
 40
0.0
  9
$THICKNESS
 40
0.0
  9
$LIMCHECK
 70
     0
  9
$CHAMFERA
 40
0.0
  9
$CHAMFERB
 40
0.0
  9
$CHAMFERC
 40
0.0
  9
$CHAMFERD
 40
0.0
  9
$SKPOLY
 70
     0
  9
$TDCREATE
 40
2449212.781142824
  9
$TDUCREATE
 40
2449213.114476157
  9
$TDUPDATE
 40
2454160.606776609
  9
$TDUUPDATE
 40
2454160.940109942
  9
$TDINDWG
 40
0.0392681944
  9
$TDUSRTIMER
 40
0.0392681944
  9
$USRTIMER
 70
     1
  9
$ANGBASE
 50
0.0
  9
$ANGDIR
 70
     0
  9
$PDMODE
 70
     0
  9
$PDSIZE
 40
0.0
  9
$PLINEWID
 40
0.0
  9
$SPLFRAME
 70
     0
  9
$SPLINETYPE
 70
     6
  9
$SPLINESEGS
 70
     8
  9
$HANDSEED
  5
2F1
  9
$SURFTAB1
 70
     6
  9
$SURFTAB2
 70
     6
  9
$SURFTYPE
 70
     6
  9
$SURFU
 70
     6
  9
$SURFV
 70
     6
  9
$UCSBASE
  2

  9
$UCSNAME
  2

  9
$UCSORG
 10
0.0
 20
0.0
 30
0.0
  9
$UCSXDIR
 10
1.0
 20
0.0
 30
0.0
  9
$UCSYDIR
 10
0.0
 20
1.0
 30
0.0
  9
$UCSORTHOREF
  2

  9
$UCSORTHOVIEW
 70
     0
  9
$UCSORGTOP
 10
0.0
 20
0.0
 30
0.0
  9
$UCSORGBOTTOM
 10
0.0
 20
0.0
 30
0.0
  9
$UCSORGLEFT
 10
0.0
 20
0.0
 30
0.0
  9
$UCSORGRIGHT
 10
0.0
 20
0.0
 30
0.0
  9
$UCSORGFRONT
 10
0.0
 20
0.0
 30
0.0
  9
$UCSORGBACK
 10
0.0
 20
0.0
 30
0.0
  9
$PUCSBASE
  2

  9
$PUCSNAME
  2

  9
$PUCSORG
 10
0.0
 20
0.0
 30
0.0
  9
$PUCSXDIR
 10
1.0
 20
0.0
 30
0.0
  9
$PUCSYDIR
 10
0.0
 20
1.0
 30
0.0
  9
$PUCSORTHOREF
  2

  9
$PUCSORTHOVIEW
 70
     0
  9
$PUCSORGTOP
 10
0.0
 20
0.0
 30
0.0
  9
$PUCSORGBOTTOM
 10
0.0
 20
0.0
 30
0.0
  9
$PUCSORGLEFT
 10
0.0
 20
0.0
 30
0.0
  9
$PUCSORGRIGHT
 10
0.0
 20
0.0
 30
0.0
  9
$PUCSORGFRONT
 10
0.0
 20
0.0
 30
0.0
  9
$PUCSORGBACK
 10
0.0
 20
0.0
 30
0.0
  9
$USERI1
 70
     0
  9
$USERI2
 70
     0
  9
$USERI3
 70
     0
  9
$USERI4
 70
     0
  9
$USERI5
 70
     0
  9
$USERR1
 40
0.0
  9
$USERR2
 40
0.0
  9
$USERR3
 40
0.0
  9
$USERR4
 40
0.0
  9
$USERR5
 40
0.0
  9
$WORLDVIEW
 70
     1
  9
$SHADEDGE
 70
     3
  9
$SHADEDIF
 70
    70
  9
$TILEMODE
 70
     1
  9
$MAXACTVP
 70
    16
  9
$PINSBASE
 10
0.0
 20
0.0
 30
0.0
  9
$PLIMCHECK
 70
     0
  9
$PEXTMIN
 10
1.000000000000000E+20
 20
1.000000000000000E+20
 30
1.000000000000000E+20
  9
$PEXTMAX
 10
-1.000000000000000E+20
 20
-1.000000000000000E+20
 30
-1.000000000000000E+20
  9
$PLIMMIN
 10
0.0
 20
0.0
  9
$PLIMMAX
 10
12.0
 20
9.0
  9
$UNITMODE
 70
     0
  9
$VISRETAIN
 70
     0
  9
$PLINEGEN
 70
     1
  9
$PSLTSCALE
 70
     0
  9
$TREEDEPTH
 70
  3020
  9
$CMLSTYLE
  2
Standard
  9
$CMLJUST
 70
     0
  9
$CMLSCALE
 40
1.0
  9
$PROXYGRAPHICS
 70
     1
  9
$MEASUREMENT
 70
     0
  9
$CELWEIGHT
370
    -1
  9
$ENDCAPS
280
     0
  9
$JOINSTYLE
280
     0
  9
$LWDISPLAY
290
     0
  9
$INSUNITS
 70
     0
  9
$HYPERLINKBASE
  1

  9
$STYLESHEET
  1

  9
$XEDIT
290
     1
  9
$CEPSNTYPE
380
     0
  9
$PSTYLEMODE
290
     1
  9
$FINGERPRINTGUID
  2
{AA6EC39E-D8A0-4634-BF21-C27635E9AE5B}
  9
$VERSIONGUID
  2
{F0E0FB93-8050-4797-AF3E-C444FC8D0D54}
  9
$EXTNAMES
290
     1
  9
$PSVPSCALE
 40
0.0
  9
$OLESTARTUP
290
     0
  0
ENDSEC
  0
SECTION
  2
CLASSES
  0
CLASS
  1
ACDBDICTIONARYWDFLT
  2
AcDbDictionaryWithDefault
  3
AutoCAD 2000
 90
        0
280
     0
281
     0
  0
CLASS
  1
ACDBPLACEHOLDER
  2
AcDbPlaceHolder
  3
ObjectDBX Classes
 90
        0
280
     0
281
     0
  0
CLASS
  1
LAYOUT
  2
AcDbLayout
  3
ObjectDBX Classes
 90
        0
280
     0
281
     0
  0
CLASS
  1
DICTIONARYVAR
  2
AcDbDictionaryVar
  3
AutoCAD 2000
 90
        0
280
     0
281
     0
  0
CLASS
  1
TABLESTYLE
  2
AcDbTableStyle
  3
ObjectDBX Classes
 90
     2047
280
     1
281
     0
  0
CLASS
  1
SORTENTSTABLE
  2
AcDbSortentsTable
  3
AutoCAD 2000
 90
        0
280
     0
281
     0
  0
ENDSEC
  0
SECTION
  2
TABLES
  0
TABLE
  2
VPORT
  5
19
330
0
100
AcDbSymbolTable
 70
     2
  0
VPORT
  5
2E4
330
19
100
AcDbSymbolTableRecord
100
AcDbViewportTableRecord
  2
*Active
 70
     0
 10
0.0
 20
0.0
 11
1.0
 21
1.0
 12
8.954008631481328
 22
13.78916140374138
 13
0.0
 23
0.0
 14
0.0625
 24
0.0625
 15
0.5
 25
0.5
 16
0.0
 26
0.0
 36
1.0
 17
0.0
 27
0.0
 37
0.0
 40
29.35413010021913
 41
1.55012853470437
 42
50.0
 43
0.0
 44
0.0
 50
0.0
 51
0.0
 71
     0
 72
   100
 73
     1
 74
     1
 75
     0
 76
     0
 77
     0
 78
     0
281
     0
 65
     1
110
0.0
120
0.0
130
0.0
111
1.0
121
0.0
131
0.0
112
0.0
122
1.0
132
0.0
 79
     0
146
0.0
  0
ENDTAB
  0
TABLE
  2
LTYPE
  5
14
330
0
100
AcDbSymbolTable
 70
     2
  0
LTYPE
  5
15
330
14
100
AcDbSymbolTableRecord
100
AcDbLinetypeTableRecord
  2
ByBlock
 70
     0
  3

 72
    65
 73
     0
 40
0.0
  0
LTYPE
  5
16
330
14
100
AcDbSymbolTableRecord
100
AcDbLinetypeTableRecord
  2
ByLayer
 70
     0
  3

 72
    65
 73
     0
 40
0.0
  0
LTYPE
  5
8
330
14
100
AcDbSymbolTableRecord
100
AcDbLinetypeTableRecord
  2
CONTINUOUS
 70
     0
  3
Solid line
 72
    65
 73
     0
 40
0.0
  0
LTYPE
  5
242
330
14
100
AcDbSymbolTableRecord
100
AcDbLinetypeTableRecord
  2
HIDDEN
 70
     0
  3
Hidden __ __ __ __ __ __ __ __ __ __ __ __ __ _
 72
    65
 73
     2
 40
0.375
 49
0.25
 74
     0
 49
-0.125
 74
     0
  0
ENDTAB
  0
TABLE
  2
LAYER
  5
10
330
0
100
AcDbSymbolTable
 70
     2
  0
LAYER
  5
4
330
10
100
AcDbSymbolTableRecord
100
AcDbLayerTableRecord
  2
0
 70
     0
 62
     7
  6
CONTINUOUS
370
    -3
390
5
  0
ENDTAB
  0
TABLE
  2
STYLE
  5
11
330
0
100
AcDbSymbolTable
 70
     2
  0
STYLE
  5
12
330
11
100
AcDbSymbolTableRecord
100
AcDbTextStyleTableRecord
  2
STANDARD
 70
     0
 40
0.0
 41
1.0
 50
0.0
 71
     0
 42
0.27
  3
TXT
  4

  0
ENDTAB
  0
TABLE
  2
VIEW
  5
17
330
0
100
AcDbSymbolTable
 70
     0
  0
ENDTAB
  0
TABLE
  2
UCS
  5
18
330
0
100
AcDbSymbolTable
 70
     0
  0
ENDTAB
  0
TABLE
  2
APPID
  5
1B
330
0
100
AcDbSymbolTable
 70
     1
  0
APPID
  5
1C
330
1B
100
AcDbSymbolTableRecord
100
AcDbRegAppTableRecord
  2
ACAD
 70
     0
  0
ENDTAB
  0
TABLE
  2
DIMSTYLE
  5
1D
330
0
100
AcDbSymbolTable
 70
     1
100
AcDbDimStyleTable
  0
DIMSTYLE
105
24
330
1D
100
AcDbSymbolTableRecord
100
AcDbDimStyleTableRecord
  2
Standard
 70
     0
  3

  4

340
12
  0
ENDTAB
  0
TABLE
  2
BLOCK_RECORD
  5
1
330
0
100
AcDbSymbolTable
 70
     0
  0
BLOCK_RECORD
  5
2
102
{ACAD_XDICTIONARY
360
11E
102
}
330
1
100
AcDbSymbolTableRecord
100
AcDbBlockTableRecord
  2
*Model_Space
340
A
  0
BLOCK_RECORD
  5
C
330
1
100
AcDbSymbolTableRecord
100
AcDbBlockTableRecord
  2
*Paper_Space
340
F
  0
ENDTAB
  0
ENDSEC
  0
SECTION
  2
BLOCKS
  0
BLOCK
  5
3
330
2
100
AcDbEntity
  8
0
100
AcDbBlockBegin
  2
*Model_Space
 70
     0
 10
0.0
 20
0.0
 30
0.0
  3
*Model_Space
  1

  4

  0
ENDBLK
  5
9
330
2
100
AcDbEntity
  8
0
100
AcDbBlockEnd
  0
BLOCK
  5
D
330
C
100
AcDbEntity
 67
     1
  8
0
100
AcDbBlockBegin
  2
*Paper_Space
 70
     0
 10
0.0
 20
0.0
 30
0.0
  3
*Paper_Space
  1

  4

  0
ENDBLK
  5
E
330
C
100
AcDbEntity
 67
     1
  8
0
100
AcDbBlockEnd
  0
ENDSEC
  0
SECTION
  2
ENTITIES
  0
LINE
  5
123
330
2
100
AcDbEntity
  8
0
100
AcDbLine
 10
10.13690907886049
 20
1.146545895229199
 30
0.0
 11
10.57379307886049
 21
1.892965895229203
 31
0.0
  0
ARC
  5
124
330
2
100
AcDbEntity
  8
0
100
AcDbCircle
 10
15.53470107886049
 20
-0.0019541047707996
 30
0.0
 40
3.75625
100
AcDbArc
 50
156.46342
 51
180.0
  0
LINE
  5
125
330
2
100
AcDbEntity
  8
0
  6
HIDDEN
100
AcDbLine
 10
11.77881007886049
 20
0.0499758952291991
 30
0.0
 11
9.77845107886049
 21
0.0499758952291991
 31
0.0
  0
LINE
  5
126
330
2
100
AcDbEntity
  8
0
100
AcDbLine
 10
9.77845107886049
 20
-0.0019541047707996
 30
0.0
 11
11.77845107886049
 21
-0.0019541047707996
 31
0.0
  0
LINE
  5
127
330
2
100
AcDbEntity
  8
0
100
AcDbLine
 10
9.77845107886049
 20
-0.0019541047707996
 30
0.0
 11
9.77845107886049
 21
0.5986058952292019
 31
0.0
  0
LINE
  5
128
330
2
100
AcDbEntity
  8
0
100
AcDbLine
 10
9.794385078860492
 20
0.6501358952292016
 30
0.0
 11
10.09881607886049
 21
1.167665895229202
 31
0.0
  0
ARC
  5
129
330
2
100
AcDbEntity
  8
0
100
AcDbCircle
 10
9.902171078860489
 20
0.588575895229198
 30
0.0
 40
0.1241263
100
AcDbArc
 50
184.37005
 51
184.37005
  0
ARC
  5
12A
330
2
100
AcDbEntity
  8
0
100
AcDbCircle
 10
9.902171078860489
 20
0.588575895229198
 30
0.0
 40
0.1241263
100
AcDbArc
 50
150.2688
 51
175.36401
  0
LINE
  5
12B
330
2
100
AcDbEntity
  8
0
100
AcDbLine
 10
10.09881607886049
 20
1.167665895229202
 30
0.0
 11
10.13690907886049
 21
1.146545895229199
 31
0.0
  0
LINE
  5
12C
330
2
100
AcDbEntity
  8
0
100
AcDbLine
 10
12.09095107886049
 20
1.498045895229193
 30
0.0
 11
12.09150104118174
 21
10.98316907063987
 31
0.0
  0
LINE
  5
12D
330
2
100
AcDbEntity
  8
0
100
AcDbLine
 10
11.02845107886049
 20
3.606335895229201
 30
0.0
 11
11.02845107886049
 21
9.716815895229203
 31
0.0
  0
LINE
  5
12E
330
2
100
AcDbEntity
  8
0
100
AcDbLine
 10
12.02845286991236
 20
11.02213329284049
 30
0.0
 11
12.03932207886049
 21
1.373451184174602
 31
0.0
  0
ARC
  5
12F
330
2
100
AcDbEntity
  8
0
100
AcDbCircle
 10
11.09095107886049
 20
3.3001458952292
 30
0.0
 40
0.3125
100
AcDbArc
 50
101.53696
 51
258.463
  0
LINE
  5
130
330
2
100
AcDbEntity
  8
0
100
AcDbLine
 10
10.53945907886049
 20
1.916755895229201
 30
0.0
 11
11.02845107886049
 21
2.7480458952292
 31
0.0
  0
LINE
  5
131
330
2
100
AcDbEntity
  8
0
100
AcDbLine
 10
10.57379307886049
 20
1.892965895229203
 30
0.0
 11
10.53945907886049
 21
1.916755895229201
 31
0.0
  0
LINE
  5
132
330
2
100
AcDbEntity
  8
0
100
AcDbLine
 10
11.02845107886049
 20
2.7480458952292
 30
0.0
 11
11.02845107886049
 21
2.993955895229203
 31
0.0
  0
LINE
  5
13E
330
2
100
AcDbEntity
  8
0
  6
HIDDEN
100
AcDbLine
 10
-0.9059039999999996
 20
18.87144299816623
 30
0.0
 11
-2.959159999999999
 21
18.87144299816623
 31
0.0
  0
LINE
  5
13F
330
2
100
AcDbEntity
  8
0
100
AcDbLine
 10
-0.8950560000000003
 20
18.81988999816623
 30
0.0
 11
-2.959159999999999
 21
18.81988999816623
 31
0.0
  0
LINE
  5
140
330
2
100
AcDbEntity
  8
0
100
AcDbLine
 10
-1.031008
 20
20.18394299816623
 30
0.0
 11
-2.959166
 21
20.18394299816623
 31
0.0
  0
LINE
  5
141
330
2
100
AcDbEntity
  8
0
100
AcDbLine
 10
-2.959166
 20
20.18394299816623
 30
0.0
 11
-2.959159999999999
 21
18.87144299816623
 31
0.0
  0
LINE
  5
142
330
2
100
AcDbEntity
  8
0
100
AcDbLine
 10
-2.735042
 20
18.93119499816623
 30
0.0
 11
-2.735042
 21
20.18394299816623
 31
0.0
  0
LINE
  5
143
330
2
100
AcDbEntity
  8
0
100
AcDbLine
 10
-2.392052
 20
18.93028299816623
 30
0.0
 11
-2.392052
 21
20.18394299816623
 31
0.0
  0
CIRCLE
  5
144
330
2
100
AcDbEntity
  8
0
100
AcDbCircle
 10
-2.031476
 20
19.74644299816623
 30
0.0
 40
0.0855
  0
ARC
  5
145
330
2
100
AcDbEntity
  8
0
100
AcDbCircle
 10
-2.563549999999999
 20
18.92953699816623
 30
0.0
 40
0.1715
100
AcDbArc
 50
219.7428
 51
320.25723
  0
LINE
  5
146
330
2
100
AcDbEntity
  8
0
100
AcDbLine
 10
-2.959159999999999
 20
18.81988999816623
 30
0.0
 11
-2.959159999999999
 21
18.87144299816623
 31
0.0
  0
ARC
  5
147
330
2
100
AcDbEntity
  8
0
100
AcDbCircle
 10
-2.563549999999999
 20
18.92953699816623
 30
0.0
 40
0.1715
100
AcDbArc
 50
179.4459
 51
199.8001
  0
ARC
  5
148
330
2
100
AcDbEntity
  8
0
100
AcDbCircle
 10
-2.563549999999999
 20
18.92953699816623
 30
0.0
 40
0.1715
100
AcDbArc
 50
340.19988
 51
0.2493000000000296
  0
LINE
  5
149
330
2
100
AcDbEntity
  8
0
100
AcDbLine
 10
0.8330660000000005
 20
16.55894299816623
 30
0.0
 11
0.8330660000000005
 21
18.55894299816623
 31
0.0
  0
LINE
  5
14A
330
2
100
AcDbEntity
  8
0
100
AcDbLine
 10
-0.833056
 20
18.55894299816623
 30
0.0
 11
-0.8330560000000009
 21
16.55894299816623
 31
0.0
  0
LINE
  5
14B
330
2
100
AcDbEntity
  8
0
100
AcDbLine
 10
0.7812110000000008
 20
18.55894299816623
 30
0.0
 11
-0.7809039999999996
 21
18.55894299816623
 31
0.0
  0
LINE
  5
14C
330
2
100
AcDbEntity
  8
0
100
AcDbLine
 10
-0.833056
 20
18.55894299816623
 30
0.0
 11
-0.833056
 21
18.75788999816623
 31
0.0
  0
LINE
  5
14D
330
2
100
AcDbEntity
  8
0
100
AcDbLine
 10
-0.7809039999999996
 20
16.55894299816623
 30
0.0
 11
-0.7809039999999996
 21
18.74644299816623
 31
0.0
  0
LINE
  5
14E
330
2
100
AcDbEntity
  8
0
100
AcDbLine
 10
-1.031008
 20
18.87144299816623
 30
0.0
 11
-1.031008
 21
20.18394299816623
 31
0.0
  0
LINE
  5
14F
330
2
100
AcDbEntity
  8
0
100
AcDbLine
 10
-1.734512
 20
18.94212999816623
 30
0.0
 11
-1.734512
 21
20.18394299816623
 31
0.0
  0
LINE
  5
150
330
2
100
AcDbEntity
  8
0
100
AcDbLine
 10
-1.392499999999999
 20
18.94212999816623
 30
0.0
 11
-1.392499999999999
 21
20.18394299816623
 31
0.0
  0
ARC
  5
151
330
2
100
AcDbEntity
  8
0
100
AcDbCircle
 10
-1.563506
 20
18.92912599816623
 30
0.0
 40
0.1715
100
AcDbArc
 50
219.5642
 51
320.43583
  0
ARC
  5
152
330
2
100
AcDbEntity
  8
0
100
AcDbCircle
 10
-1.563506
 20
18.92912599816623
 30
0.0
 40
0.1715
100
AcDbArc
 50
175.6512
 51
199.654
  0
ARC
  5
153
330
2
100
AcDbEntity
  8
0
100
AcDbCircle
 10
-1.563506
 20
18.92912599816623
 30
0.0
 40
0.1715
100
AcDbArc
 50
340.34596
 51
4.348799999999987
  0
ARC
  5
154
330
2
100
AcDbEntity
  8
0
100
AcDbCircle
 10
-0.8950560000000003
 20
18.75788999816623
 30
0.0
 40
0.062
100
AcDbArc
 50
359.9999999999996
 51
90.00000000000003
  0
ARC
  5
155
330
2
100
AcDbEntity
  8
0
100
AcDbCircle
 10
-0.9059039999999996
 20
18.74644299816623
 30
0.0
 40
0.125
100
AcDbArc
 50
0.0
 51
90.00000000000003
  0
LINE
  5
157
330
2
100
AcDbEntity
  8
0
100
AcDbLine
 10
0.8330560000000009
 20
18.55894299816623
 30
0.0
 11
0.8330560000000009
 21
18.75788999816623
 31
0.0
  0
LINE
  5
158
330
2
100
AcDbEntity
  8
0
100
AcDbLine
 10
0.7812110000000008
 20
16.55894299816623
 30
0.0
 11
0.7812110000000008
 21
18.74644299816623
 31
0.0
  0
LINE
  5
159
330
2
100
AcDbEntity
  8
0
  6
HIDDEN
100
AcDbLine
 10
0.9062110000000008
 20
18.87144299816623
 30
0.0
 11
2.955734000000001
 21
18.87144299816623
 31
0.0
  0
LINE
  5
15A
330
2
100
AcDbEntity
  8
0
100
AcDbLine
 10
0.8950560000000003
 20
18.81988999816623
 30
0.0
 11
2.955734000000001
 21
18.81988999816623
 31
0.0
  0
LINE
  5
15B
330
2
100
AcDbEntity
  8
0
100
AcDbLine
 10
1.031561
 20
20.18394299816623
 30
0.0
 11
2.955734000000001
 21
20.18394299816623
 31
0.0
  0
LINE
  5
15C
330
2
100
AcDbEntity
  8
0
100
AcDbLine
 10
1.031561
 20
18.87144299816623
 30
0.0
 11
1.031561
 21
20.18394299816623
 31
0.0
  0
LINE
  5
15D
330
2
100
AcDbEntity
  8
0
100
AcDbLine
 10
1.738187000000002
 20
18.92954099816623
 30
0.0
 11
1.738187000000002
 21
20.18394299816623
 31
0.0
  0
LINE
  5
15E
330
2
100
AcDbEntity
  8
0
100
AcDbLine
 10
1.395197
 20
18.93045299816623
 30
0.0
 11
1.395197
 21
20.18394299816623
 31
0.0
  0
ARC
  5
15F
330
2
100
AcDbEntity
  8
0
100
AcDbCircle
 10
0.8950560000000003
 20
18.75788999816623
 30
0.0
 40
0.062
100
AcDbArc
 50
90.00000000000003
 51
180.0
  0
ARC
  5
160
330
2
100
AcDbEntity
  8
0
100
AcDbCircle
 10
0.9062110000000008
 20
18.74644299816623
 30
0.0
 40
0.125
100
AcDbArc
 50
90.00000000000003
 51
180.0
  0
ARC
  5
161
330
2
100
AcDbEntity
  8
0
100
AcDbCircle
 10
1.567954
 20
18.92443699816623
 30
0.0
 40
0.1715
100
AcDbArc
 50
219.3782
 51
320.62178
  0
ARC
  5
162
330
2
100
AcDbEntity
  8
0
100
AcDbCircle
 10
1.566689
 20
18.92879399816623
 30
0.0
 40
0.1715
100
AcDbArc
 50
179.4459
 51
199.5367
  0
ARC
  5
163
330
2
100
AcDbEntity
  8
0
100
AcDbCircle
 10
1.566689
 20
18.92879399816623
 30
0.0
 40
0.1715
100
AcDbArc
 50
340.46334
 51
0.2493000000000296
  0
LINE
  5
164
330
2
100
AcDbEntity
  8
0
100
AcDbLine
 10
2.955734000000001
 20
20.18394299816623
 30
0.0
 11
2.955734000000001
 21
18.87144299816623
 31
0.0
  0
LINE
  5
165
330
2
100
AcDbEntity
  8
0
100
AcDbLine
 10
2.395684000000001
 20
18.94169999816623
 30
0.0
 11
2.395684000000001
 21
20.18394299816623
 31
0.0
  0
LINE
  5
166
330
2
100
AcDbEntity
  8
0
100
AcDbLine
 10
2.737704000000001
 20
18.94169999816623
 30
0.0
 11
2.737704000000001
 21
20.18394299816623
 31
0.0
  0
CIRCLE
  5
167
330
2
100
AcDbEntity
  8
0
100
AcDbCircle
 10
2.031024
 20
19.74644299816623
 30
0.0
 40
0.0855
  0
ARC
  5
168
330
2
100
AcDbEntity
  8
0
100
AcDbCircle
 10
2.566694
 20
18.92869499816623
 30
0.0
 40
0.1715
100
AcDbArc
 50
175.6512
 51
199.5017
  0
ARC
  5
169
330
2
100
AcDbEntity
  8
0
100
AcDbCircle
 10
2.566694
 20
18.92869499816623
 30
0.0
 40
0.1715
100
AcDbArc
 50
340.49831
 51
4.348799999999987
  0
ARC
  5
16A
330
2
100
AcDbEntity
  8
0
100
AcDbCircle
 10
2.566694
 20
18.92869499816623
 30
0.0
 40
0.1715
100
AcDbArc
 50
219.3782
 51
320.62178
  0
LINE
  5
16B
330
2
100
AcDbEntity
  8
0
100
AcDbLine
 10
2.955734000000001
 20
18.81988999816623
 30
0.0
 11
2.955734000000001
 21
18.87144299816623
 31
0.0
  0
LINE
  5
16D
330
2
100
AcDbEntity
  8
0
100
AcDbLine
 10
-0.833056
 20
16.55894299816623
 30
0.0
 11
0.8330660000000005
 21
16.55894299816623
 31
0.0
  0
LINE
  5
16E
330
2
100
AcDbEntity
  8
0
100
AcDbLine
 10
0.7810240000000004
 20
0.0605458952292004
 30
0.0
 11
0.7810240000000004
 21
10.56787589522921
 31
0.0
  0
LINE
  5
16F
330
2
100
AcDbEntity
  8
0
100
AcDbLine
 10
-0.7814759999999996
 20
10.5678758952292
 30
0.0
 11
-0.7814759999999996
 21
0.0605458952292004
 31
0.0
  0
LINE
  5
170
330
2
100
AcDbEntity
  8
0
100
AcDbLine
 10
-0.708056
 20
-0.0534941047707989
 30
0.0
 11
0.7080560000000009
 21
-0.0534941047707989
 31
0.0
  0
LINE
  5
171
330
2
100
AcDbEntity
  8
0
100
AcDbLine
 10
-0.7189759999999996
 20
-0.0019541047707996
 30
0.0
 11
0.7185240000000004
 21
-0.0019541047707996
 31
0.0
  0
ARC
  5
173
330
2
100
AcDbEntity
  8
0
100
AcDbCircle
 10
-0.708056
 20
0.0715058952292011
 30
0.0
 40
0.125
100
AcDbArc
 50
180.0
 51
270.0
  0
ARC
  5
174
330
2
100
AcDbEntity
  8
0
100
AcDbCircle
 10
-0.7189759999999996
 20
0.0605458952292004
 30
0.0
 40
0.0625
100
AcDbArc
 50
180.0
 51
270.0
  0
LINE
  5
177
330
2
100
AcDbEntity
  8
0
100
AcDbLine
 10
-0.7814759999999996
 20
0.4439658952292014
 30
0.0
 11
-0.7814759999999996
 21
0.3264658952292017
 31
0.0
  0
ARC
  5
179
330
2
100
AcDbEntity
  8
0
100
AcDbCircle
 10
0.7185240000000004
 20
0.0605458952292004
 30
0.0
 40
0.0625
100
AcDbArc
 50
270.0
 51
0.0
  0
ARC
  5
17A
330
2
100
AcDbEntity
  8
0
100
AcDbCircle
 10
0.7080560000000009
 20
0.0715058952292011
 30
0.0
 40
0.125
100
AcDbArc
 50
270.0
 51
0.0
  0
LINE
  5
17D
330
2
100
AcDbEntity
  8
0
100
AcDbLine
 10
0.7810240000000004
 20
0.4439658952292014
 30
0.0
 11
0.7810240000000004
 21
0.3264658952292017
 31
0.0
  0
LINE
  5
17E
330
2
100
AcDbEntity
  8
0
100
AcDbLine
 10
-1.851766
 20
9.721845895229201
 30
0.0
 11
-2.959166
 21
10.8207058952292
 31
0.0
  0
CIRCLE
  5
17F
330
2
100
AcDbEntity
  8
0
100
AcDbCircle
 10
-1.958873
 20
10.3846458952292
 30
0.0
 40
0.0855
  0
LINE
  5
180
330
2
100
AcDbEntity
  8
0
100
AcDbLine
 10
-1.69544
 20
11.1230858952292
 30
0.0
 11
-2.431578999999999
 21
11.1230858952292
 31
0.0
  0
ARC
  5
181
330
2
100
AcDbEntity
  8
0
100
AcDbCircle
 10
-2.563556
 20
11.0135658952292
 30
0.0
 40
0.1715
100
AcDbArc
 50
355.6512
 51
184.3488
  0
ARC
  5
182
330
2
100
AcDbEntity
  8
0
100
AcDbCircle
 10
-2.563556
 20
10.8587558952292
 30
0.0
 40
0.1715
100
AcDbArc
 50
175.6512
 51
4.348846
  0
LINE
  5
183
330
2
100
AcDbEntity
  8
0
100
AcDbLine
 10
-2.959166
 20
11.1230858952292
 30
0.0
 11
-2.959166
 21
11.0709058952292
 31
0.0
  0
LINE
  5
184
330
2
100
AcDbEntity
  8
0
100
AcDbLine
 10
-2.959166
 20
10.8207058952292
 30
0.0
 11
-2.959166
 21
11.0709058952292
 31
0.0
  0
LINE
  5
185
330
2
100
AcDbEntity
  8
0
100
AcDbLine
 10
-2.734562
 20
10.8717658952292
 30
0.0
 11
-2.734562
 21
11.0005558952292
 31
0.0
  0
LINE
  5
186
330
2
100
AcDbEntity
  8
0
100
AcDbLine
 10
-2.695531999999999
 20
11.1230858952292
 30
0.0
 11
-2.959166
 21
11.1230858952292
 31
0.0
  0
LINE
  5
187
330
2
100
AcDbEntity
  8
0
100
AcDbLine
 10
-2.392549
 20
10.8717658952292
 30
0.0
 11
-2.392549
 21
11.0005558952292
 31
0.0
  0
LINE
  5
188
330
2
100
AcDbEntity
  8
0
100
AcDbLine
 10
-1.708075999999999
 20
4.906175895229202
 30
0.0
 11
-1.708075999999999
 21
9.352185895229201
 31
0.0
  0
LINE
  5
189
330
2
100
AcDbEntity
  8
0
100
AcDbLine
 10
-1.708075999999999
 20
8.309405895229201
 30
0.0
 11
-1.708075999999999
 21
9.352185895229201
 31
0.0
  0
LINE
  5
18A
330
2
100
AcDbEntity
  8
0
100
AcDbLine
 10
0.7810240000000004
 20
7.881465895229201
 30
0.0
 11
0.7810240000000004
 21
10.5678758952292
 31
0.0
  0
LINE
  5
18B
330
2
100
AcDbEntity
  8
0
100
AcDbLine
 10
1.707787000000002
 20
3.8409558952292
 30
0.0
 11
1.707787000000002
 21
9.352185895229201
 31
0.0
  0
LINE
  5
18D
330
2
100
AcDbEntity
  8
0
100
AcDbLine
 10
-0.833056
 20
10.6220758952292
 30
0.0
 11
-0.833056
 21
0.0715058952292012
 31
0.0
  0
LINE
  5
18F
330
2
100
AcDbEntity
  8
0
100
AcDbLine
 10
0.8330560000000009
 20
10.621907121995
 30
0.0
 11
0.8330560000000009
 21
0.0715058952292011
 31
0.0
  0
LINE
  5
190
330
2
100
AcDbEntity
  8
0
100
AcDbLine
 10
-1.708075999999999
 20
2.8325558952292
 30
0.0
 11
-1.708075999999999
 21
3.759665895229201
 31
0.0
  0
LINE
  5
191
330
2
100
AcDbEntity
  8
0
100
AcDbLine
 10
-1.270207999999999
 20
2.019295895229202
 30
0.0
 11
-1.708075999999999
 21
2.8325558952292
 31
0.0
  0
ARC
  5
192
330
2
100
AcDbEntity
  8
0
100
AcDbCircle
 10
-1.336768999999999
 20
1.5200058952292
 30
0.0
 40
0.5037125
100
AcDbArc
 50
0.0000000000001527
 51
82.40677
  0
ARC
  5
193
330
2
100
AcDbEntity
  8
0
100
AcDbCircle
 10
-1.941754
 20
4.322925895229203
 30
0.0
 40
0.4835864
100
AcDbArc
 50
315.5673
 51
0.0
  0
ARC
  5
194
330
2
100
AcDbEntity
  8
0
100
AcDbCircle
 10
-1.416503
 20
3.7548958952292
 30
0.0
 40
0.2916122
100
AcDbArc
 50
127.9603
 51
180.8635
  0
ARC
  5
195
330
2
100
AcDbEntity
  8
0
100
AcDbCircle
 10
-1.989208
 20
4.322925895229203
 30
0.0
 40
0.531041
100
AcDbArc
 50
0.0
 51
47.2855
  0
ARC
  5
196
330
2
100
AcDbEntity
  8
0
100
AcDbCircle
 10
-1.416541
 20
4.912865895229201
 30
0.0
 40
0.2916122
100
AcDbArc
 50
232.0397
 51
232.0397
  0
ARC
  5
197
330
2
100
AcDbEntity
  8
0
100
AcDbCircle
 10
-1.989208
 20
4.322925895229203
 30
0.0
 40
0.531041
100
AcDbArc
 50
53.52366000000001
 51
53.52366000000001
  0
ARC
  5
198
330
2
100
AcDbEntity
  8
0
100
AcDbCircle
 10
-1.416541
 20
4.912865895229201
 30
0.0
 40
0.2916122
100
AcDbArc
 50
179.1365
 51
222.6143
  0
ARC
  5
199
330
2
100
AcDbEntity
  8
0
100
AcDbCircle
 10
1.941448000000001
 20
3.2559458952292
 30
0.0
 40
0.4835864
100
AcDbArc
 50
180.0
 51
224.1876
  0
LINE
  5
19A
330
2
100
AcDbEntity
  8
0
100
AcDbLine
 10
1.270482000000001
 20
2.019295895229202
 30
0.0
 11
1.667079000000001
 21
2.756855895229201
 31
0.0
  0
ARC
  5
19B
330
2
100
AcDbEntity
  8
0
100
AcDbCircle
 10
1.270482000000001
 20
1.578035895229201
 30
0.0
 40
0.4412591
100
AcDbArc
 50
90.0
 51
172.4423
  0
ARC
  5
19C
330
2
100
AcDbEntity
  8
0
100
AcDbCircle
 10
1.270482000000001
 20
1.578035895229201
 30
0.0
 40
0.4412591
100
AcDbArc
 50
187.1682
 51
187.5577
  0
ARC
  5
19D
330
2
100
AcDbEntity
  8
0
100
AcDbCircle
 10
1.545487000000001
 20
2.799715895229202
 30
0.0
 40
0.1289244
100
AcDbArc
 50
326.2219
 51
68.81197
  0
ARC
  5
19F
330
2
100
AcDbEntity
  8
0
100
AcDbCircle
 10
1.988902
 20
3.2559458952292
 30
0.0
 40
0.531041
100
AcDbArc
 50
132.2519
 51
180.0
  0
ARC
  5
1A0
330
2
100
AcDbEntity
  8
0
100
AcDbCircle
 10
1.416207
 20
3.845345895229201
 30
0.0
 40
0.2916122
100
AcDbArc
 50
317.3857
 51
0.8635444999999999
  0
CIRCLE
  5
1A1
330
2
100
AcDbEntity
  8
0
100
AcDbCircle
 10
-1.395074
 20
8.511365895229201
 30
0.0
 40
0.0855
  0
LINE
  5
1A2
330
2
100
AcDbEntity
  8
0
100
AcDbLine
 10
1.707787000000002
 20
8.448865895229201
 30
0.0
 11
1.707787000000002
 21
7.638965895229202
 31
0.0
  0
CIRCLE
  5
1A3
330
2
100
AcDbEntity
  8
0
100
AcDbCircle
 10
1.396293
 20
8.511365895229201
 30
0.0
 40
0.0855
  0
LINE
  5
1A4
330
2
100
AcDbEntity
  8
0
100
AcDbLine
 10
-1.735849
 20
10.1051858952292
 30
0.0
 11
-1.735849
 21
11.0117558952292
 31
0.0
  0
LINE
  5
1A5
330
2
100
AcDbEntity
  8
0
100
AcDbLine
 10
-1.392859
 20
10.1061058952292
 30
0.0
 11
-1.392859
 21
11.0108458952292
 31
0.0
  0
LINE
  5
1A6
330
2
100
AcDbEntity
  8
0
100
AcDbLine
 10
-1.141695
 20
10.9463758952292
 30
0.0
 11
-0.7814759999999996
 21
10.5678758952292
 31
0.0
  0
ARC
  5
1A7
330
2
100
AcDbEntity
  8
0
100
AcDbCircle
 10
-2.255431
 20
9.352185895229201
 30
0.0
 40
0.547355
100
AcDbArc
 50
0.0000000000001527
 51
42.48254
  0
ARC
  5
1A8
330
2
100
AcDbEntity
  8
0
100
AcDbCircle
 10
-1.564350999999999
 20
10.1044458952292
 30
0.0
 40
0.1715
100
AcDbArc
 50
179.7507
 51
0.5540603
  0
LINE
  5
1A9
330
2
100
AcDbEntity
  8
0
100
AcDbLine
 10
-1.141695
 20
11.1230858952292
 30
0.0
 11
-1.433261
 21
11.1230858952292
 31
0.0
  0
ARC
  5
1AA
330
2
100
AcDbEntity
  8
0
100
AcDbCircle
 10
-1.564350999999999
 20
11.0125058952292
 30
0.0
 40
0.1715
100
AcDbArc
 50
359.446
 51
180.2493
  0
LINE
  5
1AB
330
2
100
AcDbEntity
  8
0
100
AcDbLine
 10
-1.141695
 20
11.0709058952292
 30
0.0
 11
-1.141695
 21
11.1230858952292
 31
0.0
  0
LINE
  5
1AC
330
2
100
AcDbEntity
  8
0
100
AcDbLine
 10
-1.141695
 20
11.0709058952292
 30
0.0
 11
-1.141695
 21
10.9463758952292
 31
0.0
  0
LINE
  5
1AD
330
2
100
AcDbEntity
  8
0
100
AcDbLine
 10
1.851477000000001
 20
9.721845895229201
 30
0.0
 11
2.955734000000001
 21
10.8207058952292
 31
0.0
  0
LINE
  5
1AE
330
2
100
AcDbEntity
  8
0
100
AcDbLine
 10
1.39574
 20
10.1061058952292
 30
0.0
 11
1.39574
 21
11.0108458952292
 31
0.0
  0
LINE
  5
1AF
330
2
100
AcDbEntity
  8
0
100
AcDbLine
 10
1.738729000000001
 20
10.1051858952292
 30
0.0
 11
1.738729000000001
 21
11.0117558952292
 31
0.0
  0
LINE
  5
1B0
330
2
100
AcDbEntity
  8
0
100
AcDbLine
 10
1.145519
 20
10.9463758952292
 30
0.0
 11
0.7810240000000004
 21
10.5678758952292
 31
0.0
  0
ARC
  5
1B1
330
2
100
AcDbEntity
  8
0
100
AcDbCircle
 10
2.255144
 20
9.352185895229201
 30
0.0
 40
0.547355
100
AcDbArc
 50
137.5175
 51
180.0
  0
ARC
  5
1B2
330
2
100
AcDbEntity
  8
0
100
AcDbCircle
 10
1.567231000000001
 20
10.1044458952292
 30
0.0
 40
0.1715
100
AcDbArc
 50
179.4459
 51
0.2493315
  0
CIRCLE
  5
1B3
330
2
100
AcDbEntity
  8
0
100
AcDbCircle
 10
1.959299
 20
10.3846458952292
 30
0.0
 40
0.0855
  0
LINE
  5
1B4
330
2
100
AcDbEntity
  8
0
100
AcDbLine
 10
2.434454000000001
 20
11.1230858952292
 30
0.0
 11
1.698320000000001
 21
11.1230858952292
 31
0.0
  0
LINE
  5
1B5
330
2
100
AcDbEntity
  8
0
100
AcDbLine
 10
1.436142
 20
11.1230858952292
 30
0.0
 11
1.145519
 21
11.1230858952292
 31
0.0
  0
LINE
  5
1B6
330
2
100
AcDbEntity
  8
0
100
AcDbLine
 10
1.145519
 20
11.1230858952292
 30
0.0
 11
1.145519
 21
11.0709058952292
 31
0.0
  0
LINE
  5
1B7
330
2
100
AcDbEntity
  8
0
100
AcDbLine
 10
1.145519
 20
11.0709058952292
 30
0.0
 11
1.145519
 21
10.9463758952292
 31
0.0
  0
ARC
  5
1B8
330
2
100
AcDbEntity
  8
0
100
AcDbCircle
 10
1.567231000000001
 20
11.0125058952292
 30
0.0
 40
0.1715
100
AcDbArc
 50
359.7507
 51
180.5541
  0
ARC
  5
1B9
330
2
100
AcDbEntity
  8
0
100
AcDbCircle
 10
2.566434000000001
 20
10.8587558952292
 30
0.0
 40
0.1715
100
AcDbArc
 50
175.6512
 51
4.348846
  0
ARC
  5
1BA
330
2
100
AcDbEntity
  8
0
100
AcDbCircle
 10
2.566434000000001
 20
11.0135658952292
 30
0.0
 40
0.1715
100
AcDbArc
 50
355.6512
 51
184.3488
  0
LINE
  5
1BB
330
2
100
AcDbEntity
  8
0
100
AcDbLine
 10
2.395434000000002
 20
10.8717658952292
 30
0.0
 11
2.395434000000002
 21
11.0005558952292
 31
0.0
  0
LINE
  5
1BC
330
2
100
AcDbEntity
  8
0
100
AcDbLine
 10
2.955734000000001
 20
11.0709058952292
 30
0.0
 11
2.955734000000001
 21
11.1230858952292
 31
0.0
  0
LINE
  5
1BD
330
2
100
AcDbEntity
  8
0
100
AcDbLine
 10
2.737444
 20
10.8717658952292
 30
0.0
 11
2.737444
 21
11.0005558952292
 31
0.0
  0
LINE
  5
1BE
330
2
100
AcDbEntity
  8
0
100
AcDbLine
 10
2.955734000000001
 20
10.8207058952292
 30
0.0
 11
2.955734000000001
 21
11.0709058952292
 31
0.0
  0
LINE
  5
1BF
330
2
100
AcDbEntity
  8
0
100
AcDbLine
 10
2.955734000000001
 20
11.1230858952292
 30
0.0
 11
2.698414
 21
11.1230858952292
 31
0.0
  0
LINE
  5
1C0
330
2
100
AcDbEntity
  8
0
100
AcDbLine
 10
11.41534549487209
 20
3.585266920164738
 30
0.0
 11
11.36189737379282
 21
3.677969060663738
 31
0.0
  0
LINE
  5
1C1
330
2
100
AcDbEntity
  8
0
100
AcDbLine
 10
11.41534549487209
 20
3.585266920164738
 30
0.0
 11
11.50798399576078
 21
3.638825268282435
 31
0.0
  0
ARC
  5
1C2
330
2
100
AcDbEntity
  8
0
100
AcDbCircle
 10
11.41561399034852
 20
3.708941538863076
 30
0.0
 40
0.062
100
AcDbArc
 50
165.0000000000001
 51
209.9639
  0
ARC
  5
1C3
330
2
100
AcDbEntity
  8
0
100
AcDbCircle
 10
11.47695028031787
 20
3.692506529499067
 30
0.0
 40
0.062
100
AcDbArc
 50
300.0361000000001
 51
345.0000000000001
  0
ARC
  5
1C4
330
2
100
AcDbEntity
  8
0
100
AcDbCircle
 10
11.40108265362697
 20
3.409364692038949
 30
0.0
 40
0.062
100
AcDbArc
 50
300.0361000000001
 51
345.0000000000001
  0
ARC
  5
1C5
330
2
100
AcDbEntity
  8
0
100
AcDbCircle
 10
11.33974636365761
 20
3.425799701402958
 30
0.0
 40
0.062
100
AcDbArc
 50
165.0000000000001
 51
209.9639
  0
LINE
  5
1C6
330
2
100
AcDbEntity
  8
0
100
AcDbLine
 10
11.33947786818119
 20
3.302125082704624
 30
0.0
 11
11.43211636906988
 21
3.355683430822314
 31
0.0
  0
LINE
  5
1C7
330
2
100
AcDbEntity
  8
0
100
AcDbLine
 10
11.33947786818119
 20
3.302125082704624
 30
0.0
 11
11.28602974710192
 21
3.394827223203617
 31
0.0
  0
LINE
  5
1C8
330
2
100
AcDbEntity
  8
0
100
AcDbLine
 10
11.46097005485689
 20
3.393317911242594
 30
0.0
 11
11.65650007886049
 21
4.1230458952292
 31
0.0
  0
LINE
  5
1C9
330
2
100
AcDbEntity
  8
0
100
AcDbLine
 10
11.27985896242769
 20
3.441846482199317
 30
0.0
 11
11.47538898643129
 21
4.171574466185923
 31
0.0
  0
LINE
  5
1CA
330
2
100
AcDbEntity
  8
0
100
AcDbLine
 10
0.9580660000000005
 20
18.06910199816623
 30
0.0
 11
0.9532559999999997
 21
18.06420199816623
 31
0.0
  0
LINE
  5
1CB
330
2
100
AcDbEntity
  8
0
100
AcDbLine
 10
0.9697560000000003
 20
17.94410199816623
 30
0.0
 11
1.114566
 21
17.94410199816623
 31
0.0
  0
ARC
  5
1CC
330
2
100
AcDbEntity
  8
0
100
AcDbCircle
 10
0.9167760000000005
 20
18.00660199816623
 30
0.0
 40
0.015
100
AcDbArc
 50
135.0000000000001
 51
224.9999999999999
  0
ARC
  5
1CD
330
2
100
AcDbEntity
  8
0
100
AcDbCircle
 10
0.9709059999999994
 20
17.97510199816623
 30
0.0
 40
0.031
100
AcDbArc
 50
224.9999999999999
 51
270.0
  0
ARC
  5
1CE
330
2
100
AcDbEntity
  8
0
100
AcDbCircle
 10
0.9642760000000017
 20
18.05410199816623
 30
0.0
 40
0.015
100
AcDbArc
 50
90.00000000000003
 51
135.0000000000001
  0
ARC
  5
1CF
330
2
100
AcDbEntity
  8
0
100
AcDbCircle
 10
0.9768660000000011
 20
18.06668199816623
 30
0.0
 40
0.015
100
AcDbArc
 50
90.00000000000003
 51
135.0000000000001
  0
ARC
  5
1D0
330
2
100
AcDbEntity
  8
0
100
AcDbCircle
 10
1.118805999999999
 20
18.09668199816623
 30
0.0
 40
0.015
100
AcDbArc
 50
270.0
 51
0.0
  0
ARC
  5
1D1
330
2
100
AcDbEntity
  8
0
100
AcDbCircle
 10
1.118805999999999
 20
18.08410199816623
 30
0.0
 40
0.015
100
AcDbArc
 50
270.0
 51
0.0
  0
LINE
  5
1D2
330
2
100
AcDbEntity
  8
0
100
AcDbLine
 10
1.114566
 20
17.94410199816623
 30
0.0
 11
0.9709059999999994
 21
17.94410199816623
 31
0.0
  0
ARC
  5
1D3
330
2
100
AcDbEntity
  8
0
100
AcDbCircle
 10
1.118805999999999
 20
18.11650199816623
 30
0.0
 40
0.015
100
AcDbArc
 50
0.0
 51
59.14390000000005
  0
ARC
  5
1D4
330
2
100
AcDbEntity
  8
0
100
AcDbCircle
 10
1.130566
 20
18.12311199816623
 30
0.0
 40
0.015
100
AcDbArc
 50
0.0
 51
59.03629999999993
  0
ARC
  5
1D5
330
2
100
AcDbEntity
  8
0
100
AcDbCircle
 10
1.114566
 20
17.97510199816623
 30
0.0
 40
0.031
100
AcDbArc
 50
270.0
 51
0.0
  0
LINE
  5
1D6
330
2
100
AcDbEntity
  8
0
100
AcDbLine
 10
1.145566000000001
 20
17.97510199816623
 30
0.0
 11
1.145566000000001
 21
18.12311199816623
 31
0.0
  0
LINE
  5
1D7
330
2
100
AcDbEntity
  8
0
100
AcDbLine
 10
1.133796
 20
18.08410199816623
 30
0.0
 11
1.133796
 21
18.09668199816623
 31
0.0
  0
LINE
  5
1D8
330
2
100
AcDbEntity
  8
0
100
AcDbLine
 10
1.126496000000001
 20
18.12938199816623
 30
0.0
 11
0.8332260000000016
 21
18.30459199816623
 31
0.0
  0
LINE
  5
1D9
330
2
100
AcDbEntity
  8
0
100
AcDbLine
 10
1.133796
 20
18.09668199816623
 30
0.0
 11
1.133796
 21
18.11650199816623
 31
0.0
  0
LINE
  5
1DA
330
2
100
AcDbEntity
  8
0
100
AcDbLine
 10
0.9768660000000011
 20
18.08168199816623
 30
0.0
 11
1.118805999999999
 21
18.08168199816623
 31
0.0
  0
LINE
  5
1DB
330
2
100
AcDbEntity
  8
0
100
AcDbLine
 10
0.9580660000000005
 20
18.06910199816623
 30
0.0
 11
0.9662559999999996
 21
18.07729199816623
 31
0.0
  0
LINE
  5
1DC
330
2
100
AcDbEntity
  8
0
100
AcDbLine
 10
0.9642760000000017
 20
18.06910199816623
 30
0.0
 11
1.118805999999999
 21
18.06910199816623
 31
0.0
  0
LINE
  5
1DD
330
2
100
AcDbEntity
  8
0
100
AcDbLine
 10
0.9061760000000003
 20
18.01721199816623
 30
0.0
 11
0.9536760000000015
 21
18.06471199816623
 31
0.0
  0
LINE
  5
1DE
330
2
100
AcDbEntity
  8
0
100
AcDbLine
 10
0.9489859999999997
 20
17.95318199816623
 30
0.0
 11
0.9061760000000003
 21
17.99599199816623
 31
0.0
  0
LINE
  5
1DF
330
2
100
AcDbEntity
  8
0
100
AcDbLine
 10
0.8330660000000005
 20
18.13160199816623
 30
0.0
 11
0.9455660000000012
 21
18.05660199816623
 31
0.0
  0
LINE
  5
1E0
330
2
100
AcDbEntity
  8
0
100
AcDbLine
 10
0.8330660000000005
 20
18.31910199816623
 30
0.0
 11
1.138286000000001
 21
18.13597199816623
 31
0.0
  0
LINE
  5
1E1
330
2
100
AcDbEntity
  8
0
100
AcDbLine
 10
-0.9580560000000009
 20
18.06910199816623
 30
0.0
 11
-0.953246
 21
18.06420199816623
 31
0.0
  0
LINE
  5
1E2
330
2
100
AcDbEntity
  8
0
100
AcDbLine
 10
-0.9697460000000007
 20
17.94410199816623
 30
0.0
 11
-1.114556
 21
17.94410199816623
 31
0.0
  0
ARC
  5
1E3
330
2
100
AcDbEntity
  8
0
100
AcDbCircle
 10
-0.9167660000000009
 20
18.00660199816623
 30
0.0
 40
0.015
100
AcDbArc
 50
315.0
 51
45.00000000000001
  0
ARC
  5
1E4
330
2
100
AcDbEntity
  8
0
100
AcDbCircle
 10
-0.9708959999999998
 20
17.97510199816623
 30
0.0
 40
0.031
100
AcDbArc
 50
270.0
 51
315.0
  0
ARC
  5
1E5
330
2
100
AcDbEntity
  8
0
100
AcDbCircle
 10
-0.9642660000000021
 20
18.05410199816623
 30
0.0
 40
0.015
100
AcDbArc
 50
45.00000000000001
 51
90.00000000000003
  0
ARC
  5
1E6
330
2
100
AcDbEntity
  8
0
100
AcDbCircle
 10
-0.9768560000000015
 20
18.06668199816623
 30
0.0
 40
0.015
100
AcDbArc
 50
45.00000000000001
 51
90.00000000000003
  0
ARC
  5
1E7
330
2
100
AcDbEntity
  8
0
100
AcDbCircle
 10
-1.118796
 20
18.09668199816623
 30
0.0
 40
0.015
100
AcDbArc
 50
180.0
 51
270.0
  0
ARC
  5
1E8
330
2
100
AcDbEntity
  8
0
100
AcDbCircle
 10
-1.118796
 20
18.08410199816623
 30
0.0
 40
0.015
100
AcDbArc
 50
180.0
 51
270.0
  0
LINE
  5
1E9
330
2
100
AcDbEntity
  8
0
100
AcDbLine
 10
-1.114556
 20
17.94410199816623
 30
0.0
 11
-0.9708959999999998
 21
17.94410199816623
 31
0.0
  0
ARC
  5
1EA
330
2
100
AcDbEntity
  8
0
100
AcDbCircle
 10
-1.118796
 20
18.11650199816623
 30
0.0
 40
0.015
100
AcDbArc
 50
120.8561000000001
 51
180.0
  0
ARC
  5
1EB
330
2
100
AcDbEntity
  8
0
100
AcDbCircle
 10
-1.130556
 20
18.12311199816623
 30
0.0
 40
0.015
100
AcDbArc
 50
120.9637000000001
 51
180.0
  0
ARC
  5
1EC
330
2
100
AcDbEntity
  8
0
100
AcDbCircle
 10
-1.114556
 20
17.97510199816623
 30
0.0
 40
0.031
100
AcDbArc
 50
180.0
 51
270.0
  0
LINE
  5
1ED
330
2
100
AcDbEntity
  8
0
100
AcDbLine
 10
-1.145556000000001
 20
17.97510199816623
 30
0.0
 11
-1.145556000000001
 21
18.12311199816623
 31
0.0
  0
LINE
  5
1EE
330
2
100
AcDbEntity
  8
0
100
AcDbLine
 10
-1.133786000000001
 20
18.08410199816623
 30
0.0
 11
-1.133786000000001
 21
18.09668199816623
 31
0.0
  0
LINE
  5
1EF
330
2
100
AcDbEntity
  8
0
100
AcDbLine
 10
-1.126486000000002
 20
18.12938199816623
 30
0.0
 11
-0.833216000000002
 21
18.30459199816623
 31
0.0
  0
LINE
  5
1F0
330
2
100
AcDbEntity
  8
0
100
AcDbLine
 10
-1.133786000000001
 20
18.09668199816623
 30
0.0
 11
-1.133786000000001
 21
18.11650199816623
 31
0.0
  0
LINE
  5
1F1
330
2
100
AcDbEntity
  8
0
100
AcDbLine
 10
-0.9768560000000015
 20
18.08168199816623
 30
0.0
 11
-1.118796
 21
18.08168199816623
 31
0.0
  0
LINE
  5
1F2
330
2
100
AcDbEntity
  8
0
100
AcDbLine
 10
-0.9580560000000009
 20
18.06910199816623
 30
0.0
 11
-0.9662459999999999
 21
18.07729199816623
 31
0.0
  0
LINE
  5
1F3
330
2
100
AcDbEntity
  8
0
100
AcDbLine
 10
-0.9642660000000021
 20
18.06910199816623
 30
0.0
 11
-1.118796
 21
18.06910199816623
 31
0.0
  0
LINE
  5
1F4
330
2
100
AcDbEntity
  8
0
100
AcDbLine
 10
-0.9061660000000007
 20
18.01721199816623
 30
0.0
 11
-0.9536660000000019
 21
18.06471199816623
 31
0.0
  0
LINE
  5
1F5
330
2
100
AcDbEntity
  8
0
100
AcDbLine
 10
-0.948976
 20
17.95318199816623
 30
0.0
 11
-0.9061660000000007
 21
17.99599199816623
 31
0.0
  0
LINE
  5
1F6
330
2
100
AcDbEntity
  8
0
100
AcDbLine
 10
-0.8330560000000009
 20
18.13160199816623
 30
0.0
 11
-0.9455560000000016
 21
18.05660199816623
 31
0.0
  0
LINE
  5
1F7
330
2
100
AcDbEntity
  8
0
100
AcDbLine
 10
-0.8330560000000009
 20
18.31910199816623
 30
0.0
 11
-1.138276000000001
 21
18.13597199816623
 31
0.0
  0
ARC
  5
1F8
330
2
100
AcDbEntity
  8
0
100
AcDbCircle
 10
1.088404000000001
 20
3.694855895229201
 30
0.0
 40
0.062
100
AcDbArc
 50
323.2667
 51
42.18270000000002
  0
ARC
  5
1F9
330
2
100
AcDbEntity
  8
0
100
AcDbCircle
 10
1.061804
 20
3.689025895229202
 30
0.0
 40
0.031
100
AcDbArc
 50
322.8492
 51
41.67051000000001
  0
LINE
  5
1FA
330
2
100
AcDbEntity
  8
0
100
AcDbLine
 10
0.9673739999999995
 20
3.513075895229202
 30
0.0
 11
1.086514000000001
 21
3.6703058952292
 31
0.0
  0
LINE
  5
1FB
330
2
100
AcDbEntity
  8
0
100
AcDbLine
 10
0.981814
 20
3.4483558952292
 30
0.0
 11
0.9673739999999995
 21
3.513075895229202
 31
0.0
  0
LINE
  5
1FC
330
2
100
AcDbEntity
  8
0
100
AcDbLine
 10
1.138094000000001
 20
3.657765895229202
 30
0.0
 11
0.981814
 21
3.4483558952292
 31
0.0
  0
LINE
  5
1FD
330
2
100
AcDbEntity
  8
0
100
AcDbLine
 10
0.8330540000000006
 20
4.068965895229201
 30
0.0
 11
1.134344000000001
 21
3.736485895229201
 31
0.0
  0
LINE
  5
1FE
330
2
100
AcDbEntity
  8
0
100
AcDbLine
 10
0.8337040000000009
 20
3.991935895229201
 30
0.0
 11
1.084964000000001
 21
3.709635895229202
 31
0.0
  0
ARC
  5
1FF
330
2
100
AcDbEntity
  8
0
100
AcDbCircle
 10
-1.088403999999999
 20
4.694855895229201
 30
0.0
 40
0.062
100
AcDbArc
 50
137.8173
 51
216.7333
  0
ARC
  5
200
330
2
100
AcDbEntity
  8
0
100
AcDbCircle
 10
-1.061803999999999
 20
4.689025895229202
 30
0.0
 40
0.031
100
AcDbArc
 50
138.32949
 51
217.1508000000001
  0
LINE
  5
201
330
2
100
AcDbEntity
  8
0
100
AcDbLine
 10
-0.9673739999999995
 20
4.513075895229202
 30
0.0
 11
-1.086513999999999
 21
4.6703058952292
 31
0.0
  0
LINE
  5
202
330
2
100
AcDbEntity
  8
0
100
AcDbLine
 10
-0.981814
 20
4.4483558952292
 30
0.0
 11
-0.9673739999999995
 21
4.513075895229202
 31
0.0
  0
LINE
  5
203
330
2
100
AcDbEntity
  8
0
100
AcDbLine
 10
-1.138093999999999
 20
4.657765895229202
 30
0.0
 11
-0.981814
 21
4.4483558952292
 31
0.0
  0
LINE
  5
204
330
2
100
AcDbEntity
  8
0
100
AcDbLine
 10
-0.8330539999999989
 20
5.068965895229201
 30
0.0
 11
-1.134343999999999
 21
4.736485895229201
 31
0.0
  0
LINE
  5
205
330
2
100
AcDbEntity
  8
0
100
AcDbLine
 10
-0.8337039999999991
 20
4.991935895229201
 30
0.0
 11
-1.084963999999999
 21
4.709635895229202
 31
0.0
  0
LINE
  5
212
330
2
100
AcDbEntity
  8
0
100
AcDbLine
 10
-10.13736107886049
 20
1.146545895229199
 30
0.0
 11
-10.57424507886049
 21
1.892965895229203
 31
0.0
  0
ARC
  5
213
330
2
100
AcDbEntity
  8
0
100
AcDbCircle
 10
-15.53515307886049
 20
-0.0019541047707996
 30
0.0
 40
3.75625
100
AcDbArc
 50
0.000000000000007
 51
23.53658000000001
  0
LINE
  5
214
330
2
100
AcDbEntity
  8
0
  6
HIDDEN
100
AcDbLine
 10
-11.77926207886049
 20
0.0499758952291991
 30
0.0
 11
-9.778903078860489
 21
0.0499758952291991
 31
0.0
  0
LINE
  5
215
330
2
100
AcDbEntity
  8
0
100
AcDbLine
 10
-9.778903078860489
 20
-0.0019541047707996
 30
0.0
 11
-11.77890307886049
 21
-0.0019541047707996
 31
0.0
  0
LINE
  5
216
330
2
100
AcDbEntity
  8
0
100
AcDbLine
 10
-9.778903078860489
 20
-0.0019541047707996
 30
0.0
 11
-9.778903078860489
 21
0.5986058952292019
 31
0.0
  0
LINE
  5
217
330
2
100
AcDbEntity
  8
0
100
AcDbLine
 10
-9.794837078860491
 20
0.6501358952292016
 30
0.0
 11
-10.09926807886049
 21
1.167665895229202
 31
0.0
  0
ARC
  5
218
330
2
100
AcDbEntity
  8
0
100
AcDbCircle
 10
-9.902623078860488
 20
0.588575895229198
 30
0.0
 40
0.1241263
100
AcDbArc
 50
355.62995
 51
355.62995
  0
ARC
  5
219
330
2
100
AcDbEntity
  8
0
100
AcDbCircle
 10
-9.902623078860488
 20
0.588575895229198
 30
0.0
 40
0.1241263
100
AcDbArc
 50
4.635989999999994
 51
29.7312
  0
LINE
  5
21A
330
2
100
AcDbEntity
  8
0
100
AcDbLine
 10
-10.09926807886049
 20
1.167665895229202
 30
0.0
 11
-10.13736107886049
 21
1.146545895229199
 31
0.0
  0
LINE
  5
21B
330
2
100
AcDbEntity
  8
0
100
AcDbLine
 10
-12.09140307886049
 20
1.498045895229193
 30
0.0
 11
-12.09140307886049
 21
11.0094058952292
 31
0.0
  0
LINE
  5
21C
330
2
100
AcDbEntity
  8
0
100
AcDbLine
 10
-11.0289030736919
 20
4.666702112022065
 30
0.0
 11
-11.02890307886049
 21
9.716815895229203
 31
0.0
  0
LINE
  5
21D
330
2
100
AcDbEntity
  8
0
100
AcDbLine
 10
-12.02845286991236
 20
11.02213329284049
 30
0.0
 11
-12.03977407886049
 21
1.373451184174602
 31
0.0
  0
LINE
  5
21F
330
2
100
AcDbEntity
  8
0
100
AcDbLine
 10
-10.53991107886049
 20
1.916755895229201
 30
0.0
 11
-11.02890307886049
 21
2.7480458952292
 31
0.0
  0
LINE
  5
220
330
2
100
AcDbEntity
  8
0
100
AcDbLine
 10
-10.57424507886049
 20
1.892965895229203
 30
0.0
 11
-10.53991107886049
 21
1.916755895229201
 31
0.0
  0
LINE
  5
221
330
2
100
AcDbEntity
  8
0
100
AcDbLine
 10
-11.02890307886049
 20
2.7480458952292
 30
0.0
 11
-11.02890285993361
 21
4.05432972206965
 31
0.0
  0
ARC
  5
222
330
2
100
AcDbEntity
  8
0
100
AcDbCircle
 10
-11.09140307886049
 20
4.360515895229202
 30
0.0
 40
0.3125
100
AcDbArc
 50
281.537
 51
78.46304000000004
  0
LINE
  5
236
330
2
100
AcDbEntity
  8
0
100
AcDbLine
 10
-11.41579749487209
 20
4.645636920164741
 30
0.0
 11
-11.36234937379282
 21
4.738339060663741
 31
0.0
  0
LINE
  5
237
330
2
100
AcDbEntity
  8
0
100
AcDbLine
 10
-11.41579749487209
 20
4.645636920164741
 30
0.0
 11
-11.50843599576078
 21
4.699195268282438
 31
0.0
  0
ARC
  5
238
330
2
100
AcDbEntity
  8
0
100
AcDbCircle
 10
-11.41606599034852
 20
4.769311538863079
 30
0.0
 40
0.062
100
AcDbArc
 50
330.0361
 51
14.99999999999994
  0
ARC
  5
239
330
2
100
AcDbEntity
  8
0
100
AcDbCircle
 10
-11.47740228031787
 20
4.752876529499069
 30
0.0
 40
0.062
100
AcDbArc
 50
194.9999999999999
 51
239.9638999999999
  0
ARC
  5
23A
330
2
100
AcDbEntity
  8
0
100
AcDbCircle
 10
-11.40153465362697
 20
4.469734692038951
 30
0.0
 40
0.062
100
AcDbArc
 50
194.9999999999999
 51
239.9638999999999
  0
ARC
  5
23B
330
2
100
AcDbEntity
  8
0
100
AcDbCircle
 10
-11.34019836365761
 20
4.486169701402961
 30
0.0
 40
0.062
100
AcDbArc
 50
330.0361
 51
14.99999999999994
  0
LINE
  5
23C
330
2
100
AcDbEntity
  8
0
100
AcDbLine
 10
-11.33992986818119
 20
4.362495082704626
 30
0.0
 11
-11.43256836906988
 21
4.416053430822316
 31
0.0
  0
LINE
  5
23D
330
2
100
AcDbEntity
  8
0
100
AcDbLine
 10
-11.33992986818119
 20
4.362495082704626
 30
0.0
 11
-11.28648174710192
 21
4.455197223203619
 31
0.0
  0
LINE
  5
23E
330
2
100
AcDbEntity
  8
0
100
AcDbLine
 10
-11.46142205485689
 20
4.453687911242596
 30
0.0
 11
-11.65695207886049
 21
5.183415895229203
 31
0.0
  0
LINE
  5
23F
330
2
100
AcDbEntity
  8
0
100
AcDbLine
 10
-11.28031096242769
 20
4.502216482199319
 30
0.0
 11
-11.47584098643129
 21
5.231944466185926
 31
0.0
  0
LINE
  5
244
330
2
100
AcDbEntity
  8
0
  6
HIDDEN
100
AcDbLine
 10
-2.959166
 20
11.0709058952292
 30
0.0
 11
-1.141695
 21
11.0709058952292
 31
0.0
  0
LINE
  5
245
330
2
100
AcDbEntity
  8
0
  6
HIDDEN
100
AcDbLine
 10
1.145519
 20
11.0709058952292
 30
0.0
 11
2.955734000000001
 21
11.0709058952292
 31
0.0
  0
LINE
  5
2BF
330
2
100
AcDbEntity
  8
0
100
AcDbLine
 10
12.08245873404935
 20
11.1850658952292
 30
0.0
 11
13.59095107886049
 21
11.1850658952292
 31
0.0
  0
LINE
  5
2C0
330
2
100
AcDbEntity
  8
0
100
AcDbLine
 10
13.59095107886049
 20
11.04316907063987
 30
0.0
 11
12.15150104118174
 21
11.04316907063987
 31
0.0
  0
LINE
  5
2C1
330
2
100
AcDbEntity
  8
0
100
AcDbLine
 10
12.12845286991236
 20
11.12213329284049
 30
0.0
 11
13.59095107886049
 21
11.12213329284049
 31
0.0
  0
LINE
  5
2C2
330
2
100
AcDbEntity
  8
0
100
AcDbLine
 10
11.10575288065133
 20
9.917827120075959
 30
0.0
 11
11.93855563633047
 21
10.84048043605253
 31
0.0
  0
ARC
  5
2C5
330
2
100
AcDbEntity
  8
0
100
AcDbCircle
 10
11.32845107886049
 20
9.716815895229203
 30
0.0
 40
0.3
100
AcDbArc
 50
137.9300473352724
 51
180.0
  0
LINE
  5
2C6
330
2
100
AcDbEntity
  8
0
100
AcDbLine
 10
11.93743604539029
 20
10.02978915936778
 30
0.0
 11
11.93886580828794
 21
11.0250658952292
 31
0.0
  0
ARC
  5
2C7
330
2
100
AcDbEntity
  8
0
100
AcDbCircle
 10
12.04862617113559
 20
10.04943862136437
 30
0.0
 40
0.1129129993402536
100
AcDbArc
 50
190.0218093717479
 51
259.2220691983233
  0
ARC
  5
2C8
330
2
100
AcDbEntity
  8
0
100
AcDbCircle
 10
12.09886580828794
 20
11.0250658952292
 30
0.0
 40
0.16
100
AcDbArc
 50
90.0
 51
180.0
  0
ARC
  5
2C9
330
2
100
AcDbEntity
  8
0
100
AcDbCircle
 10
12.15150104118174
 20
10.98316907063987
 30
0.0
 40
0.06
100
AcDbArc
 50
90.0
 51
180.0
  0
ARC
  5
2CA
330
2
100
AcDbEntity
  8
0
100
AcDbCircle
 10
12.12845286991236
 20
11.02213329284049
 30
0.0
 40
0.1
100
AcDbArc
 50
90.0
 51
180.0
  0
LINE
  5
2CB
330
2
100
AcDbEntity
  8
0
100
AcDbLine
 10
13.59095107886049
 20
11.1850658952292
 30
0.0
 11
13.59095107886049
 21
11.04316907063987
 31
0.0
  0
ARC
  5
2CC
330
2
100
AcDbEntity
  8
0
100
AcDbCircle
 10
12.04862617113559
 20
10.80113861703951
 30
0.0
 40
0.1129129993402536
100
AcDbArc
 50
190.0218093717479
 51
259.2220691983233
  0
LINE
  5
2D2
330
2
100
AcDbEntity
  8
0
100
AcDbLine
 10
-12.08245873404934
 20
11.1850658952292
 30
0.0
 11
-13.59095107886049
 21
11.1850658952292
 31
0.0
  0
LINE
  5
2D3
330
2
100
AcDbEntity
  8
0
100
AcDbLine
 10
-13.59095107886049
 20
11.04316907063987
 30
0.0
 11
-12.15150104118174
 21
11.04316907063987
 31
0.0
  0
LINE
  5
2D4
330
2
100
AcDbEntity
  8
0
100
AcDbLine
 10
-12.12845286991236
 20
11.12213329284049
 30
0.0
 11
-13.59095107886049
 21
11.12213329284049
 31
0.0
  0
LINE
  5
2D5
330
2
100
AcDbEntity
  8
0
100
AcDbLine
 10
-11.10575288065133
 20
9.917827120075959
 30
0.0
 11
-11.93855563633047
 21
10.84048043605253
 31
0.0
  0
ARC
  5
2D6
330
2
100
AcDbEntity
  8
0
100
AcDbCircle
 10
-11.32845107886049
 20
9.716815895229203
 30
0.0
 40
0.3
100
AcDbArc
 50
0.000000000000007
 51
42.06995266472763
  0
LINE
  5
2D7
330
2
100
AcDbEntity
  8
0
100
AcDbLine
 10
-11.93743604539029
 20
10.02978915936778
 30
0.0
 11
-11.93886580828794
 21
11.0250658952292
 31
0.0
  0
ARC
  5
2D8
330
2
100
AcDbEntity
  8
0
100
AcDbCircle
 10
-12.04862617113559
 20
10.04943862136437
 30
0.0
 40
0.1129129993402536
100
AcDbArc
 50
280.7779308016767
 51
349.9781906282521
  0
ARC
  5
2D9
330
2
100
AcDbEntity
  8
0
100
AcDbCircle
 10
-12.09886580828794
 20
11.0250658952292
 30
0.0
 40
0.16
100
AcDbArc
 50
0.000000000000007
 51
90.0
  0
ARC
  5
2DA
330
2
100
AcDbEntity
  8
0
100
AcDbCircle
 10
-12.15150104118174
 20
10.98316907063987
 30
0.0
 40
0.06
100
AcDbArc
 50
0.000000000000007
 51
90.0
  0
ARC
  5
2DB
330
2
100
AcDbEntity
  8
0
100
AcDbCircle
 10
-12.12845286991236
 20
11.02213329284049
 30
0.0
 40
0.1
100
AcDbArc
 50
0.000000000000007
 51
90.0
  0
LINE
  5
2DC
330
2
100
AcDbEntity
  8
0
100
AcDbLine
 10
-13.59095107886049
 20
11.1850658952292
 30
0.0
 11
-13.59095107886049
 21
11.04316907063987
 31
0.0
  0
ARC
  5
2DD
330
2
100
AcDbEntity
  8
0
100
AcDbCircle
 10
-12.04862617113559
 20
10.80113861703951
 30
0.0
 40
0.1129129993402536
100
AcDbArc
 50
280.7779308016767
 51
349.9781906282521
  0
ENDSEC
  0
SECTION
  2
OBJECTS
  0
DICTIONARY
  5
7
330
0
100
AcDbDictionary
281
     1
  3
ACAD_COLOR
350
116
  3
ACAD_GROUP
350
1F
  3
ACAD_LAYOUT
350
B
  3
ACAD_MATERIAL
350
115
  3
ACAD_MLINESTYLE
350
20
  3
ACAD_PLOTSETTINGS
350
21
  3
ACAD_PLOTSTYLENAME
350
6
  3
ACAD_TABLESTYLE
350
117
  3
ACDBHEADERROUNDTRIPXREC
350
2EA
  3
AcDbVariableDictionary
350
111
  0
DICTIONARY
  5
11E
330
2
100
AcDbDictionary
280
     1
281
     1
  3
ACAD_SORTENTS
360
11F
  0
DICTIONARY
  5
116
102
{ACAD_REACTORS
330
7
102
}
330
7
100
AcDbDictionary
281
     1
  0
DICTIONARY
  5
1F
102
{ACAD_REACTORS
330
7
102
}
330
7
100
AcDbDictionary
281
     1
  0
DICTIONARY
  5
B
102
{ACAD_REACTORS
330
7
102
}
330
7
100
AcDbDictionary
281
     1
  3
Layout1
350
F
  3
Model
350
A
  0
DICTIONARY
  5
115
102
{ACAD_REACTORS
330
7
102
}
330
7
100
AcDbDictionary
281
     1
  0
DICTIONARY
  5
20
102
{ACAD_REACTORS
330
7
102
}
330
7
100
AcDbDictionary
281
     1
  3
Standard
350
23
  0
DICTIONARY
  5
21
102
{ACAD_REACTORS
330
7
102
}
330
7
100
AcDbDictionary
281
     1
  0
ACDBDICTIONARYWDFLT
  5
6
102
{ACAD_REACTORS
330
7
102
}
330
7
100
AcDbDictionary
281
     1
  3
Normal
350
5
100
AcDbDictionaryWithDefault
340
5
  0
DICTIONARY
  5
117
102
{ACAD_REACTORS
330
7
102
}
330
7
100
AcDbDictionary
281
     1
  3
Standard
350
118
  0
DICTIONARY
  5
2EA
102
{ACAD_REACTORS
330
7
102
}
330
7
100
AcDbDictionary
281
     1
  3
COLORDICT
350
2EB
  3
MATERIALDICT
350
2EC
  0
DICTIONARY
  5
111
102
{ACAD_REACTORS
330
7
102
}
330
7
100
AcDbDictionary
281
     1
  3
CTABLESTYLE
350
20D
  3
DIMASSOC
350
113
  3
HIDETEXT
350
112
  0
SORTENTSTABLE
  5
11F
102
{ACAD_REACTORS
330
11E
102
}
330
11E
100
AcDbSortentsTable
330
2
331
1C5
  5
1F8
331
12B
  5
1EA
331
197
  5
154
331
142
  5
187
331
19A
  5
157
331
1F4
  5
1B0
331
1FC
  5
15F
331
132
  5
1F1
331
12F
  5
1EE
331
1E2
  5
19D
331
198
  5
155
331
1EB
  5
1A7
331
1F7
  5
1B3
331
140
  5
185
331
203
  5
148
331
1B7
  5
17A
331
1B6
  5
179
331
1AE
  5
171
331
1E6
  5
1A1
331
16F
  5
124
331
189
  5
13E
331
159
  5
1B7
331
158
  5
1B5
331
1C7
  5
1FA
331
13E
  5
183
331
185
  5
13A
331
1FD
  5
160
331
162
  5
1C0
331
16B
  5
1C9
331
1A2
  5
165
331
1F9
  5
15C
331
17A
  5
12F
331
12D
  5
1EC
331
174
  5
129
331
196
  5
152
331
1EF
  5
1AB
331
15B
  5
1B9
331
1E1
  5
19C
331
1E7
  5
1A2
331
205
  5
14A
331
1FB
  5
15E
331
192
  5
14E
331
199
  5
156
331
1A7
  5
16A
331
1A8
  5
16B
331
149
  5
18F
331
1AF
  5
172
331
1B0
  5
173
331
188
  5
13D
331
1EE
  5
1AA
331
1F2
  5
1AE
331
16E
  5
123
331
17D
  5
132
331
1B1
  5
174
331
1AC
  5
16F
331
1AD
  5
170
331
1BA
  5
17D
331
168
  5
1C6
331
187
  5
13C
331
1A9
  5
16C
331
190
  5
14C
331
15D
  5
1BB
331
163
  5
1C1
331
169
  5
1C7
331
179
  5
12E
331
14A
  5
190
331
173
  5
128
331
177
  5
12C
331
144
  5
189
331
170
  5
125
331
201
  5
146
331
184
  5
139
331
18A
  5
13F
331
155
  5
19B
331
17F
  5
134
331
1C1
  5
1F4
331
1A4
  5
167
331
157
  5
1B4
331
1EA
  5
1A6
331
151
  5
197
331
1FF
  5
144
331
127
  5
1E6
331
143
  5
188
331
1A6
  5
169
331
13F
  5
184
331
1FA
  5
15D
331
12C
  5
1EB
331
200
  5
145
331
1ED
  5
1A9
331
165
  5
1C3
331
18F
  5
14B
331
152
  5
198
331
1C6
  5
1F9
331
1F6
  5
1B2
331
166
  5
1C4
331
15C
  5
1BA
331
1B5
  5
178
331
19F
  5
162
331
1B3
  5
176
331
1BF
  5
182
331
15A
  5
1B8
331
160
  5
1BE
331
186
  5
13B
331
167
  5
1C5
331
154
  5
19A
331
1C9
  5
1FC
331
204
  5
149
331
16D
  5
1E1
331
130
  5
1EF
331
1E5
  5
1A0
331
171
  5
126
331
1F0
  5
1AC
331
1E8
  5
1A4
331
1FE
  5
161
331
124
  5
1E3
331
148
  5
18E
331
141
  5
186
331
125
  5
1E4
331
1F5
  5
1B1
331
146
  5
18B
331
1F1
  5
1AD
331
147
  5
18C
331
1AA
  5
16D
331
14B
  5
191
331
15F
  5
1BD
331
1B2
  5
175
331
16A
  5
1C8
331
150
  5
196
331
128
  5
1E7
331
153
  5
199
331
18D
  5
142
331
12E
  5
1ED
331
14D
  5
193
331
1C2
  5
1F5
331
1F8
  5
15B
331
1E3
  5
19E
331
202
  5
147
331
1A0
  5
163
331
19D
  5
15A
331
18B
  5
140
331
1B9
  5
17C
331
14E
  5
194
331
1C8
  5
1FB
331
1B4
  5
177
331
1C3
  5
1F6
331
1BB
  5
17E
331
183
  5
138
331
1F3
  5
1AF
331
1B8
  5
17B
331
126
  5
1E5
331
182
  5
137
331
123
  5
1E2
331
191
  5
14D
331
1C0
  5
1F3
331
1E9
  5
1A5
331
161
  5
1BF
331
195
  5
151
331
1A5
  5
168
331
1EC
  5
1A8
331
194
  5
150
331
131
  5
1F0
331
164
  5
1C2
331
1C4
  5
1F7
331
19C
  5
159
331
12A
  5
1E9
331
17E
  5
133
331
1BD
  5
180
331
1A3
  5
166
331
1A1
  5
164
331
1BE
  5
181
331
129
  5
1E8
331
15E
  5
1BC
331
193
  5
14F
331
1AB
  5
16E
331
1E4
  5
19F
331
14F
  5
195
331
181
  5
136
331
145
  5
18A
331
14C
  5
192
331
19B
  5
158
331
1BC
  5
17F
331
180
  5
135
  0
LAYOUT
  5
F
102
{ACAD_REACTORS
330
B
102
}
102
{ACAD_XDICTIONARY
360
2ED
102
}
330
B
100
AcDbPlotSettings
  1

  2
X:\Program Files\AutoCAD2002\plotters\DWF ePlot (optimized for plotting).pc3
  4

  6

 40
0.0
 41
0.0
 42
0.0
 43
0.0
 44
0.0
 45
0.0
 46
0.0
 47
0.0
 48
0.0
 49
0.0
140
0.0
141
0.0
142
1.0
143
1.0
 70
   688
 72
     0
 73
     0
 74
     5
  7

 75
    16
147
1.0
148
0.0
149
0.0
100
AcDbLayout
  1
Layout1
 70
     0
 71
     1
 10
0.0
 20
0.0
 11
12.0
 21
9.0
 12
0.0
 22
0.0
 32
0.0
 14
1.000000000000000E+20
 24
1.000000000000000E+20
 34
1.000000000000000E+20
 15
-1.000000000000000E+20
 25
-1.000000000000000E+20
 35
-1.000000000000000E+20
146
0.0
 13
0.0
 23
0.0
 33
0.0
 16
1.0
 26
0.0
 36
0.0
 17
0.0
 27
1.0
 37
0.0
 76
     0
330
C
  0
LAYOUT
  5
A
102
{ACAD_REACTORS
330
B
102
}
102
{ACAD_XDICTIONARY
360
2EF
102
}
330
B
100
AcDbPlotSettings
  1

  2
X:\Program Files\AutoCAD2002\plotters\DWF ePlot (optimized for plotting).pc3
  4

  6

 40
0.0
 41
0.0
 42
0.0
 43
0.0
 44
0.0
 45
0.0
 46
0.0
 47
0.0
 48
0.0
 49
0.0
140
0.0
141
0.0
142
1.0
143
1.0
 70
  1712
 72
     0
 73
     0
 74
     0
  7

 75
     0
147
1.0
148
0.0
149
0.0
100
AcDbLayout
  1
Model
 70
     1
 71
     0
 10
0.0
 20
0.0
 11
12.0
 21
9.0
 12
0.0
 22
0.0
 32
0.0
 14
0.0
 24
0.0
 34
0.0
 15
0.0
 25
0.0
 35
0.0
146
0.0
 13
0.0
 23
0.0
 33
0.0
 16
1.0
 26
0.0
 36
0.0
 17
0.0
 27
1.0
 37
0.0
 76
     0
330
2
  0
MLINESTYLE
  5
23
102
{ACAD_REACTORS
330
20
102
}
330
20
100
AcDbMlineStyle
  2
STANDARD
 70
     0
  3

 62
   256
 51
90.0
 52
90.0
 71
     2
 49
0.5
 62
   256
  6
BYLAYER
 49
-0.5
 62
   256
  6
BYLAYER
  0
ACDBPLACEHOLDER
  5
5
102
{ACAD_REACTORS
330
6
102
}
330
6
  0
ACAD_PROXY_OBJECT
  5
118
102
{ACAD_REACTORS
330
117
102
}
330
117
100
AcDbProxyObject
 90
      499
 91
      504
 95
   983063
 70
     0
 93
     1841
310
4214DD185B99185C9928B81E85EB51B8AE3F2E07A17AD46E2B8FC02B5E8DC0F42B1CFD028000000C1008070000C3001FDFF8000000C1003FBFF000000182007F7FE00000030400FEFFC00000060801FDFF8000000C1003FBFF00000018200000000000000681FA0B0000001820100E000186003FBFF000000182007F7FE000
310
00030400FEFFC00000060801FDFF8000000C1003FBFF000000182007F7FE000000304000AD7A3703D0AC73F4160000003040201C00030C007F7FE00000030400FEFFC00000060801FDFF8000000C1003FBFF000000182007F7FE00000030400FEFFC000000608000
340
12
340
12
340
12
 94
        0
  0
XRECORD
  5
2EB
102
{ACAD_REACTORS
330
2EA
102
}
330
2EA
100
AcDbXrecord
340
116
  0
XRECORD
  5
2EC
102
{ACAD_REACTORS
330
2EA
102
}
330
2EA
100
AcDbXrecord
340
115
  0
DICTIONARYVAR
  5
20D
102
{ACAD_REACTORS
330
111
102
}
330
111
100
DictionaryVariables
280
     0
  1
STANDARD
  0
DICTIONARYVAR
  5
113
102
{ACAD_REACTORS
330
111
102
}
330
111
100
DictionaryVariables
280
     0
  1
2
  0
DICTIONARYVAR
  5
112
102
{ACAD_REACTORS
330
111
102
}
330
111
100
DictionaryVariables
280
     0
  1
1
  0
DICTIONARY
  5
2ED
330
F
100
AcDbDictionary
280
     1
281
     1
  3
ACAD_XREC_ROUNDTRIP
360
2EE
  0
DICTIONARY
  5
2EF
330
A
100
AcDbDictionary
280
     1
281
     1
  3
ACAD_XREC_ROUNDTRIP
360
2F0
  0
XRECORD
  5
2EE
102
{ACAD_REACTORS
330
2ED
102
}
330
2ED
100
AcDbXrecord
102
SHADEPLOT
 70
     0
102
SHADEPLOTRESLEVEL
 70
     2
102
SHADEPLOTCUSTOMDPI
 70
   300
  0
XRECORD
  5
2F0
102
{ACAD_REACTORS
330
2EF
102
}
330
2EF
100
AcDbXrecord
102
SHADEPLOT
 70
     0
102
SHADEPLOTRESLEVEL
 70
     2
102
SHADEPLOTCUSTOMDPI
 70
   300
  0
ENDSEC
  0
EOF
