  0
SECTION
  2
HEADER
  9
$ACADVER
  1
AC1015
  9
$ACADMAINTVER
 70
     6
  9
$DWGCODEPAGE
  3
ANSI_1252
  9
$INSBASE
 10
0.0
 20
0.0
 30
0.0
  9
$EXTMIN
 10
-9.860373360493231
 20
-0.0519299999999987
 30
0.0
  9
$EXTMAX
 10
-6.735373360493231
 20
5.409937570521169
 30
0.0
  9
$LIMMIN
 10
0.0
 20
0.0
  9
$LIMMAX
 10
31.5
 20
24.0
  9
$ORTHOMODE
 70
     1
  9
$REGENMODE
 70
     1
  9
$FILLMODE
 70
     1
  9
$QTEXTMODE
 70
     0
  9
$MIRRTEXT
 70
     0
  9
$LTSCALE
 40
0.5
  9
$ATTMODE
 70
     1
  9
$TEXTSIZE
 40
0.27
  9
$TRACEWID
 40
0.05
  9
$TEXTSTYLE
  7
STANDARD
  9
$CLAYER
  8
0
  9
$CELTYPE
  6
BYLAYER
  9
$CECOLOR
 62
   256
  9
$CELTSCALE
 40
1.0
  9
$DISPSILH
 70
     0
  9
$DIMSCALE
 40
1.0
  9
$DIMASZ
 40
0.375
  9
$DIMEXO
 40
0.0625
  9
$DIMDLI
 40
0.75
  9
$DIMRND
 40
0.0
  9
$DIMDLE
 40
0.0
  9
$DIMEXE
 40
0.18
  9
$DIMTP
 40
0.0
  9
$DIMTM
 40
0.0
  9
$DIMTXT
 40
0.27
  9
$DIMCEN
 40
-0.06
  9
$DIMTSZ
 40
0.0
  9
$DIMTOL
 70
     0
  9
$DIMLIM
 70
     0
  9
$DIMTIH
 70
     1
  9
$DIMTOH
 70
     1
  9
$DIMSE1
 70
     0
  9
$DIMSE2
 70
     0
  9
$DIMTAD
 70
     0
  9
$DIMZIN
 70
     0
  9
$DIMBLK
  1

  9
$DIMASO
 70
     0
  9
$DIMSHO
 70
     0
  9
$DIMPOST
  1

  9
$DIMAPOST
  1

  9
$DIMALT
 70
     0
  9
$DIMALTD
 70
     2
  9
$DIMALTF
 40
25.4
  9
$DIMLFAC
 40
1.0
  9
$DIMTOFL
 70
     0
  9
$DIMTVP
 40
0.0
  9
$DIMTIX
 70
     0
  9
$DIMSOXD
 70
     0
  9
$DIMSAH
 70
     0
  9
$DIMBLK1
  1

  9
$DIMBLK2
  1

  9
$DIMSTYLE
  2
STANDARD
  9
$DIMCLRD
 70
     0
  9
$DIMCLRE
 70
     0
  9
$DIMCLRT
 70
     0
  9
$DIMTFAC
 40
1.0
  9
$DIMGAP
 40
0.09
  9
$DIMJUST
 70
     0
  9
$DIMSD1
 70
     0
  9
$DIMSD2
 70
     0
  9
$DIMTOLJ
 70
     1
  9
$DIMTZIN
 70
     0
  9
$DIMALTZ
 70
     0
  9
$DIMALTTZ
 70
     0
  9
$DIMUPT
 70
     0
  9
$DIMDEC
 70
     5
  9
$DIMTDEC
 70
     5
  9
$DIMALTU
 70
     5
  9
$DIMALTTD
 70
     2
  9
$DIMTXSTY
  7
STANDARD
  9
$DIMAUNIT
 70
     0
  9
$DIMADEC
 70
     0
  9
$DIMALTRND
 40
0.0
  9
$DIMAZIN
 70
     0
  9
$DIMDSEP
 70
    46
  9
$DIMATFIT
 70
     3
  9
$DIMFRAC
 70
     0
  9
$DIMLDRBLK
  1

  9
$DIMLUNIT
 70
     5
  9
$DIMLWD
 70
    -2
  9
$DIMLWE
 70
    -2
  9
$DIMTMOVE
 70
     2
  9
$LUNITS
 70
     5
  9
$LUPREC
 70
     5
  9
$SKETCHINC
 40
0.1
  9
$FILLETRAD
 40
0.0
  9
$AUNITS
 70
     0
  9
$AUPREC
 70
     0
  9
$MENU
  1
ACAD
  9
$ELEVATION
 40
0.0
  9
$PELEVATION
 40
0.0
  9
$THICKNESS
 40
0.0
  9
$LIMCHECK
 70
     0
  9
$CHAMFERA
 40
0.0
  9
$CHAMFERB
 40
0.0
  9
$CHAMFERC
 40
0.0
  9
$CHAMFERD
 40
0.0
  9
$SKPOLY
 70
     0
  9
$TDCREATE
 40
2449212.69669294
  9
$TDUCREATE
 40
2449213.030026273
  9
$TDUPDATE
 40
2454160.606116158
  9
$TDUUPDATE
 40
2454160.939449491
  9
$TDINDWG
 40
0.3725091782
  9
$TDUSRTIMER
 40
0.3725091782
  9
$USRTIMER
 70
     1
  9
$ANGBASE
 50
0.0
  9
$ANGDIR
 70
     0
  9
$PDMODE
 70
     0
  9
$PDSIZE
 40
0.0
  9
$PLINEWID
 40
0.0
  9
$SPLFRAME
 70
     0
  9
$SPLINETYPE
 70
     6
  9
$SPLINESEGS
 70
     8
  9
$HANDSEED
  5
2E9
  9
$SURFTAB1
 70
     6
  9
$SURFTAB2
 70
     6
  9
$SURFTYPE
 70
     6
  9
$SURFU
 70
     6
  9
$SURFV
 70
     6
  9
$UCSBASE
  2

  9
$UCSNAME
  2

  9
$UCSORG
 10
0.0
 20
0.0
 30
0.0
  9
$UCSXDIR
 10
1.0
 20
0.0
 30
0.0
  9
$UCSYDIR
 10
0.0
 20
1.0
 30
0.0
  9
$UCSORTHOREF
  2

  9
$UCSORTHOVIEW
 70
     0
  9
$UCSORGTOP
 10
0.0
 20
0.0
 30
0.0
  9
$UCSORGBOTTOM
 10
0.0
 20
0.0
 30
0.0
  9
$UCSORGLEFT
 10
0.0
 20
0.0
 30
0.0
  9
$UCSORGRIGHT
 10
0.0
 20
0.0
 30
0.0
  9
$UCSORGFRONT
 10
0.0
 20
0.0
 30
0.0
  9
$UCSORGBACK
 10
0.0
 20
0.0
 30
0.0
  9
$PUCSBASE
  2

  9
$PUCSNAME
  2

  9
$PUCSORG
 10
0.0
 20
0.0
 30
0.0
  9
$PUCSXDIR
 10
1.0
 20
0.0
 30
0.0
  9
$PUCSYDIR
 10
0.0
 20
1.0
 30
0.0
  9
$PUCSORTHOREF
  2

  9
$PUCSORTHOVIEW
 70
     0
  9
$PUCSORGTOP
 10
0.0
 20
0.0
 30
0.0
  9
$PUCSORGBOTTOM
 10
0.0
 20
0.0
 30
0.0
  9
$PUCSORGLEFT
 10
0.0
 20
0.0
 30
0.0
  9
$PUCSORGRIGHT
 10
0.0
 20
0.0
 30
0.0
  9
$PUCSORGFRONT
 10
0.0
 20
0.0
 30
0.0
  9
$PUCSORGBACK
 10
0.0
 20
0.0
 30
0.0
  9
$USERI1
 70
     0
  9
$USERI2
 70
     0
  9
$USERI3
 70
     0
  9
$USERI4
 70
     0
  9
$USERI5
 70
     0
  9
$USERR1
 40
0.0
  9
$USERR2
 40
0.0
  9
$USERR3
 40
0.0
  9
$USERR4
 40
0.0
  9
$USERR5
 40
0.0
  9
$WORLDVIEW
 70
     1
  9
$SHADEDGE
 70
     3
  9
$SHADEDIF
 70
    70
  9
$TILEMODE
 70
     1
  9
$MAXACTVP
 70
    16
  9
$PINSBASE
 10
0.0
 20
0.0
 30
0.0
  9
$PLIMCHECK
 70
     0
  9
$PEXTMIN
 10
1.000000000000000E+20
 20
1.000000000000000E+20
 30
1.000000000000000E+20
  9
$PEXTMAX
 10
-1.000000000000000E+20
 20
-1.000000000000000E+20
 30
-1.000000000000000E+20
  9
$PLIMMIN
 10
0.0
 20
0.0
  9
$PLIMMAX
 10
12.0
 20
9.0
  9
$UNITMODE
 70
     0
  9
$VISRETAIN
 70
     0
  9
$PLINEGEN
 70
     1
  9
$PSLTSCALE
 70
     0
  9
$TREEDEPTH
 70
  3020
  9
$CMLSTYLE
  2
STANDARD
  9
$CMLJUST
 70
     0
  9
$CMLSCALE
 40
1.0
  9
$PROXYGRAPHICS
 70
     1
  9
$MEASUREMENT
 70
     0
  9
$CELWEIGHT
370
    -1
  9
$ENDCAPS
280
     0
  9
$JOINSTYLE
280
     0
  9
$LWDISPLAY
290
     0
  9
$INSUNITS
 70
     0
  9
$HYPERLINKBASE
  1

  9
$STYLESHEET
  1

  9
$XEDIT
290
     1
  9
$CEPSNTYPE
380
     0
  9
$PSTYLEMODE
290
     1
  9
$FINGERPRINTGUID
  2
{4FB9499E-D24D-40A9-BAF6-8D407A871096}
  9
$VERSIONGUID
  2
{E1DE721D-6A3C-4832-A005-D783D1590F4A}
  9
$EXTNAMES
290
     1
  9
$PSVPSCALE
 40
0.0
  9
$OLESTARTUP
290
     0
  0
ENDSEC
  0
SECTION
  2
CLASSES
  0
CLASS
  1
DICTIONARYVAR
  2
AcDbDictionaryVar
  3
AutoCAD 2000
 90
        0
280
     0
281
     0
  0
CLASS
  1
LWPOLYLINE
  2
AcDbPolyline
  3
AutoCAD 2000
 90
        0
280
     0
281
     1
  0
CLASS
  1
ACDBDICTIONARYWDFLT
  2
AcDbDictionaryWithDefault
  3
AutoCAD 2000
 90
        0
280
     0
281
     0
  0
CLASS
  1
ACDBPLACEHOLDER
  2
AcDbPlaceHolder
  3
ObjectDBX Classes
 90
        0
280
     0
281
     0
  0
CLASS
  1
LAYOUT
  2
AcDbLayout
  3
ObjectDBX Classes
 90
        0
280
     0
281
     0
  0
CLASS
  1
TABLESTYLE
  2
AcDbTableStyle
  3
ObjectDBX Classes
 90
     2047
280
     1
281
     0
  0
CLASS
  1
SORTENTSTABLE
  2
AcDbSortentsTable
  3
AutoCAD 2000
 90
        0
280
     0
281
     0
  0
ENDSEC
  0
SECTION
  2
TABLES
  0
TABLE
  2
VPORT
  5
19
330
0
100
AcDbSymbolTable
 70
     2
  0
VPORT
  5
2DB
330
19
100
AcDbSymbolTableRecord
100
AcDbViewportTableRecord
  2
*Active
 70
     0
 10
0.0
 20
0.0
 11
1.0
 21
1.0
 12
8.312770342664322
 22
9.614431249425005
 13
0.0
 23
0.0
 14
0.0625
 24
0.0625
 15
0.5
 25
0.5
 16
0.0
 26
0.0
 36
1.0
 17
0.0
 27
0.0
 37
0.0
 40
27.95078933158766
 41
1.55012853470437
 42
50.0
 43
0.0
 44
0.0
 50
0.0
 51
0.0
 71
     0
 72
   100
 73
     1
 74
     1
 75
     0
 76
     0
 77
     0
 78
     0
281
     0
 65
     1
110
0.0
120
0.0
130
0.0
111
1.0
121
0.0
131
0.0
112
0.0
122
1.0
132
0.0
 79
     0
146
0.0
  0
ENDTAB
  0
TABLE
  2
LTYPE
  5
14
330
0
100
AcDbSymbolTable
 70
     2
  0
LTYPE
  5
15
330
14
100
AcDbSymbolTableRecord
100
AcDbLinetypeTableRecord
  2
BYBLOCK
 70
     0
  3

 72
    65
 73
     0
 40
0.0
  0
LTYPE
  5
16
330
14
100
AcDbSymbolTableRecord
100
AcDbLinetypeTableRecord
  2
BYLAYER
 70
     0
  3

 72
    65
 73
     0
 40
0.0
  0
LTYPE
  5
8
330
14
100
AcDbSymbolTableRecord
100
AcDbLinetypeTableRecord
  2
CONTINUOUS
 70
     0
  3
Solid line
 72
    65
 73
     0
 40
0.0
  0
LTYPE
  5
232
330
14
100
AcDbSymbolTableRecord
100
AcDbLinetypeTableRecord
  2
HIDDEN
 70
     0
  3
Hidden __ __ __ __ __ __ __ __ __ __ __ __ __ _
 72
    65
 73
     2
 40
0.375
 49
0.25
 74
     0
 49
-0.125
 74
     0
  0
ENDTAB
  0
TABLE
  2
LAYER
  5
10
330
0
100
AcDbSymbolTable
 70
     2
  0
LAYER
  5
4
330
10
100
AcDbSymbolTableRecord
100
AcDbLayerTableRecord
  2
0
 70
     0
 62
     7
  6
CONTINUOUS
370
    -3
390
5
  0
ENDTAB
  0
TABLE
  2
STYLE
  5
11
330
0
100
AcDbSymbolTable
 70
     2
  0
STYLE
  5
12
330
11
100
AcDbSymbolTableRecord
100
AcDbTextStyleTableRecord
  2
STANDARD
 70
     0
 40
0.0
 41
1.0
 50
0.0
 71
     0
 42
0.27
  3
TXT
  4

  0
ENDTAB
  0
TABLE
  2
VIEW
  5
17
330
0
100
AcDbSymbolTable
 70
     0
  0
ENDTAB
  0
TABLE
  2
UCS
  5
18
330
0
100
AcDbSymbolTable
 70
     0
  0
ENDTAB
  0
TABLE
  2
APPID
  5
1B
330
0
100
AcDbSymbolTable
 70
     1
  0
APPID
  5
1C
330
1B
100
AcDbSymbolTableRecord
100
AcDbRegAppTableRecord
  2
ACAD
 70
     0
  0
ENDTAB
  0
TABLE
  2
DIMSTYLE
  5
1D
330
0
100
AcDbSymbolTable
 70
     1
100
AcDbDimStyleTable
  0
DIMSTYLE
105
24
330
1D
100
AcDbSymbolTableRecord
100
AcDbDimStyleTableRecord
  2
STANDARD
 70
     0
  3

  4

340
12
  0
ENDTAB
  0
TABLE
  2
BLOCK_RECORD
  5
1
330
0
100
AcDbSymbolTable
 70
     0
  0
BLOCK_RECORD
  5
2
102
{ACAD_XDICTIONARY
360
120
102
}
330
1
100
AcDbSymbolTableRecord
100
AcDbBlockTableRecord
  2
*MODEL_SPACE
340
A
  0
BLOCK_RECORD
  5
C
330
1
100
AcDbSymbolTableRecord
100
AcDbBlockTableRecord
  2
*PAPER_SPACE
340
F
  0
ENDTAB
  0
ENDSEC
  0
SECTION
  2
BLOCKS
  0
BLOCK
  5
3
330
2
100
AcDbEntity
  8
0
100
AcDbBlockBegin
  2
*MODEL_SPACE
 70
     0
 10
0.0
 20
0.0
 30
0.0
  3
*MODEL_SPACE
  1

  4

  0
ENDBLK
  5
9
330
2
100
AcDbEntity
  8
0
100
AcDbBlockEnd
  0
BLOCK
  5
D
330
C
100
AcDbEntity
 67
     1
  8
0
100
AcDbBlockBegin
  2
*PAPER_SPACE
 70
     0
 10
0.0
 20
0.0
 30
0.0
  3
*PAPER_SPACE
  1

  4

  0
ENDBLK
  5
E
330
C
100
AcDbEntity
 67
     1
  8
0
100
AcDbBlockEnd
  0
ENDSEC
  0
SECTION
  2
ENTITIES
  0
LINE
  5
23B
330
2
100
AcDbEntity
  8
0
100
AcDbLine
 10
-8.547873360493231
 20
1.921532271377533
 30
0.0
 11
-8.547873360493231
 21
2.984032271377533
 31
0.0
  0
LINE
  5
23C
330
2
100
AcDbEntity
  8
0
100
AcDbLine
 10
-8.496245360493239
 20
5.198302271377536
 30
0.0
 11
-8.496245360493234
 21
1.323477830287446
 31
0.0
  0
LINE
  5
23E
330
2
100
AcDbEntity
  8
0
100
AcDbLine
 10
-7.753148360493231
 20
1.764430000000001
 30
0.0
 11
-7.753148360493232
 21
2.011504921605074
 31
0.0
  0
LINE
  5
23F
330
2
100
AcDbEntity
  8
0
100
AcDbLine
 10
-8.547873360493231
 20
1.448070000000008
 30
0.0
 11
-8.547873360493231
 21
3.573070000000001
 31
0.0
  0
ARC
  5
241
330
2
100
AcDbEntity
  8
0
100
AcDbCircle
 10
-11.99162336049323
 20
-0.0519299999999951
 30
0.0
 40
3.75625
100
AcDbArc
 50
0.000000000000007
 51
23.53658000000001
  0
LINE
  5
242
330
2
100
AcDbEntity
  8
0
100
AcDbLine
 10
-6.735373360493231
 20
0.0
 30
0.0
 11
-6.735373360493231
 21
0.5486300000000028
 31
0.0
  0
LINE
  5
243
330
2
100
AcDbEntity
  8
0
100
AcDbLine
 10
-6.735373360493231
 20
-0.0519299999999987
 30
0.0
 11
-8.235373360493231
 21
-0.0519299999999987
 31
0.0
  0
LINE
  5
244
330
2
100
AcDbEntity
  8
0
  6
HIDDEN
100
AcDbLine
 10
-8.235732360493234
 20
0.0
 30
0.0
 11
-6.735373360493231
 21
0.0
 31
0.0
  0
LINE
  5
245
330
2
100
AcDbEntity
  8
0
100
AcDbLine
 10
-6.735373360493231
 20
-0.0519299999999987
 30
0.0
 11
-6.735373360493231
 21
0.0
 31
0.0
  0
LINE
  5
246
330
2
100
AcDbEntity
  8
0
100
AcDbLine
 10
-6.735373360493231
 20
0.5486300000000028
 30
0.0
 11
-7.753148360493231
 21
1.764430000000001
 31
0.0
  0
LINE
  5
24A
330
2
100
AcDbEntity
  8
0
100
AcDbLine
 10
-8.547873360493229
 20
5.209622271377533
 30
0.0
 11
-8.547873360493231
 21
3.36653227137753
 31
0.0
  0
ARC
  5
24D
330
2
100
AcDbEntity
  8
0
100
AcDbCircle
 10
-7.815648360493231
 20
2.317691139452972
 30
0.0
 40
0.3125
100
AcDbArc
 50
281.53696
 51
78.46299999999998
  0
LINE
  5
24F
330
2
100
AcDbEntity
  8
0
100
AcDbLine
 10
-7.753148360493231
 20
3.021236557308608
 30
0.0
 11
-7.753148360493231
 21
3.57292
 31
0.0
  0
LINE
  5
250
330
2
100
AcDbEntity
  8
0
100
AcDbLine
 10
-7.753148141566349
 20
2.623877312612525
 30
0.0
 11
-7.753148360493231
 21
4.095232271377533
 31
0.0
  0
LINE
  5
251
330
2
100
AcDbEntity
  8
0
100
AcDbLine
 10
-7.753148360493231
 20
3.57292
 30
0.0
 11
-7.753148360493231
 21
3.783160000000002
 31
0.0
  0
LINE
  5
253
330
2
100
AcDbEntity
  8
0
100
AcDbLine
 10
-8.547873360493231
 20
3.573070000000001
 30
0.0
 11
-8.547873360493231
 21
3.783160000000002
 31
0.0
  0
LINE
  5
25A
330
2
100
AcDbEntity
  8
0
100
AcDbLine
 10
-8.191201776504826
 20
2.759349827499992
 30
0.0
 11
-8.137753655425559
 21
2.852051967998992
 31
0.0
  0
LINE
  5
25B
330
2
100
AcDbEntity
  8
0
100
AcDbLine
 10
-8.191201776504826
 20
2.759349827499992
 30
0.0
 11
-8.283840277393519
 21
2.81290817561769
 31
0.0
  0
ARC
  5
25C
330
2
100
AcDbEntity
  8
0
100
AcDbCircle
 10
-8.191470271981256
 20
2.883024446198331
 30
0.0
 40
0.062
100
AcDbArc
 50
330.0361
 51
14.99999999999996
  0
ARC
  5
25D
330
2
100
AcDbEntity
  8
0
100
AcDbCircle
 10
-8.25280656195061
 20
2.866589436834321
 30
0.0
 40
0.062
100
AcDbArc
 50
194.9999999999999
 51
239.9638999999999
  0
ARC
  5
25E
330
2
100
AcDbEntity
  8
0
100
AcDbCircle
 10
-8.17693893525971
 20
2.583447599374203
 30
0.0
 40
0.062
100
AcDbArc
 50
194.9999999999999
 51
239.9638999999999
  0
ARC
  5
25F
330
2
100
AcDbEntity
  8
0
100
AcDbCircle
 10
-8.115602645290352
 20
2.599882608738213
 30
0.0
 40
0.062
100
AcDbArc
 50
330.0361
 51
14.99999999999996
  0
LINE
  5
260
330
2
100
AcDbEntity
  8
0
100
AcDbLine
 10
-8.115334149813926
 20
2.476207990039878
 30
0.0
 11
-8.207972650702615
 21
2.529766338157568
 31
0.0
  0
LINE
  5
261
330
2
100
AcDbEntity
  8
0
100
AcDbLine
 10
-8.115334149813926
 20
2.476207990039878
 30
0.0
 11
-8.061886028734655
 21
2.568910130538871
 31
0.0
  0
LINE
  5
262
330
2
100
AcDbEntity
  8
0
100
AcDbLine
 10
-8.236826336489632
 20
2.567400818577848
 30
0.0
 11
-8.43235636049323
 21
3.297128802564455
 31
0.0
  0
LINE
  5
263
330
2
100
AcDbEntity
  8
0
100
AcDbLine
 10
-8.05571524406043
 20
2.615929389534571
 30
0.0
 11
-8.251245268064029
 21
3.345657373521178
 31
0.0
  0
ARC
  5
2C6
330
2
100
AcDbEntity
  8
0
100
AcDbCircle
 10
-7.839169360493234
 20
4.089052271377536
 30
0.0
 40
0.08633938
100
AcDbArc
 50
354.70688
 51
42.73770000000001
  0
LINE
  5
2C7
330
2
100
AcDbEntity
  8
0
100
AcDbLine
 10
-8.431335839451803
 20
4.990674045379011
 30
0.0
 11
-7.775755360493232
 21
4.147652271377531
 31
0.0
  0
ARC
  5
2C8
330
2
100
AcDbEntity
  8
0
100
AcDbCircle
 10
-7.839169360493234
 20
4.089052271377536
 30
0.0
 40
0.08633938
100
AcDbArc
 50
354.7068800000001
 51
42.73770000000006
  0
LINE
  5
2C9
330
2
100
AcDbEntity
  8
0
100
AcDbLine
 10
-8.609873360493232
 20
5.271622271377531
 30
0.0
 11
-9.860373360493231
 21
5.271622271377531
 31
0.0
  0
LINE
  5
2CA
330
2
100
AcDbEntity
  8
0
100
AcDbLine
 10
-9.860373360493231
 20
5.323302271377532
 30
0.0
 11
-8.621245360493234
 21
5.323302271377532
 31
0.0
  0
ARC
  5
2CB
330
2
100
AcDbEntity
  8
0
100
AcDbCircle
 10
-8.609873360493229
 20
5.209622271377533
 30
0.0
 40
0.062
100
AcDbArc
 50
0.000000000000007
 51
90.0
  0
ARC
  5
2CC
330
2
100
AcDbEntity
  8
0
100
AcDbCircle
 10
-8.613241878516343
 20
5.206305753354431
 30
0.0
 40
0.1172699490631979
100
AcDbArc
 50
356.0866148732301
 51
93.91338512676649
  0
LINE
  5
2CD
330
2
100
AcDbEntity
  8
0
100
AcDbLine
 10
-9.860373360493231
 20
5.271622271377531
 30
0.0
 11
-9.860373360493231
 21
5.323302271377532
 31
0.0
  0
ARC
  5
2CE
330
2
100
AcDbEntity
  8
0
100
AcDbCircle
 10
-8.552280960849464
 20
5.265084756778784
 30
0.0
 40
0.12
100
AcDbArc
 50
0.000000000000007
 51
90.0
  0
ARC
  5
2CF
330
2
100
AcDbEntity
  8
0
100
AcDbCircle
 10
-8.514601232985203
 20
4.970143721974563
 30
0.0
 40
0.0846847495051902
100
AcDbArc
 50
280.7779308016767
 51
349.9781906282521
  0
LINE
  5
2D0
330
2
100
AcDbEntity
  8
0
100
AcDbLine
 10
-8.43245917275201
 20
5.271622271377531
 30
0.0
 11
-8.431208638676225
 21
4.955406625477123
 31
0.0
  0
ARC
  5
2D1
330
2
100
AcDbEntity
  8
0
100
AcDbCircle
 10
-8.847297766184239
 20
5.301893901009793
 30
0.0
 40
0.0846847495051902
100
AcDbArc
 50
100.7779308016767
 51
165.3566902261075
  0
LINE
  5
2D2
330
2
100
AcDbEntity
  8
0
100
AcDbLine
 10
-8.552280960849464
 20
5.385084756778784
 30
0.0
 11
-8.863134063579141
 21
5.385084756778784
 31
0.0
  0
ENDSEC
  0
SECTION
  2
OBJECTS
  0
DICTIONARY
  5
7
330
0
100
AcDbDictionary
281
     1
  3
ACAD_COLOR
350
118
  3
ACAD_GROUP
350
1F
  3
ACAD_LAYOUT
350
B
  3
ACAD_MATERIAL
350
117
  3
ACAD_MLINESTYLE
350
20
  3
ACAD_PLOTSETTINGS
350
21
  3
ACAD_PLOTSTYLENAME
350
6
  3
ACAD_TABLESTYLE
350
119
  3
ACDBHEADERROUNDTRIPXREC
350
2E2
  3
AcDbVariableDictionary
350
113
  0
DICTIONARY
  5
120
330
2
100
AcDbDictionary
280
     1
281
     1
  3
ACAD_SORTENTS
360
121
  0
DICTIONARY
  5
118
102
{ACAD_REACTORS
330
7
102
}
330
7
100
AcDbDictionary
281
     1
  0
DICTIONARY
  5
1F
102
{ACAD_REACTORS
330
7
102
}
330
7
100
AcDbDictionary
281
     1
  0
DICTIONARY
  5
B
102
{ACAD_REACTORS
330
7
102
}
330
7
100
AcDbDictionary
281
     1
  3
Layout1
350
F
  3
Model
350
A
  0
DICTIONARY
  5
117
102
{ACAD_REACTORS
330
7
102
}
330
7
100
AcDbDictionary
281
     1
  0
DICTIONARY
  5
20
102
{ACAD_REACTORS
330
7
102
}
330
7
100
AcDbDictionary
281
     1
  3
STANDARD
350
23
  0
DICTIONARY
  5
21
102
{ACAD_REACTORS
330
7
102
}
330
7
100
AcDbDictionary
281
     1
  0
ACDBDICTIONARYWDFLT
  5
6
102
{ACAD_REACTORS
330
7
102
}
330
7
100
AcDbDictionary
281
     1
  3
Normal
350
5
100
AcDbDictionaryWithDefault
340
5
  0
DICTIONARY
  5
119
102
{ACAD_REACTORS
330
7
102
}
330
7
100
AcDbDictionary
281
     1
  3
Standard
350
11A
  0
DICTIONARY
  5
2E2
102
{ACAD_REACTORS
330
7
102
}
330
7
100
AcDbDictionary
281
     1
  3
COLORDICT
350
2E3
  3
MATERIALDICT
350
2E4
  0
DICTIONARY
  5
113
102
{ACAD_REACTORS
330
7
102
}
330
7
100
AcDbDictionary
281
     1
  3
CTABLESTYLE
350
1CB
  3
HIDETEXT
350
2E1
  0
SORTENTSTABLE
  5
121
102
{ACAD_REACTORS
330
120
102
}
330
120
100
AcDbSortentsTable
330
2
  0
LAYOUT
  5
F
102
{ACAD_REACTORS
330
B
102
}
102
{ACAD_XDICTIONARY
360
2E5
102
}
330
B
100
AcDbPlotSettings
  1

  2
X:\Program Files\AutoCAD2002\plotters\DWF ePlot (optimized for plotting).pc3
  4

  6

 40
0.0
 41
0.0
 42
0.0
 43
0.0
 44
0.0
 45
0.0
 46
0.0
 47
0.0
 48
0.0
 49
0.0
140
0.0
141
0.0
142
1.0
143
1.0
 70
   688
 72
     0
 73
     0
 74
     5
  7

 75
    16
147
1.0
148
0.0
149
0.0
100
AcDbLayout
  1
Layout1
 70
     0
 71
     1
 10
0.0
 20
0.0
 11
12.0
 21
9.0
 12
0.0
 22
0.0
 32
0.0
 14
1.000000000000000E+20
 24
1.000000000000000E+20
 34
1.000000000000000E+20
 15
-1.000000000000000E+20
 25
-1.000000000000000E+20
 35
-1.000000000000000E+20
146
0.0
 13
0.0
 23
0.0
 33
0.0
 16
1.0
 26
0.0
 36
0.0
 17
0.0
 27
1.0
 37
0.0
 76
     0
330
C
  0
LAYOUT
  5
A
102
{ACAD_REACTORS
330
B
102
}
102
{ACAD_XDICTIONARY
360
2E7
102
}
330
B
100
AcDbPlotSettings
  1

  2
X:\Program Files\AutoCAD2002\plotters\DWF ePlot (optimized for plotting).pc3
  4

  6

 40
0.0
 41
0.0
 42
0.0
 43
0.0
 44
0.0
 45
0.0
 46
0.0
 47
0.0
 48
0.0
 49
0.0
140
0.0
141
0.0
142
1.0
143
1.0
 70
  1712
 72
     0
 73
     0
 74
     0
  7

 75
     0
147
1.0
148
0.0
149
0.0
100
AcDbLayout
  1
Model
 70
     1
 71
     0
 10
0.0
 20
0.0
 11
12.0
 21
9.0
 12
0.0
 22
0.0
 32
0.0
 14
0.0
 24
0.0
 34
0.0
 15
0.0
 25
0.0
 35
0.0
146
0.0
 13
0.0
 23
0.0
 33
0.0
 16
1.0
 26
0.0
 36
0.0
 17
0.0
 27
1.0
 37
0.0
 76
     0
330
2
  0
MLINESTYLE
  5
23
102
{ACAD_REACTORS
330
20
102
}
330
20
100
AcDbMlineStyle
  2
STANDARD
 70
     0
  3

 62
   256
 51
90.0
 52
90.0
 71
     2
 49
0.5
 62
   256
  6
BYLAYER
 49
-0.5
 62
   256
  6
BYLAYER
  0
ACDBPLACEHOLDER
  5
5
102
{ACAD_REACTORS
330
6
102
}
330
6
  0
ACAD_PROXY_OBJECT
  5
11A
102
{ACAD_REACTORS
330
119
102
}
330
119
100
AcDbProxyObject
 90
      499
 91
      505
 95
   983063
 70
     0
 93
     1841
310
4214DD185B99185C9928B81E85EB51B8AE3F2E07A17AD46E2B8FC02B5E8DC0F42B1CFD028000000C1008070000C3001FDFF8000000C1003FBFF000000182007F7FE00000030400FEFFC00000060801FDFF8000000C1003FBFF00000018200000000000000681FA0B0000001820100E000186003FBFF000000182007F7FE000
310
00030400FEFFC00000060801FDFF8000000C1003FBFF000000182007F7FE000000304000AD7A3703D0AC73F4160000003040201C00030C007F7FE00000030400FEFFC00000060801FDFF8000000C1003FBFF000000182007F7FE00000030400FEFFC000000608000
340
12
340
12
340
12
 94
        0
  0
XRECORD
  5
2E3
102
{ACAD_REACTORS
330
2E2
102
}
330
2E2
100
AcDbXrecord
340
118
  0
XRECORD
  5
2E4
102
{ACAD_REACTORS
330
2E2
102
}
330
2E2
100
AcDbXrecord
340
117
  0
DICTIONARYVAR
  5
1CB
102
{ACAD_REACTORS
330
113
102
}
330
113
100
DictionaryVariables
280
     0
  1
STANDARD
  0
DICTIONARYVAR
  5
2E1
102
{ACAD_REACTORS
330
113
102
}
330
113
100
DictionaryVariables
280
     0
  1
0
  0
DICTIONARY
  5
2E5
330
F
100
AcDbDictionary
280
     1
281
     1
  3
ACAD_XREC_ROUNDTRIP
360
2E6
  0
DICTIONARY
  5
2E7
330
A
100
AcDbDictionary
280
     1
281
     1
  3
ACAD_XREC_ROUNDTRIP
360
2E8
  0
XRECORD
  5
2E6
102
{ACAD_REACTORS
330
2E5
102
}
330
2E5
100
AcDbXrecord
102
SHADEPLOT
 70
     0
102
SHADEPLOTRESLEVEL
 70
     2
102
SHADEPLOTCUSTOMDPI
 70
   300
  0
XRECORD
  5
2E8
102
{ACAD_REACTORS
330
2E7
102
}
330
2E7
100
AcDbXrecord
102
SHADEPLOT
 70
     0
102
SHADEPLOTRESLEVEL
 70
     2
102
SHADEPLOTCUSTOMDPI
 70
   300
  0
ENDSEC
  0
EOF
