  0
SECTION
  2
HEADER
  9
$ACADVER
  1
AC1015
  9
$ACADMAINTVER
 70
     6
  9
$DWGCODEPAGE
  3
ANSI_1252
  9
$INSBASE
 10
0.0
 20
0.0
 30
0.0
  9
$EXTMIN
 10
-9.860373360493231
 20
-0.0778183476483171
 30
0.0
  9
$EXTMAX
 10
9.860373360493231
 20
12.30388259940046
 30
0.0
  9
$LIMMIN
 10
0.0
 20
0.0
  9
$LIMMAX
 10
31.5
 20
24.0
  9
$ORTHOMODE
 70
     1
  9
$REGENMODE
 70
     1
  9
$FILLMODE
 70
     1
  9
$QTEXTMODE
 70
     0
  9
$MIRRTEXT
 70
     0
  9
$LTSCALE
 40
0.5
  9
$ATTMODE
 70
     1
  9
$TEXTSIZE
 40
0.27
  9
$TRACEWID
 40
0.05
  9
$TEXTSTYLE
  7
STANDARD
  9
$CLAYER
  8
0
  9
$CELTYPE
  6
BYLAYER
  9
$CECOLOR
 62
   256
  9
$CELTSCALE
 40
1.0
  9
$DISPSILH
 70
     0
  9
$DIMSCALE
 40
1.0
  9
$DIMASZ
 40
0.375
  9
$DIMEXO
 40
0.0625
  9
$DIMDLI
 40
0.75
  9
$DIMRND
 40
0.0
  9
$DIMDLE
 40
0.0
  9
$DIMEXE
 40
0.18
  9
$DIMTP
 40
0.0
  9
$DIMTM
 40
0.0
  9
$DIMTXT
 40
0.27
  9
$DIMCEN
 40
-0.06
  9
$DIMTSZ
 40
0.0
  9
$DIMTOL
 70
     0
  9
$DIMLIM
 70
     0
  9
$DIMTIH
 70
     1
  9
$DIMTOH
 70
     1
  9
$DIMSE1
 70
     0
  9
$DIMSE2
 70
     0
  9
$DIMTAD
 70
     0
  9
$DIMZIN
 70
     0
  9
$DIMBLK
  1

  9
$DIMASO
 70
     0
  9
$DIMSHO
 70
     0
  9
$DIMPOST
  1

  9
$DIMAPOST
  1

  9
$DIMALT
 70
     0
  9
$DIMALTD
 70
     2
  9
$DIMALTF
 40
25.4
  9
$DIMLFAC
 40
1.0
  9
$DIMTOFL
 70
     0
  9
$DIMTVP
 40
0.0
  9
$DIMTIX
 70
     0
  9
$DIMSOXD
 70
     0
  9
$DIMSAH
 70
     0
  9
$DIMBLK1
  1

  9
$DIMBLK2
  1

  9
$DIMSTYLE
  2
STANDARD
  9
$DIMCLRD
 70
     0
  9
$DIMCLRE
 70
     0
  9
$DIMCLRT
 70
     0
  9
$DIMTFAC
 40
1.0
  9
$DIMGAP
 40
0.09
  9
$DIMJUST
 70
     0
  9
$DIMSD1
 70
     0
  9
$DIMSD2
 70
     0
  9
$DIMTOLJ
 70
     1
  9
$DIMTZIN
 70
     0
  9
$DIMALTZ
 70
     0
  9
$DIMALTTZ
 70
     0
  9
$DIMUPT
 70
     0
  9
$DIMDEC
 70
     5
  9
$DIMTDEC
 70
     5
  9
$DIMALTU
 70
     5
  9
$DIMALTTD
 70
     2
  9
$DIMTXSTY
  7
STANDARD
  9
$DIMAUNIT
 70
     0
  9
$DIMADEC
 70
     0
  9
$DIMALTRND
 40
0.0
  9
$DIMAZIN
 70
     0
  9
$DIMDSEP
 70
    46
  9
$DIMATFIT
 70
     3
  9
$DIMFRAC
 70
     0
  9
$DIMLDRBLK
  1

  9
$DIMLUNIT
 70
     5
  9
$DIMLWD
 70
    -2
  9
$DIMLWE
 70
    -2
  9
$DIMTMOVE
 70
     2
  9
$LUNITS
 70
     5
  9
$LUPREC
 70
     5
  9
$SKETCHINC
 40
0.1
  9
$FILLETRAD
 40
0.0
  9
$AUNITS
 70
     0
  9
$AUPREC
 70
     0
  9
$MENU
  1
ACAD
  9
$ELEVATION
 40
0.0
  9
$PELEVATION
 40
0.0
  9
$THICKNESS
 40
0.0
  9
$LIMCHECK
 70
     0
  9
$CHAMFERA
 40
0.0
  9
$CHAMFERB
 40
0.0
  9
$CHAMFERC
 40
0.0
  9
$CHAMFERD
 40
0.0
  9
$SKPOLY
 70
     0
  9
$TDCREATE
 40
2449212.69669294
  9
$TDUCREATE
 40
2449213.030026273
  9
$TDUPDATE
 40
2454160.605999329
  9
$TDUUPDATE
 40
2454160.939332662
  9
$TDINDWG
 40
0.3724019213
  9
$TDUSRTIMER
 40
0.3724019213
  9
$USRTIMER
 70
     1
  9
$ANGBASE
 50
0.0
  9
$ANGDIR
 70
     0
  9
$PDMODE
 70
     0
  9
$PDSIZE
 40
0.0
  9
$PLINEWID
 40
0.0
  9
$SPLFRAME
 70
     0
  9
$SPLINETYPE
 70
     6
  9
$SPLINESEGS
 70
     8
  9
$HANDSEED
  5
2E6
  9
$SURFTAB1
 70
     6
  9
$SURFTAB2
 70
     6
  9
$SURFTYPE
 70
     6
  9
$SURFU
 70
     6
  9
$SURFV
 70
     6
  9
$UCSBASE
  2

  9
$UCSNAME
  2

  9
$UCSORG
 10
0.0
 20
0.0
 30
0.0
  9
$UCSXDIR
 10
1.0
 20
0.0
 30
0.0
  9
$UCSYDIR
 10
0.0
 20
1.0
 30
0.0
  9
$UCSORTHOREF
  2

  9
$UCSORTHOVIEW
 70
     0
  9
$UCSORGTOP
 10
0.0
 20
0.0
 30
0.0
  9
$UCSORGBOTTOM
 10
0.0
 20
0.0
 30
0.0
  9
$UCSORGLEFT
 10
0.0
 20
0.0
 30
0.0
  9
$UCSORGRIGHT
 10
0.0
 20
0.0
 30
0.0
  9
$UCSORGFRONT
 10
0.0
 20
0.0
 30
0.0
  9
$UCSORGBACK
 10
0.0
 20
0.0
 30
0.0
  9
$PUCSBASE
  2

  9
$PUCSNAME
  2

  9
$PUCSORG
 10
0.0
 20
0.0
 30
0.0
  9
$PUCSXDIR
 10
1.0
 20
0.0
 30
0.0
  9
$PUCSYDIR
 10
0.0
 20
1.0
 30
0.0
  9
$PUCSORTHOREF
  2

  9
$PUCSORTHOVIEW
 70
     0
  9
$PUCSORGTOP
 10
0.0
 20
0.0
 30
0.0
  9
$PUCSORGBOTTOM
 10
0.0
 20
0.0
 30
0.0
  9
$PUCSORGLEFT
 10
0.0
 20
0.0
 30
0.0
  9
$PUCSORGRIGHT
 10
0.0
 20
0.0
 30
0.0
  9
$PUCSORGFRONT
 10
0.0
 20
0.0
 30
0.0
  9
$PUCSORGBACK
 10
0.0
 20
0.0
 30
0.0
  9
$USERI1
 70
     0
  9
$USERI2
 70
     0
  9
$USERI3
 70
     0
  9
$USERI4
 70
     0
  9
$USERI5
 70
     0
  9
$USERR1
 40
0.0
  9
$USERR2
 40
0.0
  9
$USERR3
 40
0.0
  9
$USERR4
 40
0.0
  9
$USERR5
 40
0.0
  9
$WORLDVIEW
 70
     1
  9
$SHADEDGE
 70
     3
  9
$SHADEDIF
 70
    70
  9
$TILEMODE
 70
     1
  9
$MAXACTVP
 70
    16
  9
$PINSBASE
 10
0.0
 20
0.0
 30
0.0
  9
$PLIMCHECK
 70
     0
  9
$PEXTMIN
 10
1.000000000000000E+20
 20
1.000000000000000E+20
 30
1.000000000000000E+20
  9
$PEXTMAX
 10
-1.000000000000000E+20
 20
-1.000000000000000E+20
 30
-1.000000000000000E+20
  9
$PLIMMIN
 10
0.0
 20
0.0
  9
$PLIMMAX
 10
12.0
 20
9.0
  9
$UNITMODE
 70
     0
  9
$VISRETAIN
 70
     0
  9
$PLINEGEN
 70
     1
  9
$PSLTSCALE
 70
     0
  9
$TREEDEPTH
 70
  3020
  9
$CMLSTYLE
  2
STANDARD
  9
$CMLJUST
 70
     0
  9
$CMLSCALE
 40
1.0
  9
$PROXYGRAPHICS
 70
     1
  9
$MEASUREMENT
 70
     0
  9
$CELWEIGHT
370
    -1
  9
$ENDCAPS
280
     0
  9
$JOINSTYLE
280
     0
  9
$LWDISPLAY
290
     0
  9
$INSUNITS
 70
     0
  9
$HYPERLINKBASE
  1

  9
$STYLESHEET
  1

  9
$XEDIT
290
     1
  9
$CEPSNTYPE
380
     0
  9
$PSTYLEMODE
290
     1
  9
$FINGERPRINTGUID
  2
{4FB9499E-D24D-40A9-BAF6-8D407A871096}
  9
$VERSIONGUID
  2
{D790DA66-0036-4BC1-8542-F0C48565B4E3}
  9
$EXTNAMES
290
     1
  9
$PSVPSCALE
 40
0.0
  9
$OLESTARTUP
290
     0
  0
ENDSEC
  0
SECTION
  2
CLASSES
  0
CLASS
  1
DICTIONARYVAR
  2
AcDbDictionaryVar
  3
AutoCAD 2000
 90
        0
280
     0
281
     0
  0
CLASS
  1
LWPOLYLINE
  2
AcDbPolyline
  3
AutoCAD 2000
 90
        0
280
     0
281
     1
  0
CLASS
  1
ACDBDICTIONARYWDFLT
  2
AcDbDictionaryWithDefault
  3
AutoCAD 2000
 90
        0
280
     0
281
     0
  0
CLASS
  1
ACDBPLACEHOLDER
  2
AcDbPlaceHolder
  3
ObjectDBX Classes
 90
        0
280
     0
281
     0
  0
CLASS
  1
LAYOUT
  2
AcDbLayout
  3
ObjectDBX Classes
 90
        0
280
     0
281
     0
  0
CLASS
  1
TABLESTYLE
  2
AcDbTableStyle
  3
ObjectDBX Classes
 90
     2047
280
     1
281
     0
  0
CLASS
  1
SORTENTSTABLE
  2
AcDbSortentsTable
  3
AutoCAD 2000
 90
        0
280
     0
281
     0
  0
ENDSEC
  0
SECTION
  2
TABLES
  0
TABLE
  2
VPORT
  5
19
330
0
100
AcDbSymbolTable
 70
     2
  0
VPORT
  5
2D8
330
19
100
AcDbSymbolTableRecord
100
AcDbViewportTableRecord
  2
*Active
 70
     0
 10
0.0
 20
0.0
 11
1.0
 21
1.0
 12
10.8187642417387
 22
13.70315814784109
 13
0.0
 23
0.0
 14
0.0625
 24
0.0625
 15
0.5
 25
0.5
 16
0.0
 26
0.0
 36
1.0
 17
0.0
 27
0.0
 37
0.0
 40
27.95078929253866
 41
1.55012853470437
 42
50.0
 43
0.0
 44
0.0
 50
0.0
 51
0.0
 71
     0
 72
   100
 73
     1
 74
     1
 75
     0
 76
     0
 77
     0
 78
     0
281
     0
 65
     1
110
0.0
120
0.0
130
0.0
111
1.0
121
0.0
131
0.0
112
0.0
122
1.0
132
0.0
 79
     0
146
0.0
  0
ENDTAB
  0
TABLE
  2
LTYPE
  5
14
330
0
100
AcDbSymbolTable
 70
     2
  0
LTYPE
  5
15
330
14
100
AcDbSymbolTableRecord
100
AcDbLinetypeTableRecord
  2
BYBLOCK
 70
     0
  3

 72
    65
 73
     0
 40
0.0
  0
LTYPE
  5
16
330
14
100
AcDbSymbolTableRecord
100
AcDbLinetypeTableRecord
  2
BYLAYER
 70
     0
  3

 72
    65
 73
     0
 40
0.0
  0
LTYPE
  5
8
330
14
100
AcDbSymbolTableRecord
100
AcDbLinetypeTableRecord
  2
CONTINUOUS
 70
     0
  3
Solid line
 72
    65
 73
     0
 40
0.0
  0
LTYPE
  5
232
330
14
100
AcDbSymbolTableRecord
100
AcDbLinetypeTableRecord
  2
HIDDEN
 70
     0
  3
Hidden __ __ __ __ __ __ __ __ __ __ __ __ __ _
 72
    65
 73
     2
 40
0.375
 49
0.25
 74
     0
 49
-0.125
 74
     0
  0
ENDTAB
  0
TABLE
  2
LAYER
  5
10
330
0
100
AcDbSymbolTable
 70
     2
  0
LAYER
  5
4
330
10
100
AcDbSymbolTableRecord
100
AcDbLayerTableRecord
  2
0
 70
     0
 62
     7
  6
CONTINUOUS
370
    -3
390
5
  0
ENDTAB
  0
TABLE
  2
STYLE
  5
11
330
0
100
AcDbSymbolTable
 70
     2
  0
STYLE
  5
12
330
11
100
AcDbSymbolTableRecord
100
AcDbTextStyleTableRecord
  2
STANDARD
 70
     0
 40
0.0
 41
1.0
 50
0.0
 71
     0
 42
0.27
  3
TXT
  4

  0
ENDTAB
  0
TABLE
  2
VIEW
  5
17
330
0
100
AcDbSymbolTable
 70
     0
  0
ENDTAB
  0
TABLE
  2
UCS
  5
18
330
0
100
AcDbSymbolTable
 70
     0
  0
ENDTAB
  0
TABLE
  2
APPID
  5
1B
330
0
100
AcDbSymbolTable
 70
     1
  0
APPID
  5
1C
330
1B
100
AcDbSymbolTableRecord
100
AcDbRegAppTableRecord
  2
ACAD
 70
     0
  0
ENDTAB
  0
TABLE
  2
DIMSTYLE
  5
1D
330
0
100
AcDbSymbolTable
 70
     1
100
AcDbDimStyleTable
  0
DIMSTYLE
105
24
330
1D
100
AcDbSymbolTableRecord
100
AcDbDimStyleTableRecord
  2
STANDARD
 70
     0
  3

  4

340
12
  0
ENDTAB
  0
TABLE
  2
BLOCK_RECORD
  5
1
330
0
100
AcDbSymbolTable
 70
     0
  0
BLOCK_RECORD
  5
2
102
{ACAD_XDICTIONARY
360
120
102
}
330
1
100
AcDbSymbolTableRecord
100
AcDbBlockTableRecord
  2
*MODEL_SPACE
340
A
  0
BLOCK_RECORD
  5
C
330
1
100
AcDbSymbolTableRecord
100
AcDbBlockTableRecord
  2
*PAPER_SPACE
340
F
  0
ENDTAB
  0
ENDSEC
  0
SECTION
  2
BLOCKS
  0
BLOCK
  5
3
330
2
100
AcDbEntity
  8
0
100
AcDbBlockBegin
  2
*MODEL_SPACE
 70
     0
 10
0.0
 20
0.0
 30
0.0
  3
*MODEL_SPACE
  1

  4

  0
ENDBLK
  5
9
330
2
100
AcDbEntity
  8
0
100
AcDbBlockEnd
  0
BLOCK
  5
D
330
C
100
AcDbEntity
 67
     1
  8
0
100
AcDbBlockBegin
  2
*PAPER_SPACE
 70
     0
 10
0.0
 20
0.0
 30
0.0
  3
*PAPER_SPACE
  1

  4

  0
ENDBLK
  5
E
330
C
100
AcDbEntity
 67
     1
  8
0
100
AcDbBlockEnd
  0
ENDSEC
  0
SECTION
  2
ENTITIES
  0
LINE
  5
125
330
2
100
AcDbEntity
  8
0
100
AcDbLine
 10
8.547873360493231
 20
1.921532271377533
 30
0.0
 11
8.547873360493231
 21
2.984032271377533
 31
0.0
  0
LINE
  5
126
330
2
100
AcDbEntity
  8
0
100
AcDbLine
 10
8.496245360493234
 20
2.984032271377533
 30
0.0
 11
8.496245360493234
 21
1.921532271377533
 31
0.0
  0
LINE
  5
128
330
2
100
AcDbEntity
  8
0
100
AcDbLine
 10
7.753148360493231
 20
1.764430000000001
 30
0.0
 11
7.753148360493231
 21
2.409446419524265
 31
0.0
  0
LINE
  5
129
330
2
100
AcDbEntity
  8
0
100
AcDbLine
 10
8.547873360493231
 20
1.448070000000008
 30
0.0
 11
8.547873360493231
 21
3.573070000000001
 31
0.0
  0
LINE
  5
12A
330
2
100
AcDbEntity
  8
0
100
AcDbLine
 10
8.496245360493234
 20
3.573070000000001
 30
0.0
 11
8.496245360493234
 21
1.323477830287452
 31
0.0
  0
ARC
  5
12B
330
2
100
AcDbEntity
  8
0
100
AcDbCircle
 10
11.99162336049323
 20
-0.0519299999999951
 30
0.0
 40
3.75625
100
AcDbArc
 50
156.46342
 51
180.0
  0
LINE
  5
12C
330
2
100
AcDbEntity
  8
0
100
AcDbLine
 10
6.735373360493231
 20
0.0
 30
0.0
 11
6.735373360493231
 21
0.5486300000000028
 31
0.0
  0
LINE
  5
12D
330
2
100
AcDbEntity
  8
0
100
AcDbLine
 10
6.735373360493231
 20
-0.0519299999999987
 30
0.0
 11
8.235373360493231
 21
-0.0519299999999987
 31
0.0
  0
LINE
  5
12E
330
2
100
AcDbEntity
  8
0
  6
HIDDEN
100
AcDbLine
 10
8.235732360493234
 20
0.0
 30
0.0
 11
6.735373360493231
 21
0.0
 31
0.0
  0
LINE
  5
12F
330
2
100
AcDbEntity
  8
0
100
AcDbLine
 10
6.735373360493231
 20
-0.0519299999999987
 30
0.0
 11
6.735373360493231
 21
0.0
 31
0.0
  0
LINE
  5
130
330
2
100
AcDbEntity
  8
0
100
AcDbLine
 10
6.735373360493231
 20
0.5486300000000028
 30
0.0
 11
7.753148360493231
 21
1.764430000000001
 31
0.0
  0
ARC
  5
133
330
2
100
AcDbEntity
  8
0
100
AcDbCircle
 10
7.839169360493234
 20
4.089052271377536
 30
0.0
 40
0.08633938
100
AcDbArc
 50
137.2623
 51
185.29312
  0
LINE
  5
135
330
2
100
AcDbEntity
  8
0
100
AcDbLine
 10
8.547873360493231
 20
2.902702271377532
 30
0.0
 11
8.547873360493229
 21
5.209622271377533
 31
0.0
  0
LINE
  5
136
330
2
100
AcDbEntity
  8
0
100
AcDbLine
 10
8.496245360493239
 20
5.198302271377536
 30
0.0
 11
8.496245360493234
 21
3.688952271377534
 31
0.0
  0
ARC
  5
137
330
2
100
AcDbEntity
  8
0
100
AcDbCircle
 10
7.815648360493231
 20
2.712472336888521
 30
0.0
 40
0.3125
100
AcDbArc
 50
101.537
 51
258.46304
  0
LINE
  5
138
330
2
100
AcDbEntity
  8
0
100
AcDbLine
 10
8.496245360493234
 20
3.747908940052128
 30
0.0
 11
8.496245360493234
 21
2.902702271377532
 31
0.0
  0
LINE
  5
139
330
2
100
AcDbEntity
  8
0
100
AcDbLine
 10
7.753148360493231
 20
3.021236557308608
 30
0.0
 11
7.753148360493231
 21
3.57292
 31
0.0
  0
LINE
  5
13B
330
2
100
AcDbEntity
  8
0
100
AcDbLine
 10
7.753148360493231
 20
3.013013950364421
 30
0.0
 11
7.753148360493231
 21
4.095232271377533
 31
0.0
  0
LINE
  5
13C
330
2
100
AcDbEntity
  8
0
100
AcDbLine
 10
7.753148360493231
 20
3.57292
 30
0.0
 11
7.753148360493231
 21
3.783160000000002
 31
0.0
  0
LINE
  5
13D
330
2
100
AcDbEntity
  8
0
100
AcDbLine
 10
7.753148360493231
 20
3.783160000000002
 30
0.0
 11
7.753148360493231
 21
3.912020000000002
 31
0.0
  0
LINE
  5
13E
330
2
100
AcDbEntity
  8
0
100
AcDbLine
 10
8.547873360493231
 20
3.573070000000001
 30
0.0
 11
8.547873360493231
 21
3.783160000000002
 31
0.0
  0
LINE
  5
13F
330
2
100
AcDbEntity
  8
0
100
AcDbLine
 10
8.496245360493234
 20
3.573070000000001
 30
0.0
 11
8.496245360493234
 21
3.783160000000002
 31
0.0
  0
LINE
  5
146
330
2
100
AcDbEntity
  8
0
100
AcDbLine
 10
-0.8330560000000009
 20
4.898092271377532
 30
0.0
 11
-1.030737000000002
 21
5.198272271377533
 31
0.0
  0
ARC
  5
147
330
2
100
AcDbEntity
  8
0
100
AcDbCircle
 10
-1.334340563952946
 20
0.6028728040439919
 30
0.0
 40
0.5037125
100
AcDbArc
 50
0.0000000000001527
 51
82.40677
  0
LINE
  5
149
330
2
100
AcDbEntity
  8
0
100
AcDbLine
 10
-1.291645864943099
 20
1.116211630468966
 30
0.0
 11
-1.701899125192507
 21
1.88259564856719
 31
0.0
  0
LINE
  5
14A
330
2
100
AcDbEntity
  8
0
100
AcDbLine
 10
-1.265886518474117
 20
1.101728914403456
 30
0.0
 11
-1.291645864943099
 21
1.116211630468966
 31
0.0
  0
LINE
  5
14B
330
2
100
AcDbEntity
  8
0
100
AcDbLine
 10
-1.721916397173229
 20
1.972561955372484
 30
0.0
 11
-1.721916397173229
 21
1.922817280472604
 31
0.0
  0
ARC
  5
14C
330
2
100
AcDbEntity
  8
0
100
AcDbCircle
 10
-1.585076211692381
 20
1.940247126113547
 30
0.0
 40
0.1370264206836484
100
AcDbArc
 50
186.814738306187
 51
211.9685372228437
  0
ARC
  5
14D
330
2
100
AcDbEntity
  8
0
100
AcDbCircle
 10
-1.637755004237355
 20
1.980439022982242
 30
0.0
 40
0.0848988467900542
100
AcDbArc
 50
105.0899061949942
 51
184.8555871373026
  0
LINE
  5
14E
330
2
100
AcDbEntity
  8
0
100
AcDbLine
 10
-1.720408345025309
 20
4.259194540662236
 30
0.0
 11
-1.720408345025309
 21
2.791271331674572
 31
0.0
  0
ARC
  5
14F
330
2
100
AcDbEntity
  8
0
100
AcDbCircle
 10
-1.62202647454643
 20
2.789146496069257
 30
0.0
 40
0.0978250110679527
100
AcDbArc
 50
178.7226712895547
 51
246.3029870172243
  0
LINE
  5
150
330
2
100
AcDbEntity
  8
0
100
AcDbLine
 10
-1.626711792144804
 20
2.685524560119397
 30
0.0
 11
-1.662246039793289
 21
2.700133025979067
 31
0.0
  0
LINE
  5
151
330
2
100
AcDbEntity
  8
0
100
AcDbLine
 10
-1.728631843932091
 20
4.26159232795446
 30
0.0
 11
-2.571305137919667
 21
5.377880418281148
 31
0.0
  0
CIRCLE
  5
152
330
2
100
AcDbEntity
  8
0
100
AcDbCircle
 10
-1.645571000000001
 20
4.63359227137753
 30
0.0
 40
0.0855
  0
LINE
  5
153
330
2
100
AcDbEntity
  8
0
100
AcDbLine
 10
-1.913596000000001
 20
5.374982271377533
 30
0.0
 11
-1.434218000000001
 21
5.374982271377533
 31
0.0
  0
ARC
  5
154
330
2
100
AcDbEntity
  8
0
100
AcDbCircle
 10
-2.045573000000002
 20
5.265462271377533
 30
0.0
 40
0.1715
100
AcDbArc
 50
355.6512
 51
184.3488
  0
ARC
  5
155
330
2
100
AcDbEntity
  8
0
100
AcDbCircle
 10
-2.045573000000002
 20
5.110652271377532
 30
0.0
 40
0.1715
100
AcDbArc
 50
175.6512
 51
4.348846
  0
LINE
  5
156
330
2
100
AcDbEntity
  8
0
100
AcDbLine
 10
-2.569008218217777
 20
5.374982271377533
 30
0.0
 11
-2.168847482816456
 21
5.374982271377533
 31
0.0
  0
LINE
  5
157
330
2
100
AcDbEntity
  8
0
100
AcDbLine
 10
-2.567308358788948
 20
5.374982271377533
 30
0.0
 11
-2.175343199317704
 21
5.374982271377533
 31
0.0
  0
LINE
  5
158
330
2
100
AcDbEntity
  8
0
100
AcDbLine
 10
-2.216579000000001
 20
5.123662271377533
 30
0.0
 11
-2.216579000000001
 21
5.252452271377532
 31
0.0
  0
LINE
  5
159
330
2
100
AcDbEntity
  8
0
100
AcDbLine
 10
-1.874567000000002
 20
5.123662271377533
 30
0.0
 11
-1.874567000000002
 21
5.252452271377532
 31
0.0
  0
ARC
  5
15A
330
2
100
AcDbEntity
  8
0
100
AcDbCircle
 10
-1.303128000000002
 20
5.264402271377531
 30
0.0
 40
0.1715
100
AcDbArc
 50
359.446
 51
180.2493
  0
ARC
  5
15B
330
2
100
AcDbEntity
  8
0
100
AcDbCircle
 10
-1.303128000000002
 20
5.115131692059354
 30
0.0
 40
0.1715
100
AcDbArc
 50
179.7507
 51
0.5540603
  0
LINE
  5
15C
330
2
100
AcDbEntity
  8
0
100
AcDbLine
 10
-1.474627000000001
 20
5.115877904353809
 30
0.0
 11
-1.474627000000001
 21
5.263652271377531
 31
0.0
  0
LINE
  5
15D
330
2
100
AcDbEntity
  8
0
100
AcDbLine
 10
-1.172039000000002
 20
5.374982271377533
 30
0.0
 11
-1.031476000000001
 21
5.374982271377533
 31
0.0
  0
LINE
  5
15E
330
2
100
AcDbEntity
  8
0
100
AcDbLine
 10
-1.131636000000002
 20
5.120990928972738
 30
0.0
 11
-1.131636000000002
 21
5.26274227137753
 31
0.0
  0
LINE
  5
15F
330
2
100
AcDbEntity
  8
0
100
AcDbLine
 10
-1.030737000000002
 20
5.374982271377533
 30
0.0
 11
-1.030737000000002
 21
5.198272271377533
 31
0.0
  0
LINE
  5
160
330
2
100
AcDbEntity
  8
0
100
AcDbLine
 10
-0.8330560000000009
 20
4.895594990845073
 30
0.0
 11
-0.8330560000000009
 21
1.219008076271395
 31
0.0
  0
LINE
  5
161
330
2
100
AcDbEntity
  8
0
100
AcDbLine
 10
-0.7814760000000014
 20
4.825158804332158
 30
0.0
 11
-0.7814760000000014
 21
0.0621100000000006
 31
0.0
  0
LINE
  5
162
330
2
100
AcDbEntity
  8
0
100
AcDbLine
 10
0.8330559999999991
 20
4.89220666179104
 30
0.0
 11
0.8330559999999991
 21
1.170130441002055
 31
0.0
  0
LINE
  5
163
330
2
100
AcDbEntity
  8
0
100
AcDbLine
 10
1.709563436477787
 20
1.96586606371044
 30
0.0
 11
1.709563436477787
 21
2.410651058173727
 31
0.0
  0
LINE
  5
164
330
2
100
AcDbEntity
  8
0
100
AcDbLine
 10
0.7810239999999986
 20
0.0621100000000006
 30
0.0
 11
0.7810239999999986
 21
4.819130822550392
 31
0.0
  0
LINE
  5
165
330
2
100
AcDbEntity
  8
0
100
AcDbLine
 10
-0.8330560000000009
 20
0.3702699969476839
 30
0.0
 11
-0.833056
 21
0.0730700000000013
 31
0.0
  0
LINE
  5
166
330
2
100
AcDbEntity
  8
0
100
AcDbLine
 10
0.8330559999999991
 20
0.3702699969476839
 30
0.0
 11
0.8330559999999991
 21
0.0730700000000013
 31
0.0
  0
ARC
  5
167
330
2
100
AcDbEntity
  8
0
100
AcDbCircle
 10
0.708056
 20
0.0730700000000013
 30
0.0
 40
0.125
100
AcDbArc
 50
270.0
 51
0.0
  0
LINE
  5
168
330
2
100
AcDbEntity
  8
0
100
AcDbLine
 10
-0.708056
 20
-0.0519299999999987
 30
0.0
 11
0.708056
 21
-0.0519299999999987
 31
0.0
  0
LINE
  5
169
330
2
100
AcDbEntity
  8
0
100
AcDbLine
 10
-0.7189760000000005
 20
-0.0003899999999994
 30
0.0
 11
0.7185239999999995
 21
-0.0003899999999994
 31
0.0
  0
ARC
  5
16A
330
2
100
AcDbEntity
  8
0
100
AcDbCircle
 10
-0.708056
 20
0.0730700000000013
 30
0.0
 40
0.125
100
AcDbArc
 50
180.0
 51
270.0
  0
ARC
  5
16B
330
2
100
AcDbEntity
  8
0
100
AcDbCircle
 10
-0.7189760000000005
 20
0.0621100000000006
 30
0.0
 40
0.0625
100
AcDbArc
 50
180.0
 51
270.0
  0
ARC
  5
16C
330
2
100
AcDbEntity
  8
0
100
AcDbCircle
 10
0.7185239999999995
 20
0.0621100000000006
 30
0.0
 40
0.0625
100
AcDbArc
 50
270.0
 51
0.0
  0
ARC
  5
16D
330
2
100
AcDbEntity
  8
0
100
AcDbCircle
 10
1.270484
 20
0.6803197703628747
 30
0.0
 40
0.4412591
100
AcDbArc
 50
90.0
 51
172.4423
  0
LINE
  5
16E
330
2
100
AcDbEntity
  8
0
100
AcDbLine
 10
-0.8330560000000009
 20
1.243489996947686
 30
0.0
 11
-0.8330560000000009
 21
0.6202699969476839
 31
0.0
  0
LINE
  5
16F
330
2
100
AcDbEntity
  8
0
100
AcDbLine
 10
-0.8330560000000009
 20
0.3702699969476839
 30
0.0
 11
-0.8330560000000009
 21
0.6202699969476839
 31
0.0
  0
LINE
  5
170
330
2
100
AcDbEntity
  8
0
100
AcDbLine
 10
-0.7814760000000014
 20
0.4327699969476839
 30
0.0
 11
-0.7814760000000014
 21
0.3152699969476842
 31
0.0
  0
LINE
  5
171
330
2
100
AcDbEntity
  8
0
100
AcDbLine
 10
0.7810239999999986
 20
0.4327699969476839
 30
0.0
 11
0.7810239999999986
 21
0.3152699969476842
 31
0.0
  0
LINE
  5
172
330
2
100
AcDbEntity
  8
0
100
AcDbLine
 10
0.8330559999999991
 20
1.245269996947684
 30
0.0
 11
0.8330559999999991
 21
0.6202699969476839
 31
0.0
  0
LINE
  5
173
330
2
100
AcDbEntity
  8
0
100
AcDbLine
 10
1.270484
 20
1.121579770362873
 30
0.0
 11
1.692252050311613
 21
1.913171857815367
 31
0.0
  0
LINE
  5
174
330
2
100
AcDbEntity
  8
0
100
AcDbLine
 10
0.8330559999999991
 20
0.6202699969476839
 30
0.0
 11
0.8330559999999991
 21
0.3702699969476839
 31
0.0
  0
ARC
  5
175
330
2
100
AcDbEntity
  8
0
100
AcDbCircle
 10
1.270484
 20
0.6803197703628747
 30
0.0
 40
0.4412591
100
AcDbArc
 50
187.1682
 51
187.5577
  0
ARC
  5
176
330
2
100
AcDbEntity
  8
0
100
AcDbCircle
 10
1.611600561742694
 20
1.968560494269084
 30
0.0
 40
0.0978394790285822
100
AcDbArc
 50
325.5200748813015
 51
2.141536636239843
  0
LINE
  5
177
330
2
100
AcDbEntity
  8
0
100
AcDbLine
 10
1.707984233671422
 20
4.26159232795446
 30
0.0
 11
2.539165057241663
 21
5.372366175809791
 31
0.0
  0
LINE
  5
178
330
2
100
AcDbEntity
  8
0
100
AcDbLine
 10
2.555103642977748
 20
5.374982271377533
 30
0.0
 11
2.177263999999997
 21
5.374982271377533
 31
0.0
  0
LINE
  5
179
330
2
100
AcDbEntity
  8
0
100
AcDbLine
 10
0.7811869999999992
 20
3.258362271377532
 30
0.0
 11
0.7811869999999992
 21
4.819772271377534
 31
0.0
  0
LINE
  5
17A
330
2
100
AcDbEntity
  8
0
100
AcDbLine
 10
1.707953999999999
 20
3.22114353297744
 30
0.0
 11
1.707953999999999
 21
4.246455175062408
 31
0.0
  0
LINE
  5
17B
330
2
100
AcDbEntity
  8
0
100
AcDbLine
 10
0.8332189999999979
 20
4.830373259356644
 30
0.0
 11
0.8332189999999979
 21
3.258362271377532
 31
0.0
  0
LINE
  5
17C
330
2
100
AcDbEntity
  8
0
100
AcDbLine
 10
-0.8330560000000009
 20
4.898092271377532
 30
0.0
 11
-0.8330560000000009
 21
3.258362271377532
 31
0.0
  0
LINE
  5
17D
330
2
100
AcDbEntity
  8
0
100
AcDbLine
 10
-0.7814760000000014
 20
4.819772271377534
 30
0.0
 11
-0.7814760000000014
 21
3.258362271377532
 31
0.0
  0
ARC
  5
180
330
2
100
AcDbEntity
  8
0
100
AcDbCircle
 10
1.624836563395197
 20
2.406750266188823
 30
0.0
 40
0.0848988467900542
100
AcDbArc
 50
355.1444128626974
 51
74.91009380500576
  0
ARC
  5
181
330
2
100
AcDbEntity
  8
0
100
AcDbCircle
 10
1.610011723128027
 20
3.217706611728953
 30
0.0
 40
0.0978250110679527
100
AcDbArc
 50
293.6970129827757
 51
1.277328710445262
  0
LINE
  5
182
330
2
100
AcDbEntity
  8
0
100
AcDbLine
 10
1.614939151286038
 20
3.111371620183157
 30
0.0
 11
1.649343073073956
 21
3.127002223855026
 31
0.0
  0
LINE
  5
183
330
2
100
AcDbEntity
  8
0
100
AcDbLine
 10
0.7811869999999992
 20
4.819772271377534
 30
0.0
 11
0.8332189999999979
 21
4.898782271377534
 31
0.0
  0
LINE
  5
184
330
2
100
AcDbEntity
  8
0
100
AcDbLine
 10
-0.7814760000000014
 20
4.819772271377534
 30
0.0
 11
-0.8330560000000009
 21
4.898092271377532
 31
0.0
  0
LINE
  5
185
330
2
100
AcDbEntity
  8
0
100
AcDbLine
 10
0.8327669999999987
 20
4.898092271377532
 30
0.0
 11
1.030443999999998
 21
5.198272271377533
 31
0.0
  0
CIRCLE
  5
186
330
2
100
AcDbEntity
  8
0
100
AcDbCircle
 10
1.645283999999998
 20
4.63359227137753
 30
0.0
 40
0.0855
  0
LINE
  5
187
330
2
100
AcDbEntity
  8
0
100
AcDbLine
 10
1.913303999999998
 20
5.374982271377533
 30
0.0
 11
1.433923999999999
 21
5.374982271377533
 31
0.0
  0
ARC
  5
188
330
2
100
AcDbEntity
  8
0
100
AcDbCircle
 10
1.302843999999999
 20
5.264402271377531
 30
0.0
 40
0.1715
100
AcDbArc
 50
359.7507
 51
180.5541
  0
ARC
  5
189
330
2
100
AcDbEntity
  8
0
100
AcDbCircle
 10
1.302843999999999
 20
5.119042701696753
 30
0.0
 40
0.1715
100
AcDbArc
 50
179.4459
 51
0.2493315
  0
LINE
  5
18A
330
2
100
AcDbEntity
  8
0
100
AcDbLine
 10
1.171753999999998
 20
5.374982271377533
 30
0.0
 11
1.031184
 21
5.374982271377533
 31
0.0
  0
LINE
  5
18B
330
2
100
AcDbEntity
  8
0
100
AcDbLine
 10
1.030443999999998
 20
5.374982271377533
 30
0.0
 11
1.030443999999998
 21
5.198272271377533
 31
0.0
  0
LINE
  5
18C
330
2
100
AcDbEntity
  8
0
100
AcDbLine
 10
1.131343999999999
 20
5.11665388496019
 30
0.0
 11
1.131343999999999
 21
5.26274227137753
 31
0.0
  0
LINE
  5
18D
330
2
100
AcDbEntity
  8
0
100
AcDbLine
 10
1.474333999999999
 20
5.111916617645122
 30
0.0
 11
1.474333999999999
 21
5.263652271377531
 31
0.0
  0
ARC
  5
18E
330
2
100
AcDbEntity
  8
0
100
AcDbCircle
 10
2.045283999999999
 20
5.265462271377533
 30
0.0
 40
0.1715
100
AcDbArc
 50
355.6512
 51
184.3488
  0
ARC
  5
18F
330
2
100
AcDbEntity
  8
0
100
AcDbCircle
 10
2.045283999999999
 20
5.110652271377532
 30
0.0
 40
0.1715
100
AcDbArc
 50
175.6512
 51
4.348846
  0
LINE
  5
190
330
2
100
AcDbEntity
  8
0
100
AcDbLine
 10
1.874273999999998
 20
5.123662271377533
 30
0.0
 11
1.874273999999998
 21
5.252452271377532
 31
0.0
  0
LINE
  5
191
330
2
100
AcDbEntity
  8
0
100
AcDbLine
 10
2.216293999999998
 20
5.123662271377533
 30
0.0
 11
2.216293999999998
 21
5.252452271377532
 31
0.0
  0
ARC
  5
192
330
2
100
AcDbEntity
  8
0
100
AcDbCircle
 10
-0.8950570000000013
 20
10.87782959940046
 30
0.0
 40
0.062
100
AcDbArc
 50
359.9999999999996
 51
90.00000000000003
  0
ARC
  5
193
330
2
100
AcDbEntity
  8
0
100
AcDbCircle
 10
-0.9059040000000014
 20
10.86638259940046
 30
0.0
 40
0.125
100
AcDbArc
 50
0.0
 51
90.00000000000003
  0
ARC
  5
195
330
2
100
AcDbEntity
  8
0
100
AcDbCircle
 10
-1.302917000000002
 20
11.04789659940046
 30
0.0
 40
0.1715
100
AcDbArc
 50
340.7598888749799
 51
4.348799999999987
  0
ARC
  5
196
330
2
100
AcDbEntity
  8
0
100
AcDbCircle
 10
-1.302917000000002
 20
11.04789659940046
 30
0.0
 40
0.1715
100
AcDbArc
 50
175.6512
 51
199.2401111250201
  0
ARC
  5
197
330
2
100
AcDbEntity
  8
0
100
AcDbCircle
 10
-2.045573000000002
 20
11.04789659940046
 30
0.0
 40
0.1715
100
AcDbArc
 50
340.7598888749799
 51
4.348799999999987
  0
ARC
  5
198
330
2
100
AcDbEntity
  8
0
100
AcDbCircle
 10
-2.045573000000002
 20
11.04789659940046
 30
0.0
 40
0.1715
100
AcDbArc
 50
175.6512
 51
199.2401111250201
  0
LINE
  5
199
330
2
100
AcDbEntity
  8
0
100
AcDbLine
 10
-1.031008000000002
 20
10.99138259940046
 30
0.0
 11
-1.031008000000002
 21
12.30388259940046
 31
0.0
  0
LINE
  5
19A
330
2
100
AcDbEntity
  8
0
100
AcDbLine
 10
-2.468976000000654
 20
12.30388259940046
 30
0.0
 11
-2.468969764325226
 21
10.93982859940046
 31
0.0
  0
LINE
  5
19B
330
2
100
AcDbEntity
  8
0
100
AcDbLine
 10
-1.031008000000002
 20
12.30388259940046
 30
0.0
 11
-2.468976000000654
 21
12.30388259940046
 31
0.0
  0
ARC
  5
19C
330
2
100
AcDbEntity
  8
0
100
AcDbCircle
 10
-2.045573000000002
 20
11.20269959940046
 30
0.0
 40
0.1715
100
AcDbArc
 50
355.651154
 51
184.3488
  0
LINE
  5
19D
330
2
100
AcDbEntity
  8
0
100
AcDbLine
 10
-2.216579000000001
 20
11.18969559940046
 30
0.0
 11
-2.216579000000001
 21
11.06090059940046
 31
0.0
  0
LINE
  5
19E
330
2
100
AcDbEntity
  8
0
100
AcDbLine
 10
-1.874567000000002
 20
11.18969559940046
 30
0.0
 11
-1.874567000000002
 21
11.06090059940046
 31
0.0
  0
CIRCLE
  5
19F
330
2
100
AcDbEntity
  8
0
100
AcDbCircle
 10
-1.594171723073206
 20
11.7177483087679
 30
0.0
 40
0.0855
  0
ARC
  5
1A0
330
2
100
AcDbEntity
  8
0
100
AcDbCircle
 10
-1.302917000000002
 20
11.20269959940046
 30
0.0
 40
0.1715
100
AcDbArc
 50
355.651154
 51
184.3488
  0
LINE
  5
1A1
330
2
100
AcDbEntity
  8
0
100
AcDbLine
 10
-1.473923000000002
 20
11.18969559940046
 30
0.0
 11
-1.473923000000002
 21
11.06090059940046
 31
0.0
  0
LINE
  5
1A2
330
2
100
AcDbEntity
  8
0
100
AcDbLine
 10
-1.131911000000002
 20
11.18969559940046
 30
0.0
 11
-1.131911000000002
 21
11.06090059940046
 31
0.0
  0
LINE
  5
1A3
330
2
100
AcDbEntity
  8
0
  6
HIDDEN
100
AcDbLine
 10
-0.9059040000000014
 20
10.99138259940046
 30
0.0
 11
-2.468970000000654
 21
10.99138259940046
 31
0.0
  0
LINE
  5
1A4
330
2
100
AcDbEntity
  8
0
100
AcDbLine
 10
-0.8950570000000013
 20
10.93982859940046
 30
0.0
 11
-2.468969764325226
 21
10.93982859940046
 31
0.0
  0
ARC
  5
1A5
330
2
100
AcDbEntity
  8
0
100
AcDbCircle
 10
-2.045573000000002
 20
11.04789659940046
 30
0.0
 40
0.1715
100
AcDbArc
 50
219.060017679861
 51
320.9399823201391
  0
ARC
  5
1A6
330
2
100
AcDbEntity
  8
0
100
AcDbCircle
 10
-1.302917000000002
 20
11.04789659940046
 30
0.0
 40
0.1715
100
AcDbArc
 50
219.060017679861
 51
320.9399823201391
  0
ARC
  5
1A7
330
2
100
AcDbEntity
  8
0
100
AcDbCircle
 10
2.046243999999998
 20
11.04789659940046
 30
0.0
 40
0.1715
100
AcDbArc
 50
340.7598888749799
 51
4.348799999999987
  0
ARC
  5
1A8
330
2
100
AcDbEntity
  8
0
100
AcDbCircle
 10
2.046243999999998
 20
11.04789659940046
 30
0.0
 40
0.1715
100
AcDbArc
 50
175.6512
 51
199.2401111250201
  0
ARC
  5
1A9
330
2
100
AcDbEntity
  8
0
100
AcDbCircle
 10
1.302973999999999
 20
11.04789659940046
 30
0.0
 40
0.1715
100
AcDbArc
 50
340.7598888749799
 51
4.348799999999987
  0
ARC
  5
1AA
330
2
100
AcDbEntity
  8
0
100
AcDbCircle
 10
1.302973999999999
 20
11.04789659940046
 30
0.0
 40
0.1715
100
AcDbArc
 50
175.6512
 51
199.2401111250201
  0
ARC
  5
1AB
330
2
100
AcDbEntity
  8
0
100
AcDbCircle
 10
0.906210999999999
 20
10.86638259940046
 30
0.0
 40
0.125
100
AcDbArc
 50
90.00000000000003
 51
180.0
  0
LINE
  5
1AC
330
2
100
AcDbEntity
  8
0
100
AcDbLine
 10
1.031563999999998
 20
10.99138259940046
 30
0.0
 11
1.031563999999998
 21
12.30388259940046
 31
0.0
  0
LINE
  5
1AD
330
2
100
AcDbEntity
  8
0
100
AcDbLine
 10
2.468363999999998
 20
12.30388259940046
 30
0.0
 11
2.468363999999999
 21
10.93982859940046
 31
0.0
  0
LINE
  5
1AE
330
2
100
AcDbEntity
  8
0
100
AcDbLine
 10
1.031563999999998
 20
12.30388259940046
 30
0.0
 11
2.468363999999998
 21
12.30388259940046
 31
0.0
  0
CIRCLE
  5
1AF
330
2
100
AcDbEntity
  8
0
100
AcDbCircle
 10
1.700897158798441
 20
11.71436128117768
 30
0.0
 40
0.0855
  0
ARC
  5
1B0
330
2
100
AcDbEntity
  8
0
100
AcDbCircle
 10
1.302973999999999
 20
11.20269959940046
 30
0.0
 40
0.1715
100
AcDbArc
 50
355.651154
 51
184.3488
  0
LINE
  5
1B1
330
2
100
AcDbEntity
  8
0
100
AcDbLine
 10
1.131973999999998
 20
11.18969559940046
 30
0.0
 11
1.131973999999998
 21
11.06090059940046
 31
0.0
  0
LINE
  5
1B2
330
2
100
AcDbEntity
  8
0
100
AcDbLine
 10
1.473984
 20
11.18969559940046
 30
0.0
 11
1.473984
 21
11.06090059940046
 31
0.0
  0
ARC
  5
1B3
330
2
100
AcDbEntity
  8
0
100
AcDbCircle
 10
2.046243999999998
 20
11.20269959940046
 30
0.0
 40
0.1715
100
AcDbArc
 50
355.651154
 51
184.3488
  0
LINE
  5
1B4
330
2
100
AcDbEntity
  8
0
100
AcDbLine
 10
1.875233999999999
 20
11.18969559940046
 30
0.0
 11
1.875233999999999
 21
11.06090059940046
 31
0.0
  0
LINE
  5
1B5
330
2
100
AcDbEntity
  8
0
100
AcDbLine
 10
2.217253999999999
 20
11.18969559940046
 30
0.0
 11
2.217253999999999
 21
11.06090059940046
 31
0.0
  0
LINE
  5
1B6
330
2
100
AcDbEntity
  8
0
100
AcDbLine
 10
-0.8330560000000009
 20
9.178882599400456
 30
0.0
 11
0.8330659999999988
 21
9.178882599400456
 31
0.0
  0
LINE
  5
1B7
330
2
100
AcDbEntity
  8
0
100
AcDbLine
 10
0.781210999999999
 20
10.67888259940046
 30
0.0
 11
-0.7809040000000014
 21
10.67888259940046
 31
0.0
  0
LINE
  5
1B8
330
2
100
AcDbEntity
  8
0
100
AcDbLine
 10
-0.8330560000000009
 20
10.67888259940046
 30
0.0
 11
-0.8330560000000009
 21
9.178882599400456
 31
0.0
  0
LINE
  5
1B9
330
2
100
AcDbEntity
  8
0
100
AcDbLine
 10
-0.8330560000000009
 20
10.67888259940046
 30
0.0
 11
-0.8330560000000009
 21
10.87782959940046
 31
0.0
  0
LINE
  5
1BA
330
2
100
AcDbEntity
  8
0
100
AcDbLine
 10
-0.7809040000000014
 20
9.178882599400456
 30
0.0
 11
-0.7809040000000014
 21
10.86638259940046
 31
0.0
  0
LINE
  5
1BB
330
2
100
AcDbEntity
  8
0
100
AcDbLine
 10
0.781210999999999
 20
9.178882599400456
 30
0.0
 11
0.781210999999999
 21
10.86638259940046
 31
0.0
  0
LINE
  5
1BC
330
2
100
AcDbEntity
  8
0
100
AcDbLine
 10
0.8330659999999988
 20
9.178882599400456
 30
0.0
 11
0.8330659999999988
 21
10.67888259940046
 31
0.0
  0
LINE
  5
1BD
330
2
100
AcDbEntity
  8
0
  6
HIDDEN
100
AcDbLine
 10
0.906210999999999
 20
10.99138259940046
 30
0.0
 11
2.468363999999999
 21
10.99138259940046
 31
0.0
  0
LINE
  5
1BE
330
2
100
AcDbEntity
  8
0
100
AcDbLine
 10
0.8950559999999985
 20
10.93982859940046
 30
0.0
 11
2.468363999999999
 21
10.93982859940046
 31
0.0
  0
ARC
  5
1C0
330
2
100
AcDbEntity
  8
0
100
AcDbCircle
 10
1.302973999999999
 20
11.04789659940046
 30
0.0
 40
0.1715
100
AcDbArc
 50
219.060017679861
 51
320.9399823201391
  0
LINE
  5
1C1
330
2
100
AcDbEntity
  8
0
100
AcDbLine
 10
0.8330559999999991
 20
10.67888259940046
 30
0.0
 11
0.8330559999999991
 21
10.87782959940046
 31
0.0
  0
ARC
  5
1C2
330
2
100
AcDbEntity
  8
0
100
AcDbCircle
 10
0.8950559999999985
 20
10.87782959940046
 30
0.0
 40
0.062
100
AcDbArc
 50
90.00000000000003
 51
180.0
  0
ARC
  5
1C3
330
2
100
AcDbEntity
  8
0
100
AcDbCircle
 10
2.046243999999998
 20
11.04789659940046
 30
0.0
 40
0.1715
100
AcDbArc
 50
219.060017679861
 51
320.9399823201391
  0
LINE
  5
1D0
330
2
100
AcDbEntity
  8
0
100
AcDbLine
 10
8.191201776504826
 20
3.154131024935541
 30
0.0
 11
8.137753655425559
 21
3.246833165434541
 31
0.0
  0
LINE
  5
1D1
330
2
100
AcDbEntity
  8
0
100
AcDbLine
 10
8.191201776504826
 20
3.154131024935541
 30
0.0
 11
8.283840277393519
 21
3.207689373053238
 31
0.0
  0
ARC
  5
1D2
330
2
100
AcDbEntity
  8
0
100
AcDbCircle
 10
8.191470271981256
 20
3.277805643633879
 30
0.0
 40
0.062
100
AcDbArc
 50
165.0
 51
209.9639
  0
ARC
  5
1D3
330
2
100
AcDbEntity
  8
0
100
AcDbCircle
 10
8.25280656195061
 20
3.26137063426987
 30
0.0
 40
0.062
100
AcDbArc
 50
300.0361000000001
 51
345.0000000000001
  0
ARC
  5
1D4
330
2
100
AcDbEntity
  8
0
100
AcDbCircle
 10
8.17693893525971
 20
2.978228796809752
 30
0.0
 40
0.062
100
AcDbArc
 50
300.0361000000001
 51
345.0000000000001
  0
ARC
  5
1D5
330
2
100
AcDbEntity
  8
0
100
AcDbCircle
 10
8.115602645290352
 20
2.994663806173762
 30
0.0
 40
0.062
100
AcDbArc
 50
165.0
 51
209.9639
  0
LINE
  5
1D6
330
2
100
AcDbEntity
  8
0
100
AcDbLine
 10
8.115334149813926
 20
2.870989187475427
 30
0.0
 11
8.207972650702615
 21
2.924547535593117
 31
0.0
  0
LINE
  5
1D7
330
2
100
AcDbEntity
  8
0
100
AcDbLine
 10
8.115334149813926
 20
2.870989187475427
 30
0.0
 11
8.061886028734655
 21
2.96369132797442
 31
0.0
  0
LINE
  5
1D8
330
2
100
AcDbEntity
  8
0
100
AcDbLine
 10
8.236826336489632
 20
2.962182016013397
 30
0.0
 11
8.43235636049323
 21
3.691910000000004
 31
0.0
  0
LINE
  5
1D9
330
2
100
AcDbEntity
  8
0
100
AcDbLine
 10
8.05571524406043
 20
3.01071058697012
 30
0.0
 11
8.251245268064029
 21
3.740438570956727
 31
0.0
  0
ARC
  5
1DA
330
2
100
AcDbEntity
  8
0
100
AcDbCircle
 10
1.091209377736478
 20
3.188866364642653
 30
0.0
 40
0.062
100
AcDbArc
 50
323.2667000000001
 51
42.18269999999998
  0
ARC
  5
1DB
330
2
100
AcDbEntity
  8
0
100
AcDbCircle
 10
1.064609377736478
 20
3.183036364642653
 30
0.0
 40
0.031
100
AcDbArc
 50
322.8491999999999
 51
41.67050999999998
  0
LINE
  5
1DC
330
2
100
AcDbEntity
  8
0
100
AcDbLine
 10
0.9701793777364767
 20
3.007086364642653
 30
0.0
 11
1.089319377736478
 21
3.164316364642652
 31
0.0
  0
LINE
  5
1DD
330
2
100
AcDbEntity
  8
0
100
AcDbLine
 10
0.9846193777364771
 20
2.942366364642652
 30
0.0
 11
0.9701793777364767
 21
3.007086364642653
 31
0.0
  0
LINE
  5
1DE
330
2
100
AcDbEntity
  8
0
100
AcDbLine
 10
1.140899377736478
 20
3.151776364642654
 30
0.0
 11
0.9846193777364771
 21
2.942366364642652
 31
0.0
  0
LINE
  5
1DF
330
2
100
AcDbEntity
  8
0
100
AcDbLine
 10
0.8358593777364778
 20
3.562976364642653
 30
0.0
 11
1.137149377736478
 21
3.230496364642653
 31
0.0
  0
LINE
  5
1E0
330
2
100
AcDbEntity
  8
0
100
AcDbLine
 10
0.836509377736478
 20
3.485946364642652
 30
0.0
 11
1.087769377736478
 21
3.203646364642653
 31
0.0
  0
ARC
  5
1E1
330
2
100
AcDbEntity
  8
0
100
AcDbCircle
 10
1.695469575072783
 20
2.680300078838581
 30
0.0
 40
0.1974604072610808
100
AcDbArc
 50
243.6268583161201
 51
255.9801221126697
  0
ARC
  5
1E2
330
2
100
AcDbEntity
  8
0
100
AcDbCircle
 10
1.721208199474599
 20
2.702488657762505
 30
0.0
 40
0.2291537750005709
100
AcDbArc
 50
215.9427887111814
 51
240.3237949666945
  0
ARC
  5
1E3
330
2
100
AcDbEntity
  8
0
100
AcDbCircle
 10
1.822565489635528
 20
2.775974519839813
 30
0.0
 40
0.3543475136379801
100
AcDbArc
 50
199.1809492515911
 51
215.9427887111782
  0
ARC
  5
1E4
330
2
100
AcDbEntity
  8
0
100
AcDbCircle
 10
1.988975910082777
 20
2.833862725518337
 30
0.0
 40
0.5305390922962958
100
AcDbArc
 50
185.4986125612687
 51
199.1809492515916
  0
ARC
  5
1E5
330
2
100
AcDbEntity
  8
0
100
AcDbCircle
 10
1.988975910082733
 20
2.833862725518317
 30
0.0
 40
0.5305390922962495
100
AcDbArc
 50
171.8162758709435
 51
185.4986125612671
  0
ARC
  5
1E6
330
2
100
AcDbEntity
  8
0
100
AcDbCircle
 10
1.814578541854862
 20
2.858943202892057
 30
0.0
 40
0.3543475136379545
100
AcDbArc
 50
155.0544364113572
 51
171.8162758709443
  0
ARC
  5
1E7
330
2
100
AcDbEntity
  8
0
100
AcDbCircle
 10
1.701064264149989
 20
2.911744537639849
 30
0.0
 40
0.2291537750005633
100
AcDbArc
 50
130.6734301558442
 51
155.0544364113579
  0
ARC
  5
1E8
330
2
100
AcDbEntity
  8
0
100
AcDbCircle
 10
1.624653995199855
 20
3.000663043909357
 30
0.0
 40
0.1119145752496591
100
AcDbArc
 50
95.49861256126791
 51
130.6734301558429
  0
ARC
  5
1E9
330
2
100
AcDbEntity
  8
0
100
AcDbCircle
 10
-1.708388015914941
 20
2.253988835632001
 30
0.0
 40
0.1974604072610808
100
AcDbArc
 50
284.0198778873303
 51
296.3731416838799
  0
ARC
  5
1EA
330
2
100
AcDbEntity
  8
0
100
AcDbCircle
 10
-1.734126640316756
 20
2.276177414555925
 30
0.0
 40
0.2291537750005709
100
AcDbArc
 50
299.6762050333055
 51
324.0572112888186
  0
ARC
  5
1EB
330
2
100
AcDbEntity
  8
0
100
AcDbCircle
 10
-1.835483930477685
 20
2.349663276633232
 30
0.0
 40
0.3543475136379801
100
AcDbArc
 50
324.0572112888218
 51
340.8190507484089
  0
ARC
  5
1EC
330
2
100
AcDbEntity
  8
0
100
AcDbCircle
 10
-2.001894350924935
 20
2.407551482311757
 30
0.0
 40
0.5305390922962956
100
AcDbArc
 50
340.8190507484084
 51
354.5013874387313
  0
ARC
  5
1ED
330
2
100
AcDbEntity
  8
0
100
AcDbCircle
 10
-2.00189435092489
 20
2.407551482311737
 30
0.0
 40
0.5305390922962495
100
AcDbArc
 50
354.5013874387329
 51
8.183724129056481
  0
ARC
  5
1EE
330
2
100
AcDbEntity
  8
0
100
AcDbCircle
 10
-1.82749698269702
 20
2.432631959685477
 30
0.0
 40
0.3543475136379545
100
AcDbArc
 50
8.183724129055767
 51
24.94556358864279
  0
ARC
  5
1EF
330
2
100
AcDbEntity
  8
0
100
AcDbCircle
 10
-1.713982704992146
 20
2.485433294433268
 30
0.0
 40
0.2291537750005633
100
AcDbArc
 50
24.94556358864215
 51
49.32656984415578
  0
ARC
  5
1F0
330
2
100
AcDbEntity
  8
0
100
AcDbCircle
 10
-1.637572436042013
 20
2.574351800702777
 30
0.0
 40
0.1119145752496591
100
AcDbArc
 50
49.32656984415711
 51
84.5013874387321
  0
ARC
  5
1F1
330
2
100
AcDbEntity
  8
0
100
AcDbCircle
 10
-1.081604171922539
 20
2.638917567144258
 30
0.0
 40
0.062
100
AcDbArc
 50
137.8173
 51
216.7333
  0
ARC
  5
1F2
330
2
100
AcDbEntity
  8
0
100
AcDbCircle
 10
-1.055004171922539
 20
2.633087567144258
 30
0.0
 40
0.031
100
AcDbArc
 50
138.32949
 51
217.1508000000001
  0
LINE
  5
1F3
330
2
100
AcDbEntity
  8
0
100
AcDbLine
 10
-0.9605741719225396
 20
2.457137567144258
 30
0.0
 11
-1.079714171922539
 21
2.614367567144257
 31
0.0
  0
LINE
  5
1F4
330
2
100
AcDbEntity
  8
0
100
AcDbLine
 10
-0.97501417192254
 20
2.392417567144257
 30
0.0
 11
-0.9605741719225396
 21
2.457137567144258
 31
0.0
  0
LINE
  5
1F5
330
2
100
AcDbEntity
  8
0
100
AcDbLine
 10
-1.131294171922539
 20
2.601827567144259
 30
0.0
 11
-0.97501417192254
 21
2.392417567144257
 31
0.0
  0
LINE
  5
1F6
330
2
100
AcDbEntity
  8
0
100
AcDbLine
 10
-0.8262541719225389
 20
3.013027567144258
 30
0.0
 11
-1.127544171922539
 21
2.680547567144258
 31
0.0
  0
LINE
  5
1F7
330
2
100
AcDbEntity
  8
0
100
AcDbLine
 10
-0.8269041719225392
 20
2.935997567144257
 30
0.0
 11
-1.078164171922539
 21
2.653697567144258
 31
0.0
  0
LINE
  5
1F8
330
2
100
AcDbEntity
  8
0
100
AcDbLine
 10
0.9580559999999991
 20
10.62586559940046
 30
0.0
 11
0.9532459999999983
 21
10.62096559940046
 31
0.0
  0
LINE
  5
1F9
330
2
100
AcDbEntity
  8
0
100
AcDbLine
 10
0.9697459999999989
 20
10.50086559940046
 30
0.0
 11
1.114555999999999
 21
10.50086559940046
 31
0.0
  0
ARC
  5
1FA
330
2
100
AcDbEntity
  8
0
100
AcDbCircle
 10
0.9167659999999991
 20
10.56336559940046
 30
0.0
 40
0.015
100
AcDbArc
 50
135.0000000000001
 51
224.9999999999999
  0
ARC
  5
1FB
330
2
100
AcDbEntity
  8
0
100
AcDbCircle
 10
0.970895999999998
 20
10.53186559940045
 30
0.0
 40
0.031
100
AcDbArc
 50
224.9999999999999
 51
270.0
  0
ARC
  5
1FC
330
2
100
AcDbEntity
  8
0
100
AcDbCircle
 10
0.9642660000000003
 20
10.61086559940046
 30
0.0
 40
0.015
100
AcDbArc
 50
90.00000000000003
 51
135.0000000000001
  0
ARC
  5
1FD
330
2
100
AcDbEntity
  8
0
100
AcDbCircle
 10
0.9768559999999997
 20
10.62344559940046
 30
0.0
 40
0.015
100
AcDbArc
 50
90.00000000000003
 51
135.0000000000001
  0
ARC
  5
1FE
330
2
100
AcDbEntity
  8
0
100
AcDbCircle
 10
1.118795999999998
 20
10.65344559940046
 30
0.0
 40
0.015
100
AcDbArc
 50
270.0
 51
0.0
  0
ARC
  5
1FF
330
2
100
AcDbEntity
  8
0
100
AcDbCircle
 10
1.118795999999998
 20
10.64086559940046
 30
0.0
 40
0.015
100
AcDbArc
 50
270.0
 51
0.0
  0
LINE
  5
200
330
2
100
AcDbEntity
  8
0
100
AcDbLine
 10
1.114555999999999
 20
10.50086559940046
 30
0.0
 11
0.970895999999998
 21
10.50086559940046
 31
0.0
  0
ARC
  5
201
330
2
100
AcDbEntity
  8
0
100
AcDbCircle
 10
1.118795999999998
 20
10.67326559940046
 30
0.0
 40
0.015
100
AcDbArc
 50
0.0
 51
59.14389999999995
  0
ARC
  5
202
330
2
100
AcDbEntity
  8
0
100
AcDbCircle
 10
1.130555999999999
 20
10.67987559940046
 30
0.0
 40
0.015
100
AcDbArc
 50
0.0
 51
59.03629999999998
  0
ARC
  5
203
330
2
100
AcDbEntity
  8
0
100
AcDbCircle
 10
1.114555999999999
 20
10.53186559940045
 30
0.0
 40
0.031
100
AcDbArc
 50
270.0
 51
0.0
  0
LINE
  5
204
330
2
100
AcDbEntity
  8
0
100
AcDbLine
 10
1.145555999999999
 20
10.53186559940045
 30
0.0
 11
1.145555999999999
 21
10.67987559940046
 31
0.0
  0
LINE
  5
205
330
2
100
AcDbEntity
  8
0
100
AcDbLine
 10
1.133785999999999
 20
10.64086559940046
 30
0.0
 11
1.133785999999999
 21
10.65344559940046
 31
0.0
  0
LINE
  5
206
330
2
100
AcDbEntity
  8
0
100
AcDbLine
 10
1.126486
 20
10.68614559940046
 30
0.0
 11
0.8332160000000002
 21
10.86135559940045
 31
0.0
  0
LINE
  5
207
330
2
100
AcDbEntity
  8
0
100
AcDbLine
 10
1.133785999999999
 20
10.65344559940046
 30
0.0
 11
1.133785999999999
 21
10.67326559940046
 31
0.0
  0
LINE
  5
208
330
2
100
AcDbEntity
  8
0
100
AcDbLine
 10
0.9768559999999997
 20
10.63844559940046
 30
0.0
 11
1.118795999999998
 21
10.63844559940046
 31
0.0
  0
LINE
  5
209
330
2
100
AcDbEntity
  8
0
100
AcDbLine
 10
0.9580559999999991
 20
10.62586559940046
 30
0.0
 11
0.9662459999999982
 21
10.63405559940046
 31
0.0
  0
LINE
  5
20A
330
2
100
AcDbEntity
  8
0
100
AcDbLine
 10
0.9642660000000003
 20
10.62586559940046
 30
0.0
 11
1.118795999999998
 21
10.62586559940046
 31
0.0
  0
LINE
  5
20B
330
2
100
AcDbEntity
  8
0
100
AcDbLine
 10
0.9061659999999989
 20
10.57397559940046
 30
0.0
 11
0.9536660000000001
 21
10.62147559940046
 31
0.0
  0
LINE
  5
20C
330
2
100
AcDbEntity
  8
0
100
AcDbLine
 10
0.9489759999999983
 20
10.50994559940046
 30
0.0
 11
0.9061659999999989
 21
10.55275559940046
 31
0.0
  0
LINE
  5
20D
330
2
100
AcDbEntity
  8
0
100
AcDbLine
 10
0.8330559999999991
 20
10.68836559940046
 30
0.0
 11
0.9455559999999998
 21
10.61336559940046
 31
0.0
  0
LINE
  5
20E
330
2
100
AcDbEntity
  8
0
100
AcDbLine
 10
0.8330559999999991
 20
10.87586559940046
 30
0.0
 11
1.138275999999999
 21
10.69273559940046
 31
0.0
  0
LINE
  5
20F
330
2
100
AcDbEntity
  8
0
100
AcDbLine
 10
-0.9580560000000009
 20
10.62782959940046
 30
0.0
 11
-0.953246
 21
10.62292959940046
 31
0.0
  0
LINE
  5
210
330
2
100
AcDbEntity
  8
0
100
AcDbLine
 10
-0.9697460000000007
 20
10.50282959940046
 30
0.0
 11
-1.114556
 21
10.50282959940046
 31
0.0
  0
ARC
  5
211
330
2
100
AcDbEntity
  8
0
100
AcDbCircle
 10
-0.9167660000000009
 20
10.56532959940046
 30
0.0
 40
0.015
100
AcDbArc
 50
315.0
 51
45.00000000000001
  0
ARC
  5
212
330
2
100
AcDbEntity
  8
0
100
AcDbCircle
 10
-0.9708959999999998
 20
10.53382959940046
 30
0.0
 40
0.031
100
AcDbArc
 50
270.0
 51
315.0
  0
ARC
  5
213
330
2
100
AcDbEntity
  8
0
100
AcDbCircle
 10
-0.9642660000000021
 20
10.61282959940046
 30
0.0
 40
0.015
100
AcDbArc
 50
45.00000000000001
 51
90.00000000000003
  0
ARC
  5
214
330
2
100
AcDbEntity
  8
0
100
AcDbCircle
 10
-0.9768560000000015
 20
10.62540959940046
 30
0.0
 40
0.015
100
AcDbArc
 50
45.00000000000001
 51
90.00000000000003
  0
ARC
  5
215
330
2
100
AcDbEntity
  8
0
100
AcDbCircle
 10
-1.118796
 20
10.65540959940046
 30
0.0
 40
0.015
100
AcDbArc
 50
180.0
 51
270.0
  0
ARC
  5
216
330
2
100
AcDbEntity
  8
0
100
AcDbCircle
 10
-1.118796
 20
10.64282959940046
 30
0.0
 40
0.015
100
AcDbArc
 50
180.0
 51
270.0
  0
LINE
  5
217
330
2
100
AcDbEntity
  8
0
100
AcDbLine
 10
-1.114556
 20
10.50282959940046
 30
0.0
 11
-0.9708959999999998
 21
10.50282959940046
 31
0.0
  0
ARC
  5
218
330
2
100
AcDbEntity
  8
0
100
AcDbCircle
 10
-1.118796
 20
10.67522959940046
 30
0.0
 40
0.015
100
AcDbArc
 50
120.8561000000001
 51
180.0
  0
ARC
  5
219
330
2
100
AcDbEntity
  8
0
100
AcDbCircle
 10
-1.130556
 20
10.68183959940046
 30
0.0
 40
0.015
100
AcDbArc
 50
120.9637
 51
180.0
  0
ARC
  5
21A
330
2
100
AcDbEntity
  8
0
100
AcDbCircle
 10
-1.114556
 20
10.53382959940046
 30
0.0
 40
0.031
100
AcDbArc
 50
180.0
 51
270.0
  0
LINE
  5
21B
330
2
100
AcDbEntity
  8
0
100
AcDbLine
 10
-1.145556000000001
 20
10.53382959940046
 30
0.0
 11
-1.145556000000001
 21
10.68183959940046
 31
0.0
  0
LINE
  5
21C
330
2
100
AcDbEntity
  8
0
100
AcDbLine
 10
-1.133786000000001
 20
10.64282959940046
 30
0.0
 11
-1.133786000000001
 21
10.65540959940046
 31
0.0
  0
LINE
  5
21D
330
2
100
AcDbEntity
  8
0
100
AcDbLine
 10
-1.126486000000002
 20
10.68810959940046
 30
0.0
 11
-0.833216000000002
 21
10.86331959940046
 31
0.0
  0
LINE
  5
21E
330
2
100
AcDbEntity
  8
0
100
AcDbLine
 10
-1.133786000000001
 20
10.65540959940046
 30
0.0
 11
-1.133786000000001
 21
10.67522959940046
 31
0.0
  0
LINE
  5
21F
330
2
100
AcDbEntity
  8
0
100
AcDbLine
 10
-0.9768560000000015
 20
10.64040959940046
 30
0.0
 11
-1.118796
 21
10.64040959940046
 31
0.0
  0
LINE
  5
220
330
2
100
AcDbEntity
  8
0
100
AcDbLine
 10
-0.9580560000000009
 20
10.62782959940046
 30
0.0
 11
-0.9662459999999999
 21
10.63601959940046
 31
0.0
  0
LINE
  5
221
330
2
100
AcDbEntity
  8
0
100
AcDbLine
 10
-0.9642660000000021
 20
10.62782959940046
 30
0.0
 11
-1.118796
 21
10.62782959940046
 31
0.0
  0
LINE
  5
222
330
2
100
AcDbEntity
  8
0
100
AcDbLine
 10
-0.9061660000000007
 20
10.57593959940046
 30
0.0
 11
-0.9536660000000019
 21
10.62343959940046
 31
0.0
  0
LINE
  5
223
330
2
100
AcDbEntity
  8
0
100
AcDbLine
 10
-0.948976
 20
10.51190959940046
 30
0.0
 11
-0.9061660000000007
 21
10.55471959940046
 31
0.0
  0
LINE
  5
224
330
2
100
AcDbEntity
  8
0
100
AcDbLine
 10
-0.8330560000000009
 20
10.69032959940046
 30
0.0
 11
-0.9455560000000016
 21
10.61532959940046
 31
0.0
  0
LINE
  5
225
330
2
100
AcDbEntity
  8
0
100
AcDbLine
 10
-0.8330560000000009
 20
10.87782959940046
 30
0.0
 11
-1.138276000000001
 21
10.69469959940046
 31
0.0
  0
LINE
  5
239
330
2
100
AcDbEntity
  8
0
  6
HIDDEN
100
AcDbLine
 10
2.502451034335636
 20
5.323302271377532
 30
0.0
 11
1.030443999999998
 21
5.323302271377533
 31
0.0
  0
LINE
  5
23A
330
2
100
AcDbEntity
  8
0
  6
HIDDEN
100
AcDbLine
 10
-1.030737000000002
 20
5.323302271377533
 30
0.0
 11
-2.530104710154153
 21
5.323302271377531
 31
0.0
  0
LINE
  5
23B
330
2
100
AcDbEntity
  8
0
100
AcDbLine
 10
-8.547873360493231
 20
1.921532271377533
 30
0.0
 11
-8.547873360493231
 21
2.984032271377533
 31
0.0
  0
LINE
  5
23C
330
2
100
AcDbEntity
  8
0
100
AcDbLine
 10
-8.496245360493239
 20
5.198302271377536
 30
0.0
 11
-8.496245360493234
 21
1.323477830287446
 31
0.0
  0
LINE
  5
23E
330
2
100
AcDbEntity
  8
0
100
AcDbLine
 10
-7.753148360493231
 20
1.764430000000001
 30
0.0
 11
-7.753148360493232
 21
2.011504921605074
 31
0.0
  0
LINE
  5
23F
330
2
100
AcDbEntity
  8
0
100
AcDbLine
 10
-8.547873360493231
 20
1.448070000000008
 30
0.0
 11
-8.547873360493231
 21
3.573070000000001
 31
0.0
  0
ARC
  5
241
330
2
100
AcDbEntity
  8
0
100
AcDbCircle
 10
-11.99162336049323
 20
-0.0519299999999951
 30
0.0
 40
3.75625
100
AcDbArc
 50
0.000000000000007
 51
23.53658000000001
  0
LINE
  5
242
330
2
100
AcDbEntity
  8
0
100
AcDbLine
 10
-6.735373360493231
 20
0.0
 30
0.0
 11
-6.735373360493231
 21
0.5486300000000028
 31
0.0
  0
LINE
  5
243
330
2
100
AcDbEntity
  8
0
100
AcDbLine
 10
-6.735373360493231
 20
-0.0519299999999987
 30
0.0
 11
-8.235373360493231
 21
-0.0519299999999987
 31
0.0
  0
LINE
  5
244
330
2
100
AcDbEntity
  8
0
  6
HIDDEN
100
AcDbLine
 10
-8.235732360493234
 20
0.0
 30
0.0
 11
-6.735373360493231
 21
0.0
 31
0.0
  0
LINE
  5
245
330
2
100
AcDbEntity
  8
0
100
AcDbLine
 10
-6.735373360493231
 20
-0.0519299999999987
 30
0.0
 11
-6.735373360493231
 21
0.0
 31
0.0
  0
LINE
  5
246
330
2
100
AcDbEntity
  8
0
100
AcDbLine
 10
-6.735373360493231
 20
0.5486300000000028
 30
0.0
 11
-7.753148360493231
 21
1.764430000000001
 31
0.0
  0
LINE
  5
24A
330
2
100
AcDbEntity
  8
0
100
AcDbLine
 10
-8.547873360493229
 20
5.209622271377533
 30
0.0
 11
-8.547873360493231
 21
3.36653227137753
 31
0.0
  0
ARC
  5
24D
330
2
100
AcDbEntity
  8
0
100
AcDbCircle
 10
-7.815648360493231
 20
2.317691139452972
 30
0.0
 40
0.3125
100
AcDbArc
 50
281.53696
 51
78.46299999999998
  0
LINE
  5
24F
330
2
100
AcDbEntity
  8
0
100
AcDbLine
 10
-7.753148360493231
 20
3.021236557308608
 30
0.0
 11
-7.753148360493231
 21
3.57292
 31
0.0
  0
LINE
  5
250
330
2
100
AcDbEntity
  8
0
100
AcDbLine
 10
-7.753148141566349
 20
2.623877312612525
 30
0.0
 11
-7.753148360493231
 21
4.095232271377533
 31
0.0
  0
LINE
  5
251
330
2
100
AcDbEntity
  8
0
100
AcDbLine
 10
-7.753148360493231
 20
3.57292
 30
0.0
 11
-7.753148360493231
 21
3.783160000000002
 31
0.0
  0
LINE
  5
253
330
2
100
AcDbEntity
  8
0
100
AcDbLine
 10
-8.547873360493231
 20
3.573070000000001
 30
0.0
 11
-8.547873360493231
 21
3.783160000000002
 31
0.0
  0
LINE
  5
25A
330
2
100
AcDbEntity
  8
0
100
AcDbLine
 10
-8.191201776504826
 20
2.759349827499992
 30
0.0
 11
-8.137753655425559
 21
2.852051967998992
 31
0.0
  0
LINE
  5
25B
330
2
100
AcDbEntity
  8
0
100
AcDbLine
 10
-8.191201776504826
 20
2.759349827499992
 30
0.0
 11
-8.283840277393519
 21
2.81290817561769
 31
0.0
  0
ARC
  5
25C
330
2
100
AcDbEntity
  8
0
100
AcDbCircle
 10
-8.191470271981256
 20
2.883024446198331
 30
0.0
 40
0.062
100
AcDbArc
 50
330.0361
 51
14.99999999999996
  0
ARC
  5
25D
330
2
100
AcDbEntity
  8
0
100
AcDbCircle
 10
-8.25280656195061
 20
2.866589436834321
 30
0.0
 40
0.062
100
AcDbArc
 50
194.9999999999999
 51
239.9638999999999
  0
ARC
  5
25E
330
2
100
AcDbEntity
  8
0
100
AcDbCircle
 10
-8.17693893525971
 20
2.583447599374203
 30
0.0
 40
0.062
100
AcDbArc
 50
194.9999999999999
 51
239.9638999999999
  0
ARC
  5
25F
330
2
100
AcDbEntity
  8
0
100
AcDbCircle
 10
-8.115602645290352
 20
2.599882608738213
 30
0.0
 40
0.062
100
AcDbArc
 50
330.0361
 51
14.99999999999996
  0
LINE
  5
260
330
2
100
AcDbEntity
  8
0
100
AcDbLine
 10
-8.115334149813926
 20
2.476207990039878
 30
0.0
 11
-8.207972650702615
 21
2.529766338157568
 31
0.0
  0
LINE
  5
261
330
2
100
AcDbEntity
  8
0
100
AcDbLine
 10
-8.115334149813926
 20
2.476207990039878
 30
0.0
 11
-8.061886028734655
 21
2.568910130538871
 31
0.0
  0
LINE
  5
262
330
2
100
AcDbEntity
  8
0
100
AcDbLine
 10
-8.236826336489632
 20
2.567400818577848
 30
0.0
 11
-8.43235636049323
 21
3.297128802564455
 31
0.0
  0
LINE
  5
263
330
2
100
AcDbEntity
  8
0
100
AcDbLine
 10
-8.05571524406043
 20
2.615929389534571
 30
0.0
 11
-8.251245268064029
 21
3.345657373521178
 31
0.0
  0
LINE
  5
2BA
330
2
100
AcDbEntity
  8
0
100
AcDbLine
 10
8.431335839451803
 20
4.990674045379011
 30
0.0
 11
7.775755360493232
 21
4.147652271377531
 31
0.0
  0
ARC
  5
2BB
330
2
100
AcDbEntity
  8
0
100
AcDbCircle
 10
7.839169360493234
 20
4.089052271377536
 30
0.0
 40
0.08633938
100
AcDbArc
 50
137.2623
 51
185.29312
  0
LINE
  5
2BC
330
2
100
AcDbEntity
  8
0
100
AcDbLine
 10
8.609873360493232
 20
5.271622271377531
 30
0.0
 11
9.860373360493231
 21
5.271622271377531
 31
0.0
  0
LINE
  5
2BD
330
2
100
AcDbEntity
  8
0
100
AcDbLine
 10
9.860373360493231
 20
5.323302271377532
 30
0.0
 11
8.621245360493234
 21
5.323302271377532
 31
0.0
  0
ARC
  5
2BE
330
2
100
AcDbEntity
  8
0
100
AcDbCircle
 10
8.609873360493229
 20
5.209622271377533
 30
0.0
 40
0.062
100
AcDbArc
 50
90.0
 51
180.0
  0
ARC
  5
2BF
330
2
100
AcDbEntity
  8
0
100
AcDbCircle
 10
8.613241878516343
 20
5.206305753354431
 30
0.0
 40
0.1172699490631979
100
AcDbArc
 50
86.0866148732335
 51
183.9133851267699
  0
LINE
  5
2C0
330
2
100
AcDbEntity
  8
0
100
AcDbLine
 10
9.860373360493231
 20
5.271622271377531
 30
0.0
 11
9.860373360493231
 21
5.323302271377532
 31
0.0
  0
ARC
  5
2C1
330
2
100
AcDbEntity
  8
0
100
AcDbCircle
 10
8.552280960849464
 20
5.265084756778784
 30
0.0
 40
0.12
100
AcDbArc
 50
90.0
 51
180.0
  0
ARC
  5
2C2
330
2
100
AcDbEntity
  8
0
100
AcDbCircle
 10
8.514601232985203
 20
4.970143721974563
 30
0.0
 40
0.0846847495051902
100
AcDbArc
 50
190.0218093717479
 51
259.2220691983233
  0
LINE
  5
2C3
330
2
100
AcDbEntity
  8
0
100
AcDbLine
 10
8.43245917275201
 20
5.271622271377531
 30
0.0
 11
8.431208638676225
 21
4.955406625477123
 31
0.0
  0
ARC
  5
2C4
330
2
100
AcDbEntity
  8
0
100
AcDbCircle
 10
8.847297766184239
 20
5.301893901009793
 30
0.0
 40
0.0846847495051902
100
AcDbArc
 50
14.64330977389248
 51
79.22206919832334
  0
LINE
  5
2C5
330
2
100
AcDbEntity
  8
0
100
AcDbLine
 10
8.552280960849464
 20
5.385084756778784
 30
0.0
 11
8.863134063579141
 21
5.385084756778784
 31
0.0
  0
ARC
  5
2C6
330
2
100
AcDbEntity
  8
0
100
AcDbCircle
 10
-7.839169360493234
 20
4.089052271377536
 30
0.0
 40
0.08633938
100
AcDbArc
 50
354.70688
 51
42.73770000000001
  0
LINE
  5
2C7
330
2
100
AcDbEntity
  8
0
100
AcDbLine
 10
-8.431335839451803
 20
4.990674045379011
 30
0.0
 11
-7.775755360493232
 21
4.147652271377531
 31
0.0
  0
ARC
  5
2C8
330
2
100
AcDbEntity
  8
0
100
AcDbCircle
 10
-7.839169360493234
 20
4.089052271377536
 30
0.0
 40
0.08633938
100
AcDbArc
 50
354.7068800000001
 51
42.73770000000006
  0
LINE
  5
2C9
330
2
100
AcDbEntity
  8
0
100
AcDbLine
 10
-8.609873360493232
 20
5.271622271377531
 30
0.0
 11
-9.860373360493231
 21
5.271622271377531
 31
0.0
  0
LINE
  5
2CA
330
2
100
AcDbEntity
  8
0
100
AcDbLine
 10
-9.860373360493231
 20
5.323302271377532
 30
0.0
 11
-8.621245360493234
 21
5.323302271377532
 31
0.0
  0
ARC
  5
2CB
330
2
100
AcDbEntity
  8
0
100
AcDbCircle
 10
-8.609873360493229
 20
5.209622271377533
 30
0.0
 40
0.062
100
AcDbArc
 50
0.000000000000007
 51
90.0
  0
ARC
  5
2CC
330
2
100
AcDbEntity
  8
0
100
AcDbCircle
 10
-8.613241878516343
 20
5.206305753354431
 30
0.0
 40
0.1172699490631979
100
AcDbArc
 50
356.0866148732301
 51
93.91338512676649
  0
LINE
  5
2CD
330
2
100
AcDbEntity
  8
0
100
AcDbLine
 10
-9.860373360493231
 20
5.271622271377531
 30
0.0
 11
-9.860373360493231
 21
5.323302271377532
 31
0.0
  0
ARC
  5
2CE
330
2
100
AcDbEntity
  8
0
100
AcDbCircle
 10
-8.552280960849464
 20
5.265084756778784
 30
0.0
 40
0.12
100
AcDbArc
 50
0.000000000000007
 51
90.0
  0
ARC
  5
2CF
330
2
100
AcDbEntity
  8
0
100
AcDbCircle
 10
-8.514601232985203
 20
4.970143721974563
 30
0.0
 40
0.0846847495051902
100
AcDbArc
 50
280.7779308016767
 51
349.9781906282521
  0
LINE
  5
2D0
330
2
100
AcDbEntity
  8
0
100
AcDbLine
 10
-8.43245917275201
 20
5.271622271377531
 30
0.0
 11
-8.431208638676225
 21
4.955406625477123
 31
0.0
  0
ARC
  5
2D1
330
2
100
AcDbEntity
  8
0
100
AcDbCircle
 10
-8.847297766184239
 20
5.301893901009793
 30
0.0
 40
0.0846847495051902
100
AcDbArc
 50
100.7779308016767
 51
165.3566902261075
  0
LINE
  5
2D2
330
2
100
AcDbEntity
  8
0
100
AcDbLine
 10
-8.552280960849464
 20
5.385084756778784
 30
0.0
 11
-8.863134063579141
 21
5.385084756778784
 31
0.0
  0
ENDSEC
  0
SECTION
  2
OBJECTS
  0
DICTIONARY
  5
7
330
0
100
AcDbDictionary
281
     1
  3
ACAD_COLOR
350
118
  3
ACAD_GROUP
350
1F
  3
ACAD_LAYOUT
350
B
  3
ACAD_MATERIAL
350
117
  3
ACAD_MLINESTYLE
350
20
  3
ACAD_PLOTSETTINGS
350
21
  3
ACAD_PLOTSTYLENAME
350
6
  3
ACAD_TABLESTYLE
350
119
  3
ACDBHEADERROUNDTRIPXREC
350
2DF
  3
AcDbVariableDictionary
350
113
  0
DICTIONARY
  5
120
330
2
100
AcDbDictionary
280
     1
281
     1
  3
ACAD_SORTENTS
360
121
  0
DICTIONARY
  5
118
102
{ACAD_REACTORS
330
7
102
}
330
7
100
AcDbDictionary
281
     1
  0
DICTIONARY
  5
1F
102
{ACAD_REACTORS
330
7
102
}
330
7
100
AcDbDictionary
281
     1
  0
DICTIONARY
  5
B
102
{ACAD_REACTORS
330
7
102
}
330
7
100
AcDbDictionary
281
     1
  3
Layout1
350
F
  3
Model
350
A
  0
DICTIONARY
  5
117
102
{ACAD_REACTORS
330
7
102
}
330
7
100
AcDbDictionary
281
     1
  0
DICTIONARY
  5
20
102
{ACAD_REACTORS
330
7
102
}
330
7
100
AcDbDictionary
281
     1
  3
STANDARD
350
23
  0
DICTIONARY
  5
21
102
{ACAD_REACTORS
330
7
102
}
330
7
100
AcDbDictionary
281
     1
  0
ACDBDICTIONARYWDFLT
  5
6
102
{ACAD_REACTORS
330
7
102
}
330
7
100
AcDbDictionary
281
     1
  3
Normal
350
5
100
AcDbDictionaryWithDefault
340
5
  0
DICTIONARY
  5
119
102
{ACAD_REACTORS
330
7
102
}
330
7
100
AcDbDictionary
281
     1
  3
Standard
350
11A
  0
DICTIONARY
  5
2DF
102
{ACAD_REACTORS
330
7
102
}
330
7
100
AcDbDictionary
281
     1
  3
COLORDICT
350
2E0
  3
MATERIALDICT
350
2E1
  0
DICTIONARY
  5
113
102
{ACAD_REACTORS
330
7
102
}
330
7
100
AcDbDictionary
281
     1
  3
CTABLESTYLE
350
1CB
  3
HIDETEXT
350
2DE
  0
SORTENTSTABLE
  5
121
102
{ACAD_REACTORS
330
120
102
}
330
120
100
AcDbSortentsTable
330
2
331
165
  5
1B6
331
1BD
  5
16A
331
1FD
  5
171
331
1A9
  5
154
331
1A8
  5
153
331
1DD
  5
1E7
331
1AB
  5
156
331
1BC
  5
169
331
137
  5
20F
331
192
  5
125
331
1D9
  5
225
331
1EF
  5
198
331
157
  5
1A8
331
196
  5
140
331
1EA
  5
193
331
170
  5
1C2
331
180
  5
1EB
331
166
  5
1B7
331
1E9
  5
192
331
153
  5
1A4
331
1EE
  5
197
331
168
  5
1BA
331
136
  5
20E
331
135
  5
20D
331
16C
  5
1BE
331
1FF
  5
173
331
183
  5
1EE
331
214
  5
12D
331
12A
  5
202
331
1FA
  5
16E
331
224
  5
13D
331
176
  5
1D4
331
211
  5
12A
331
199
  5
143
331
1BB
  5
168
331
1DC
  5
1E6
331
179
  5
1D7
331
12D
  5
205
331
1D8
  5
224
331
1D7
  5
223
331
195
  5
13F
331
1C1
  5
184
331
205
  5
179
331
210
  5
129
331
213
  5
12C
331
1AF
  5
15C
331
13B
  5
212
331
1B4
  5
161
331
204
  5
178
331
1A2
  5
14C
331
1A4
  5
14E
331
16B
  5
1BD
331
12B
  5
203
331
154
  5
1A5
331
1E5
  5
1E0
331
1DA
  5
1E4
331
13F
  5
216
331
146
  5
18E
331
181
  5
1EC
331
20F
  5
128
331
20E
  5
182
331
1E4
  5
1DF
331
1F8
  5
16C
331
161
  5
1B2
331
222
  5
13B
331
126
  5
1FE
331
18A
  5
1F5
331
1ED
  5
196
331
167
  5
1B8
331
1A0
  5
14A
331
125
  5
1FD
331
197
  5
141
331
1C2
  5
185
331
15F
  5
1B0
331
1D1
  5
21D
331
189
  5
1F4
331
177
  5
1D5
331
185
  5
1F0
331
14E
  5
19F
331
209
  5
17D
331
1E1
  5
1DC
331
17B
  5
1D9
331
178
  5
1D6
331
1F3
  5
189
331
17A
  5
1D8
331
17D
  5
1DB
331
14D
  5
19E
331
16D
  5
1BF
331
1C0
  5
183
331
14A
  5
19B
331
21B
  5
134
331
174
  5
1D2
331
128
  5
200
331
1BE
  5
16B
331
1B0
  5
15D
331
156
  5
1A7
331
201
  5
175
331
149
  5
19A
331
215
  5
12E
331
217
  5
130
331
1F7
  5
18D
331
164
  5
1B5
331
173
  5
1D1
331
21A
  5
133
331
1B1
  5
15E
331
160
  5
1B1
331
18D
  5
1F8
331
1AA
  5
155
331
193
  5
126
331
1F9
  5
16D
331
14F
  5
1A0
331
139
  5
211
331
18C
  5
1F7
331
1DF
  5
1E9
331
12E
  5
206
331
1E0
  5
1EA
331
1FB
  5
16F
331
225
  5
13E
331
219
  5
132
331
19E
  5
148
331
187
  5
1F2
331
18F
  5
1FA
331
1BA
  5
167
331
1DE
  5
1E8
331
1D0
  5
21C
331
1F4
  5
18A
331
16A
  5
1BC
331
18B
  5
1F6
331
1D4
  5
220
331
21E
  5
137
331
20C
  5
180
331
207
  5
17B
331
182
  5
1ED
331
1B8
  5
165
331
12C
  5
204
331
223
  5
13C
331
200
  5
174
331
17C
  5
1DA
331
1D2
  5
21E
331
1B9
  5
166
331
218
  5
131
331
184
  5
1EF
331
206
  5
17A
331
150
  5
1A1
331
20D
  5
181
331
1AC
  5
158
331
133
  5
20B
331
1E6
  5
1E1
331
19A
  5
144
331
1D6
  5
222
331
1F1
  5
187
331
1F6
  5
18C
331
15D
  5
1AE
331
155
  5
1A6
331
15A
  5
1AB
331
188
  5
1F3
331
130
  5
208
331
1D5
  5
221
331
1B6
  5
163
331
14B
  5
19C
331
13D
  5
214
331
1C3
  5
186
331
198
  5
142
331
163
  5
1B4
331
1FE
  5
172
331
147
  5
18F
331
13C
  5
213
331
1A6
  5
150
331
21F
  5
138
331
1E7
  5
1E2
331
1AE
  5
15B
331
190
  5
1FB
331
21C
  5
135
331
1A3
  5
14D
331
19B
  5
145
331
1EB
  5
194
331
158
  5
1A9
331
1AD
  5
159
331
216
  5
12F
331
129
  5
201
331
20A
  5
17E
331
16E
  5
1C0
331
172
  5
1D0
331
19C
  5
146
331
1B2
  5
15F
331
1E3
  5
1DE
331
1A1
  5
14B
331
1B7
  5
164
331
1F0
  5
199
331
12F
  5
207
331
1EC
  5
195
331
1F2
  5
188
331
19F
  5
149
331
1B3
  5
160
331
18E
  5
1F9
331
159
  5
1AA
331
1FC
  5
170
331
1E2
  5
1DD
331
169
  5
1BB
331
15B
  5
1AC
331
1D3
  5
21F
331
14C
  5
19D
331
208
  5
17C
331
221
  5
13A
331
162
  5
1B3
331
175
  5
1D3
331
202
  5
176
331
1A5
  5
14F
331
212
  5
12B
331
203
  5
177
331
1A7
  5
151
331
186
  5
1F1
331
220
  5
139
331
152
  5
1A3
331
191
  5
1FC
331
13E
  5
215
331
138
  5
210
331
151
  5
1A2
331
1DB
  5
1E5
331
16F
  5
1C1
331
15E
  5
1AF
331
1B5
  5
162
331
15C
  5
1AD
331
1F5
  5
18B
331
21D
  5
136
331
1E8
  5
1E3
331
171
  5
1C3
331
19D
  5
147
331
20B
  5
17F
  0
LAYOUT
  5
F
102
{ACAD_REACTORS
330
B
102
}
102
{ACAD_XDICTIONARY
360
2E2
102
}
330
B
100
AcDbPlotSettings
  1

  2
X:\Program Files\AutoCAD2002\plotters\DWF ePlot (optimized for plotting).pc3
  4

  6

 40
0.0
 41
0.0
 42
0.0
 43
0.0
 44
0.0
 45
0.0
 46
0.0
 47
0.0
 48
0.0
 49
0.0
140
0.0
141
0.0
142
1.0
143
1.0
 70
   688
 72
     0
 73
     0
 74
     5
  7

 75
    16
147
1.0
148
0.0
149
0.0
100
AcDbLayout
  1
Layout1
 70
     0
 71
     1
 10
0.0
 20
0.0
 11
12.0
 21
9.0
 12
0.0
 22
0.0
 32
0.0
 14
1.000000000000000E+20
 24
1.000000000000000E+20
 34
1.000000000000000E+20
 15
-1.000000000000000E+20
 25
-1.000000000000000E+20
 35
-1.000000000000000E+20
146
0.0
 13
0.0
 23
0.0
 33
0.0
 16
1.0
 26
0.0
 36
0.0
 17
0.0
 27
1.0
 37
0.0
 76
     0
330
C
  0
LAYOUT
  5
A
102
{ACAD_REACTORS
330
B
102
}
102
{ACAD_XDICTIONARY
360
2E4
102
}
330
B
100
AcDbPlotSettings
  1

  2
X:\Program Files\AutoCAD2002\plotters\DWF ePlot (optimized for plotting).pc3
  4

  6

 40
0.0
 41
0.0
 42
0.0
 43
0.0
 44
0.0
 45
0.0
 46
0.0
 47
0.0
 48
0.0
 49
0.0
140
0.0
141
0.0
142
1.0
143
1.0
 70
  1712
 72
     0
 73
     0
 74
     0
  7

 75
     0
147
1.0
148
0.0
149
0.0
100
AcDbLayout
  1
Model
 70
     1
 71
     0
 10
0.0
 20
0.0
 11
12.0
 21
9.0
 12
0.0
 22
0.0
 32
0.0
 14
0.0
 24
0.0
 34
0.0
 15
0.0
 25
0.0
 35
0.0
146
0.0
 13
0.0
 23
0.0
 33
0.0
 16
1.0
 26
0.0
 36
0.0
 17
0.0
 27
1.0
 37
0.0
 76
     0
330
2
  0
MLINESTYLE
  5
23
102
{ACAD_REACTORS
330
20
102
}
330
20
100
AcDbMlineStyle
  2
STANDARD
 70
     0
  3

 62
   256
 51
90.0
 52
90.0
 71
     2
 49
0.5
 62
   256
  6
BYLAYER
 49
-0.5
 62
   256
  6
BYLAYER
  0
ACDBPLACEHOLDER
  5
5
102
{ACAD_REACTORS
330
6
102
}
330
6
  0
ACAD_PROXY_OBJECT
  5
11A
102
{ACAD_REACTORS
330
119
102
}
330
119
100
AcDbProxyObject
 90
      499
 91
      505
 95
   983063
 70
     0
 93
     1841
310
4214DD185B99185C9928B81E85EB51B8AE3F2E07A17AD46E2B8FC02B5E8DC0F42B1CFD028000000C1008070000C3001FDFF8000000C1003FBFF000000182007F7FE00000030400FEFFC00000060801FDFF8000000C1003FBFF00000018200000000000000681FA0B0000001820100E000186003FBFF000000182007F7FE000
310
00030400FEFFC00000060801FDFF8000000C1003FBFF000000182007F7FE000000304000AD7A3703D0AC73F4160000003040201C00030C007F7FE00000030400FEFFC00000060801FDFF8000000C1003FBFF000000182007F7FE00000030400FEFFC000000608000
340
12
340
12
340
12
 94
        0
  0
XRECORD
  5
2E0
102
{ACAD_REACTORS
330
2DF
102
}
330
2DF
100
AcDbXrecord
340
118
  0
XRECORD
  5
2E1
102
{ACAD_REACTORS
330
2DF
102
}
330
2DF
100
AcDbXrecord
340
117
  0
DICTIONARYVAR
  5
1CB
102
{ACAD_REACTORS
330
113
102
}
330
113
100
DictionaryVariables
280
     0
  1
STANDARD
  0
DICTIONARYVAR
  5
2DE
102
{ACAD_REACTORS
330
113
102
}
330
113
100
DictionaryVariables
280
     0
  1
0
  0
DICTIONARY
  5
2E2
330
F
100
AcDbDictionary
280
     1
281
     1
  3
ACAD_XREC_ROUNDTRIP
360
2E3
  0
DICTIONARY
  5
2E4
330
A
100
AcDbDictionary
280
     1
281
     1
  3
ACAD_XREC_ROUNDTRIP
360
2E5
  0
XRECORD
  5
2E3
102
{ACAD_REACTORS
330
2E2
102
}
330
2E2
100
AcDbXrecord
102
SHADEPLOT
 70
     0
102
SHADEPLOTRESLEVEL
 70
     2
102
SHADEPLOTCUSTOMDPI
 70
   300
  0
XRECORD
  5
2E5
102
{ACAD_REACTORS
330
2E4
102
}
330
2E4
100
AcDbXrecord
102
SHADEPLOT
 70
     0
102
SHADEPLOTRESLEVEL
 70
     2
102
SHADEPLOTCUSTOMDPI
 70
   300
  0
ENDSEC
  0
EOF
