  0
SECTION
  2
HEADER
  9
$ACADVER
  1
AC1015
  9
$ACADMAINTVER
 70
     6
  9
$DWGCODEPAGE
  3
ANSI_1252
  9
$INSBASE
 10
0.0
 20
0.0
 30
0.0
  9
$EXTMIN
 10
-2.564273343337572
 20
-0.0258883476483184
 30
0.0
  9
$EXTMAX
 10
2.540742110767837
 20
7.41936370856398
 30
0.0
  9
$LIMMIN
 10
0.0
 20
0.0
  9
$LIMMAX
 10
31.5
 20
24.0
  9
$ORTHOMODE
 70
     1
  9
$REGENMODE
 70
     1
  9
$FILLMODE
 70
     1
  9
$QTEXTMODE
 70
     0
  9
$MIRRTEXT
 70
     0
  9
$LTSCALE
 40
0.5
  9
$ATTMODE
 70
     1
  9
$TEXTSIZE
 40
0.27
  9
$TRACEWID
 40
0.05
  9
$TEXTSTYLE
  7
STANDARD
  9
$CLAYER
  8
0
  9
$CELTYPE
  6
BYLAYER
  9
$CECOLOR
 62
   256
  9
$CELTSCALE
 40
1.0
  9
$DISPSILH
 70
     0
  9
$DIMSCALE
 40
1.0
  9
$DIMASZ
 40
0.375
  9
$DIMEXO
 40
0.0625
  9
$DIMDLI
 40
0.75
  9
$DIMRND
 40
0.0
  9
$DIMDLE
 40
0.0
  9
$DIMEXE
 40
0.18
  9
$DIMTP
 40
0.0
  9
$DIMTM
 40
0.0
  9
$DIMTXT
 40
0.27
  9
$DIMCEN
 40
-0.06
  9
$DIMTSZ
 40
0.0
  9
$DIMTOL
 70
     0
  9
$DIMLIM
 70
     0
  9
$DIMTIH
 70
     1
  9
$DIMTOH
 70
     1
  9
$DIMSE1
 70
     0
  9
$DIMSE2
 70
     0
  9
$DIMTAD
 70
     0
  9
$DIMZIN
 70
     0
  9
$DIMBLK
  1

  9
$DIMASO
 70
     0
  9
$DIMSHO
 70
     0
  9
$DIMPOST
  1

  9
$DIMAPOST
  1

  9
$DIMALT
 70
     0
  9
$DIMALTD
 70
     2
  9
$DIMALTF
 40
25.4
  9
$DIMLFAC
 40
1.0
  9
$DIMTOFL
 70
     0
  9
$DIMTVP
 40
0.0
  9
$DIMTIX
 70
     0
  9
$DIMSOXD
 70
     0
  9
$DIMSAH
 70
     0
  9
$DIMBLK1
  1

  9
$DIMBLK2
  1

  9
$DIMSTYLE
  2
STANDARD
  9
$DIMCLRD
 70
     0
  9
$DIMCLRE
 70
     0
  9
$DIMCLRT
 70
     0
  9
$DIMTFAC
 40
1.0
  9
$DIMGAP
 40
0.09
  9
$DIMJUST
 70
     0
  9
$DIMSD1
 70
     0
  9
$DIMSD2
 70
     0
  9
$DIMTOLJ
 70
     1
  9
$DIMTZIN
 70
     0
  9
$DIMALTZ
 70
     0
  9
$DIMALTTZ
 70
     0
  9
$DIMUPT
 70
     0
  9
$DIMDEC
 70
     5
  9
$DIMTDEC
 70
     5
  9
$DIMALTU
 70
     5
  9
$DIMALTTD
 70
     2
  9
$DIMTXSTY
  7
STANDARD
  9
$DIMAUNIT
 70
     0
  9
$DIMADEC
 70
     0
  9
$DIMALTRND
 40
0.0
  9
$DIMAZIN
 70
     0
  9
$DIMDSEP
 70
    46
  9
$DIMATFIT
 70
     3
  9
$DIMFRAC
 70
     0
  9
$DIMLDRBLK
  1

  9
$DIMLUNIT
 70
     5
  9
$DIMLWD
 70
    -2
  9
$DIMLWE
 70
    -2
  9
$DIMTMOVE
 70
     2
  9
$LUNITS
 70
     5
  9
$LUPREC
 70
     5
  9
$SKETCHINC
 40
0.1
  9
$FILLETRAD
 40
0.0
  9
$AUNITS
 70
     0
  9
$AUPREC
 70
     0
  9
$MENU
  1
ACAD
  9
$ELEVATION
 40
0.0
  9
$PELEVATION
 40
0.0
  9
$THICKNESS
 40
0.0
  9
$LIMCHECK
 70
     0
  9
$CHAMFERA
 40
0.0
  9
$CHAMFERB
 40
0.0
  9
$CHAMFERC
 40
0.0
  9
$CHAMFERD
 40
0.0
  9
$SKPOLY
 70
     0
  9
$TDCREATE
 40
2449212.721249885
  9
$TDUCREATE
 40
2449213.054583218
  9
$TDUPDATE
 40
2454160.606321412
  9
$TDUUPDATE
 40
2454160.939654745
  9
$TDINDWG
 40
0.1506809144
  9
$TDUSRTIMER
 40
0.1506809144
  9
$USRTIMER
 70
     1
  9
$ANGBASE
 50
0.0
  9
$ANGDIR
 70
     0
  9
$PDMODE
 70
     0
  9
$PDSIZE
 40
0.0
  9
$PLINEWID
 40
0.0
  9
$SPLFRAME
 70
     0
  9
$SPLINETYPE
 70
     6
  9
$SPLINESEGS
 70
     8
  9
$HANDSEED
  5
334
  9
$SURFTAB1
 70
     6
  9
$SURFTAB2
 70
     6
  9
$SURFTYPE
 70
     6
  9
$SURFU
 70
     6
  9
$SURFV
 70
     6
  9
$UCSBASE
  2

  9
$UCSNAME
  2

  9
$UCSORG
 10
0.0
 20
0.0
 30
0.0
  9
$UCSXDIR
 10
1.0
 20
0.0
 30
0.0
  9
$UCSYDIR
 10
0.0
 20
1.0
 30
0.0
  9
$UCSORTHOREF
  2

  9
$UCSORTHOVIEW
 70
     0
  9
$UCSORGTOP
 10
0.0
 20
0.0
 30
0.0
  9
$UCSORGBOTTOM
 10
0.0
 20
0.0
 30
0.0
  9
$UCSORGLEFT
 10
0.0
 20
0.0
 30
0.0
  9
$UCSORGRIGHT
 10
0.0
 20
0.0
 30
0.0
  9
$UCSORGFRONT
 10
0.0
 20
0.0
 30
0.0
  9
$UCSORGBACK
 10
0.0
 20
0.0
 30
0.0
  9
$PUCSBASE
  2

  9
$PUCSNAME
  2

  9
$PUCSORG
 10
0.0
 20
0.0
 30
0.0
  9
$PUCSXDIR
 10
1.0
 20
0.0
 30
0.0
  9
$PUCSYDIR
 10
0.0
 20
1.0
 30
0.0
  9
$PUCSORTHOREF
  2

  9
$PUCSORTHOVIEW
 70
     0
  9
$PUCSORGTOP
 10
0.0
 20
0.0
 30
0.0
  9
$PUCSORGBOTTOM
 10
0.0
 20
0.0
 30
0.0
  9
$PUCSORGLEFT
 10
0.0
 20
0.0
 30
0.0
  9
$PUCSORGRIGHT
 10
0.0
 20
0.0
 30
0.0
  9
$PUCSORGFRONT
 10
0.0
 20
0.0
 30
0.0
  9
$PUCSORGBACK
 10
0.0
 20
0.0
 30
0.0
  9
$USERI1
 70
     0
  9
$USERI2
 70
     0
  9
$USERI3
 70
     0
  9
$USERI4
 70
     0
  9
$USERI5
 70
     0
  9
$USERR1
 40
0.0
  9
$USERR2
 40
0.0
  9
$USERR3
 40
0.0
  9
$USERR4
 40
0.0
  9
$USERR5
 40
0.0
  9
$WORLDVIEW
 70
     1
  9
$SHADEDGE
 70
     3
  9
$SHADEDIF
 70
    70
  9
$TILEMODE
 70
     1
  9
$MAXACTVP
 70
    16
  9
$PINSBASE
 10
0.0
 20
0.0
 30
0.0
  9
$PLIMCHECK
 70
     0
  9
$PEXTMIN
 10
1.000000000000000E+20
 20
1.000000000000000E+20
 30
1.000000000000000E+20
  9
$PEXTMAX
 10
-1.000000000000000E+20
 20
-1.000000000000000E+20
 30
-1.000000000000000E+20
  9
$PLIMMIN
 10
0.0
 20
0.0
  9
$PLIMMAX
 10
12.0
 20
9.0
  9
$UNITMODE
 70
     0
  9
$VISRETAIN
 70
     0
  9
$PLINEGEN
 70
     1
  9
$PSLTSCALE
 70
     0
  9
$TREEDEPTH
 70
  3020
  9
$CMLSTYLE
  2
STANDARD
  9
$CMLJUST
 70
     0
  9
$CMLSCALE
 40
1.0
  9
$PROXYGRAPHICS
 70
     1
  9
$MEASUREMENT
 70
     0
  9
$CELWEIGHT
370
    -1
  9
$ENDCAPS
280
     0
  9
$JOINSTYLE
280
     0
  9
$LWDISPLAY
290
     0
  9
$INSUNITS
 70
     0
  9
$HYPERLINKBASE
  1

  9
$STYLESHEET
  1

  9
$XEDIT
290
     1
  9
$CEPSNTYPE
380
     0
  9
$PSTYLEMODE
290
     1
  9
$FINGERPRINTGUID
  2
{6DCED1A3-450A-4967-A56E-0C498293E8B1}
  9
$VERSIONGUID
  2
{D62E7027-9FBF-4290-8C4E-FA6799BCE574}
  9
$EXTNAMES
290
     1
  9
$PSVPSCALE
 40
0.0
  9
$OLESTARTUP
290
     0
  0
ENDSEC
  0
SECTION
  2
CLASSES
  0
CLASS
  1
DICTIONARYVAR
  2
AcDbDictionaryVar
  3
AutoCAD 2000
 90
        0
280
     0
281
     0
  0
CLASS
  1
LWPOLYLINE
  2
AcDbPolyline
  3
AutoCAD 2000
 90
        0
280
     0
281
     1
  0
CLASS
  1
ACDBDICTIONARYWDFLT
  2
AcDbDictionaryWithDefault
  3
AutoCAD 2000
 90
        0
280
     0
281
     0
  0
CLASS
  1
ACDBPLACEHOLDER
  2
AcDbPlaceHolder
  3
ObjectDBX Classes
 90
        0
280
     0
281
     0
  0
CLASS
  1
LAYOUT
  2
AcDbLayout
  3
ObjectDBX Classes
 90
        0
280
     0
281
     0
  0
CLASS
  1
TABLESTYLE
  2
AcDbTableStyle
  3
ObjectDBX Classes
 90
     2047
280
     1
281
     0
  0
CLASS
  1
SORTENTSTABLE
  2
AcDbSortentsTable
  3
AutoCAD 2000
 90
        0
280
     0
281
     0
  0
ENDSEC
  0
SECTION
  2
TABLES
  0
TABLE
  2
VPORT
  5
19
330
0
100
AcDbSymbolTable
 70
     2
  0
VPORT
  5
326
330
19
100
AcDbSymbolTableRecord
100
AcDbViewportTableRecord
  2
*Active
 70
     0
 10
0.0
 20
0.0
 11
1.0
 21
1.0
 12
6.968198214438679
 22
10.03972236774732
 13
0.0
 23
0.0
 14
0.0625
 24
0.0625
 15
0.5
 25
0.5
 16
0.0
 26
0.0
 36
1.0
 17
0.0
 27
0.0
 37
0.0
 40
27.89163480839941
 41
1.55012853470437
 42
50.0
 43
0.0
 44
0.0
 50
0.0
 51
0.0
 71
     0
 72
   100
 73
     1
 74
     1
 75
     0
 76
     0
 77
     0
 78
     0
281
     0
 65
     1
110
0.0
120
0.0
130
0.0
111
1.0
121
0.0
131
0.0
112
0.0
122
1.0
132
0.0
 79
     0
146
0.0
  0
ENDTAB
  0
TABLE
  2
LTYPE
  5
14
330
0
100
AcDbSymbolTable
 70
     2
  0
LTYPE
  5
15
330
14
100
AcDbSymbolTableRecord
100
AcDbLinetypeTableRecord
  2
BYBLOCK
 70
     0
  3

 72
    65
 73
     0
 40
0.0
  0
LTYPE
  5
16
330
14
100
AcDbSymbolTableRecord
100
AcDbLinetypeTableRecord
  2
BYLAYER
 70
     0
  3

 72
    65
 73
     0
 40
0.0
  0
LTYPE
  5
8
330
14
100
AcDbSymbolTableRecord
100
AcDbLinetypeTableRecord
  2
CONTINUOUS
 70
     0
  3
Solid line
 72
    65
 73
     0
 40
0.0
  0
LTYPE
  5
22B
330
14
100
AcDbSymbolTableRecord
100
AcDbLinetypeTableRecord
  2
HIDDEN
 70
     0
  3
Hidden __ __ __ __ __ __ __ __ __ __ __ __ __ _
 72
    65
 73
     2
 40
0.375
 49
0.25
 74
     0
 49
-0.125
 74
     0
  0
ENDTAB
  0
TABLE
  2
LAYER
  5
10
330
0
100
AcDbSymbolTable
 70
     2
  0
LAYER
  5
4
330
10
100
AcDbSymbolTableRecord
100
AcDbLayerTableRecord
  2
0
 70
     0
 62
     7
  6
CONTINUOUS
370
    -3
390
5
  0
ENDTAB
  0
TABLE
  2
STYLE
  5
11
330
0
100
AcDbSymbolTable
 70
     1
  0
STYLE
  5
12
330
11
100
AcDbSymbolTableRecord
100
AcDbTextStyleTableRecord
  2
STANDARD
 70
     0
 40
0.0
 41
1.0
 50
0.0
 71
     0
 42
0.27
  3
TXT
  4

  0
ENDTAB
  0
TABLE
  2
VIEW
  5
17
330
0
100
AcDbSymbolTable
 70
     0
  0
ENDTAB
  0
TABLE
  2
UCS
  5
18
330
0
100
AcDbSymbolTable
 70
     0
  0
ENDTAB
  0
TABLE
  2
APPID
  5
1B
330
0
100
AcDbSymbolTable
 70
     1
  0
APPID
  5
1C
330
1B
100
AcDbSymbolTableRecord
100
AcDbRegAppTableRecord
  2
ACAD
 70
     0
  0
ENDTAB
  0
TABLE
  2
DIMSTYLE
  5
1D
330
0
100
AcDbSymbolTable
 70
     1
100
AcDbDimStyleTable
  0
DIMSTYLE
105
24
330
1D
100
AcDbSymbolTableRecord
100
AcDbDimStyleTableRecord
  2
STANDARD
 70
     0
  3

  4

340
12
  0
ENDTAB
  0
TABLE
  2
BLOCK_RECORD
  5
1
330
0
100
AcDbSymbolTable
 70
     0
  0
BLOCK_RECORD
  5
2
102
{ACAD_XDICTIONARY
360
122
102
}
330
1
100
AcDbSymbolTableRecord
100
AcDbBlockTableRecord
  2
*MODEL_SPACE
340
A
  0
BLOCK_RECORD
  5
C
330
1
100
AcDbSymbolTableRecord
100
AcDbBlockTableRecord
  2
*PAPER_SPACE
340
F
  0
ENDTAB
  0
ENDSEC
  0
SECTION
  2
BLOCKS
  0
BLOCK
  5
3
330
2
100
AcDbEntity
  8
0
100
AcDbBlockBegin
  2
*MODEL_SPACE
 70
     0
 10
0.0
 20
0.0
 30
0.0
  3
*MODEL_SPACE
  1

  4

  0
ENDBLK
  5
9
330
2
100
AcDbEntity
  8
0
100
AcDbBlockEnd
  0
BLOCK
  5
D
330
C
100
AcDbEntity
 67
     1
  8
0
100
AcDbBlockBegin
  2
*PAPER_SPACE
 70
     0
 10
0.0
 20
0.0
 30
0.0
  3
*PAPER_SPACE
  1

  4

  0
ENDBLK
  5
E
330
C
100
AcDbEntity
 67
     1
  8
0
100
AcDbBlockEnd
  0
ENDSEC
  0
SECTION
  2
ENTITIES
  0
ARC
  5
147
330
2
100
AcDbEntity
  8
0
100
AcDbCircle
 10
-1.344074101487883
 20
1.623248171649264
 30
0.0
 40
0.5037125
100
AcDbArc
 50
0.0000000000001527
 51
82.40677
  0
LINE
  5
149
330
2
100
AcDbEntity
  8
0
100
AcDbLine
 10
-0.8330560000000009
 20
6.878769999999999
 30
0.0
 11
-1.030737000000002
 21
7.17895
 31
0.0
  0
LINE
  5
14A
330
2
100
AcDbEntity
  8
0
100
AcDbLine
 10
-1.708076000000001
 20
5.239039999999999
 30
0.0
 11
-1.708076000000001
 21
6.228671765059069
 31
0.0
  0
LINE
  5
14B
330
2
100
AcDbEntity
  8
0
100
AcDbLine
 10
-1.301379402478037
 20
2.136586998074236
 30
0.0
 11
-1.691100288764489
 21
2.888610126916515
 31
0.0
  0
LINE
  5
14C
330
2
100
AcDbEntity
  8
0
100
AcDbLine
 10
-1.283694256602307
 20
2.122104282008728
 30
0.0
 11
-1.309453603071289
 21
2.136586998074236
 31
0.0
  0
LINE
  5
14D
330
2
100
AcDbEntity
  8
0
100
AcDbLine
 10
-1.708076000000001
 20
3.807933346265887
 30
0.0
 11
-1.708076000000001
 21
5.239039999999999
 31
0.0
  0
ARC
  5
14F
330
2
100
AcDbEntity
  8
0
100
AcDbCircle
 10
-1.626940823112692
 20
3.000814390587514
 30
0.0
 40
0.0848988467900542
100
AcDbArc
 50
105.0899061949942
 51
184.8555871373026
  0
ARC
  5
150
330
2
100
AcDbEntity
  8
0
100
AcDbCircle
 10
-1.575065531953904
 20
2.96062249371882
 30
0.0
 40
0.1370264206836484
100
AcDbArc
 50
186.814738306187
 51
211.9685372228437
  0
LINE
  5
151
330
2
100
AcDbEntity
  8
0
100
AcDbLine
 10
-1.711102216048566
 20
2.992937322977756
 30
0.0
 11
-1.711102216048566
 21
2.943192648077876
 31
0.0
  0
LINE
  5
152
330
2
100
AcDbEntity
  8
0
100
AcDbLine
 10
-1.623971811613394
 20
3.705899927724669
 30
0.0
 11
-1.659506059261879
 21
3.720508393584339
 31
0.0
  0
ARC
  5
153
330
2
100
AcDbEntity
  8
0
100
AcDbCircle
 10
-1.611212293421767
 20
3.809521863674529
 30
0.0
 40
0.0978250110679527
100
AcDbArc
 50
178.7226712895547
 51
246.3029870172243
  0
ARC
  5
154
330
2
100
AcDbEntity
  8
0
100
AcDbCircle
 10
-1.296096205417907
 20
7.0975331292458
 30
0.0
 40
0.1715
100
AcDbArc
 50
179.7507
 51
0.5540603
  0
ARC
  5
155
330
2
100
AcDbEntity
  8
0
100
AcDbCircle
 10
-2.038541205417907
 20
7.093053708563978
 30
0.0
 40
0.1715
100
AcDbArc
 50
175.6512
 51
4.348846
  0
LINE
  5
156
330
2
100
AcDbEntity
  8
0
100
AcDbLine
 10
-1.708059127041854
 20
6.227185128995988
 30
0.0
 11
-2.564273343337572
 21
7.360281855467594
 31
0.0
  0
CIRCLE
  5
157
330
2
100
AcDbEntity
  8
0
100
AcDbCircle
 10
-1.645571000000001
 20
6.614269999999998
 30
0.0
 40
0.0855
  0
LINE
  5
158
330
2
100
AcDbEntity
  8
0
100
AcDbLine
 10
-1.906564205417906
 20
7.35738370856398
 30
0.0
 11
-1.419618775092293
 21
7.35738370856398
 31
0.0
  0
ARC
  5
159
330
2
100
AcDbEntity
  8
0
100
AcDbCircle
 10
-2.038541205417907
 20
7.24786370856398
 30
0.0
 40
0.1715
100
AcDbArc
 50
355.6512
 51
184.3488
  0
LINE
  5
15A
330
2
100
AcDbEntity
  8
0
100
AcDbLine
 10
-2.560276564206854
 20
7.35738370856398
 30
0.0
 11
-2.16831140473561
 21
7.35738370856398
 31
0.0
  0
LINE
  5
15B
330
2
100
AcDbEntity
  8
0
100
AcDbLine
 10
-2.561976423635683
 20
7.35738370856398
 30
0.0
 11
-2.161815688234361
 21
7.35738370856398
 31
0.0
  0
LINE
  5
15C
330
2
100
AcDbEntity
  8
0
100
AcDbLine
 10
-2.209547205417906
 20
7.10606370856398
 30
0.0
 11
-2.209547205417906
 21
7.234853708563978
 31
0.0
  0
LINE
  5
15D
330
2
100
AcDbEntity
  8
0
100
AcDbLine
 10
-1.867535205417907
 20
7.10606370856398
 30
0.0
 11
-1.867535205417907
 21
7.234853708563978
 31
0.0
  0
ARC
  5
15E
330
2
100
AcDbEntity
  8
0
100
AcDbCircle
 10
-1.296096205417907
 20
7.246803708563977
 30
0.0
 40
0.1715
100
AcDbArc
 50
359.446
 51
180.2493
  0
LINE
  5
15F
330
2
100
AcDbEntity
  8
0
100
AcDbLine
 10
-1.467595205417906
 20
7.098279341540255
 30
0.0
 11
-1.467595205417906
 21
7.246053708563977
 31
0.0
  0
LINE
  5
160
330
2
100
AcDbEntity
  8
0
100
AcDbLine
 10
-1.124604205417907
 20
7.103392366159184
 30
0.0
 11
-1.124604205417907
 21
7.245143708563976
 31
0.0
  0
LINE
  5
161
330
2
100
AcDbEntity
  8
0
100
AcDbLine
 10
-1.17305123569584
 20
7.35738370856398
 30
0.0
 11
-1.032488235695841
 21
7.35738370856398
 31
0.0
  0
LINE
  5
162
330
2
100
AcDbEntity
  8
0
100
AcDbLine
 10
-1.030737000000002
 20
7.35566
 30
0.0
 11
-1.030737000000002
 21
7.17895
 31
0.0
  0
LINE
  5
163
330
2
100
AcDbEntity
  8
0
100
AcDbLine
 10
0.7811869999999992
 20
5.239039999999999
 30
0.0
 11
0.7811869999999992
 21
6.800450000000001
 31
0.0
  0
LINE
  5
164
330
2
100
AcDbEntity
  8
0
100
AcDbLine
 10
1.707783999999998
 20
4.256766481430635
 30
0.0
 11
1.707783999999998
 21
6.249866067009645
 31
0.0
  0
LINE
  5
165
330
2
100
AcDbEntity
  8
0
100
AcDbLine
 10
0.8332189999999979
 20
6.879460000000002
 30
0.0
 11
0.8332189999999979
 21
5.239039999999999
 31
0.0
  0
LINE
  5
166
330
2
100
AcDbEntity
  8
0
100
AcDbLine
 10
-0.8330560000000009
 20
6.878769999999999
 30
0.0
 11
-0.8330560000000009
 21
5.239039999999999
 31
0.0
  0
LINE
  5
167
330
2
100
AcDbEntity
  8
0
100
AcDbLine
 10
-0.7814760000000014
 20
6.800450000000001
 30
0.0
 11
-0.7814760000000014
 21
5.239039999999999
 31
0.0
  0
LINE
  5
168
330
2
100
AcDbEntity
  8
0
100
AcDbLine
 10
1.26888916511176
 20
2.158160211864555
 30
0.0
 11
1.690657215423373
 21
2.949752299317048
 31
0.0
  0
ARC
  5
169
330
2
100
AcDbEntity
  8
0
100
AcDbCircle
 10
1.26888916511176
 20
1.716900211864555
 30
0.0
 40
0.4412591
100
AcDbArc
 50
90.0
 51
172.4423
  0
LINE
  5
16A
330
2
100
AcDbEntity
  8
0
100
AcDbLine
 10
-0.8330560000000009
 20
5.239039999999999
 30
0.0
 11
-0.8330560000000009
 21
1.301838641625666
 31
0.0
  0
LINE
  5
16B
330
2
100
AcDbEntity
  8
0
100
AcDbLine
 10
-0.7814760000000014
 20
5.239039999999999
 30
0.0
 11
-0.7814760000000014
 21
0.1140399999999993
 31
0.0
  0
LINE
  5
16C
330
2
100
AcDbEntity
  8
0
100
AcDbLine
 10
0.8330559999999991
 20
5.239039999999999
 30
0.0
 11
0.8330559999999991
 21
1.248648273832561
 31
0.0
  0
LINE
  5
16D
330
2
100
AcDbEntity
  8
0
100
AcDbLine
 10
0.7810239999999986
 20
0.1140399999999993
 30
0.0
 11
0.7810239999999986
 21
5.239039999999999
 31
0.0
  0
LINE
  5
16E
330
2
100
AcDbEntity
  8
0
100
AcDbLine
 10
-0.8330560000000009
 20
0.4890399999999993
 30
0.0
 11
-0.8330560000000009
 21
0.125
 31
0.0
  0
LINE
  5
16F
330
2
100
AcDbEntity
  8
0
100
AcDbLine
 10
0.8330559999999991
 20
0.4890399999999993
 30
0.0
 11
0.8330559999999991
 21
0.125
 31
0.0
  0
ARC
  5
170
330
2
100
AcDbEntity
  8
0
100
AcDbCircle
 10
0.7080559999999991
 20
0.125
 30
0.0
 40
0.125
100
AcDbArc
 50
270.0
 51
0.0
  0
LINE
  5
171
330
2
100
AcDbEntity
  8
0
100
AcDbLine
 10
-0.7080560000000009
 20
0.0
 30
0.0
 11
0.7080559999999991
 21
0.0
 31
0.0
  0
LINE
  5
172
330
2
100
AcDbEntity
  8
0
100
AcDbLine
 10
-0.7189760000000014
 20
0.0515399999999993
 30
0.0
 11
0.7185239999999986
 21
0.0515399999999993
 31
0.0
  0
ARC
  5
173
330
2
100
AcDbEntity
  8
0
100
AcDbCircle
 10
-0.7080560000000009
 20
0.125
 30
0.0
 40
0.125
100
AcDbArc
 50
180.0
 51
270.0
  0
ARC
  5
174
330
2
100
AcDbEntity
  8
0
100
AcDbCircle
 10
-0.7189760000000014
 20
0.1140399999999993
 30
0.0
 40
0.0625
100
AcDbArc
 50
180.0
 51
270.0
  0
ARC
  5
175
330
2
100
AcDbEntity
  8
0
100
AcDbCircle
 10
0.7185239999999986
 20
0.1140399999999993
 30
0.0
 40
0.0625
100
AcDbArc
 50
270.0
 51
0.0
  0
LINE
  5
176
330
2
100
AcDbEntity
  8
0
100
AcDbLine
 10
-0.8330560000000009
 20
1.362260000000001
 30
0.0
 11
-0.8330560000000009
 21
0.7390399999999993
 31
0.0
  0
LINE
  5
177
330
2
100
AcDbEntity
  8
0
100
AcDbLine
 10
-0.8330560000000009
 20
0.4890399999999993
 30
0.0
 11
-0.8330560000000009
 21
0.7390399999999993
 31
0.0
  0
LINE
  5
178
330
2
100
AcDbEntity
  8
0
100
AcDbLine
 10
-0.7814760000000014
 20
0.5515399999999993
 30
0.0
 11
-0.7814760000000014
 21
0.4340399999999995
 31
0.0
  0
LINE
  5
179
330
2
100
AcDbEntity
  8
0
100
AcDbLine
 10
0.7810239999999986
 20
0.5515399999999993
 30
0.0
 11
0.7810239999999986
 21
0.4340399999999995
 31
0.0
  0
LINE
  5
17A
330
2
100
AcDbEntity
  8
0
100
AcDbLine
 10
0.8330559999999991
 20
1.364039999999999
 30
0.0
 11
0.8330559999999991
 21
0.7390399999999993
 31
0.0
  0
LINE
  5
17B
330
2
100
AcDbEntity
  8
0
100
AcDbLine
 10
0.8330559999999991
 20
0.7390399999999993
 30
0.0
 11
0.8330559999999991
 21
0.4890399999999993
 31
0.0
  0
ARC
  5
17C
330
2
100
AcDbEntity
  8
0
100
AcDbCircle
 10
1.252676261871809
 20
1.700695137968147
 30
0.0
 40
0.4412591
100
AcDbArc
 50
187.1682
 51
187.5577
  0
ARC
  5
17D
330
2
100
AcDbEntity
  8
0
100
AcDbCircle
 10
1.270484
 20
1.685610000000001
 30
0.0
 40
0.4412591
100
AcDbArc
 50
187.1682
 51
187.5577
  0
LINE
  5
180
330
2
100
AcDbEntity
  8
0
100
AcDbLine
 10
1.707968601589547
 20
3.00244650521212
 30
0.0
 11
1.707968601589547
 21
3.447231499675407
 31
0.0
  0
ARC
  5
181
330
2
100
AcDbEntity
  8
0
100
AcDbCircle
 10
1.609589931359402
 20
3.000514704048349
 30
0.0
 40
0.0978394790285822
100
AcDbArc
 50
325.5200748813015
 51
2.141536636239843
  0
ARC
  5
182
330
2
100
AcDbEntity
  8
0
100
AcDbCircle
 10
1.62324172850696
 20
3.443330707690503
 30
0.0
 40
0.0848988467900542
100
AcDbArc
 50
355.1444128626974
 51
74.91009380500576
  0
LINE
  5
183
330
2
100
AcDbEntity
  8
0
100
AcDbLine
 10
1.611754652887106
 20
4.147901877860171
 30
0.0
 11
1.646158574675026
 21
4.163532481532041
 31
0.0
  0
ARC
  5
184
330
2
100
AcDbEntity
  8
0
100
AcDbCircle
 10
1.605133667045871
 20
4.258118723308584
 30
0.0
 40
0.1026636088891489
100
AcDbArc
 50
294.5154516556392
 51
359.0785609655183
  0
LINE
  5
185
330
2
100
AcDbEntity
  8
0
100
AcDbLine
 10
1.707964150528833
 20
6.243993765140907
 30
0.0
 11
2.539144974099076
 21
7.354767612996238
 31
0.0
  0
LINE
  5
186
330
2
100
AcDbEntity
  8
0
100
AcDbLine
 10
2.540742110767837
 20
7.35738370856398
 30
0.0
 11
2.176026693479381
 21
7.35738370856398
 31
0.0
  0
LINE
  5
187
330
2
100
AcDbEntity
  8
0
100
AcDbLine
 10
0.7817973724120435
 20
6.802173708563981
 30
0.0
 11
0.833829372412044
 21
6.881183708563981
 31
0.0
  0
LINE
  5
188
330
2
100
AcDbEntity
  8
0
100
AcDbLine
 10
-0.7814760000000014
 20
6.800450000000001
 30
0.0
 11
-0.8330560000000009
 21
6.878769999999999
 31
0.0
  0
ARC
  5
189
330
2
100
AcDbEntity
  8
0
100
AcDbCircle
 10
2.052315794582093
 20
7.093053708563978
 30
0.0
 40
0.1715
100
AcDbArc
 50
175.6512
 51
4.348846
  0
LINE
  5
18A
330
2
100
AcDbEntity
  8
0
100
AcDbLine
 10
0.8333773724120448
 20
6.880493708563979
 30
0.0
 11
1.031054372412044
 21
7.18067370856398
 31
0.0
  0
CIRCLE
  5
18B
330
2
100
AcDbEntity
  8
0
100
AcDbCircle
 10
1.645283999999998
 20
6.614269999999998
 30
0.0
 40
0.0855
  0
LINE
  5
18C
330
2
100
AcDbEntity
  8
0
100
AcDbLine
 10
1.91613241076597
 20
7.35738370856398
 30
0.0
 11
1.436752410765971
 21
7.35738370856398
 31
0.0
  0
ARC
  5
18D
330
2
100
AcDbEntity
  8
0
100
AcDbCircle
 10
1.309875794582094
 20
7.246803708563977
 30
0.0
 40
0.1715
100
AcDbArc
 50
359.7507
 51
180.5541
  0
ARC
  5
18E
330
2
100
AcDbEntity
  8
0
100
AcDbCircle
 10
1.309875794582094
 20
7.101444138883199
 30
0.0
 40
0.1715
100
AcDbArc
 50
179.4459
 51
0.2493315
  0
LINE
  5
18F
330
2
100
AcDbEntity
  8
0
100
AcDbLine
 10
1.138375794582093
 20
7.099055322146636
 30
0.0
 11
1.138375794582093
 21
7.245143708563976
 31
0.0
  0
LINE
  5
190
330
2
100
AcDbEntity
  8
0
100
AcDbLine
 10
1.031054372412044
 20
7.35738370856398
 30
0.0
 11
1.031054372412044
 21
7.18067370856398
 31
0.0
  0
LINE
  5
191
330
2
100
AcDbEntity
  8
0
100
AcDbLine
 10
1.184461594415966
 20
7.35738370856398
 30
0.0
 11
1.034012410765969
 21
7.35738370856398
 31
0.0
  0
LINE
  5
192
330
2
100
AcDbEntity
  8
0
100
AcDbLine
 10
1.481365794582093
 20
7.094318054831568
 30
0.0
 11
1.481365794582093
 21
7.246053708563977
 31
0.0
  0
ARC
  5
193
330
2
100
AcDbEntity
  8
0
100
AcDbCircle
 10
2.052315794582093
 20
7.24786370856398
 30
0.0
 40
0.1715
100
AcDbArc
 50
355.6512
 51
184.3488
  0
LINE
  5
194
330
2
100
AcDbEntity
  8
0
100
AcDbLine
 10
1.881305794582094
 20
7.10606370856398
 30
0.0
 11
1.881305794582094
 21
7.234853708563978
 31
0.0
  0
LINE
  5
195
330
2
100
AcDbEntity
  8
0
100
AcDbLine
 10
2.223325794582092
 20
7.10606370856398
 30
0.0
 11
2.223325794582092
 21
7.234853708563978
 31
0.0
  0
ARC
  5
1D2
330
2
100
AcDbEntity
  8
0
100
AcDbCircle
 10
1.089614542848238
 20
4.225446806144333
 30
0.0
 40
0.062
100
AcDbArc
 50
323.2667
 51
42.18270000000002
  0
ARC
  5
1D3
330
2
100
AcDbEntity
  8
0
100
AcDbCircle
 10
1.063014542848238
 20
4.219616806144334
 30
0.0
 40
0.031
100
AcDbArc
 50
322.8492
 51
41.67051000000001
  0
LINE
  5
1D4
330
2
100
AcDbEntity
  8
0
100
AcDbLine
 10
0.9685845428482374
 20
4.043666806144334
 30
0.0
 11
1.087724542848239
 21
4.200896806144332
 31
0.0
  0
LINE
  5
1D5
330
2
100
AcDbEntity
  8
0
100
AcDbLine
 10
0.9830245428482378
 20
3.978946806144332
 30
0.0
 11
0.9685845428482374
 21
4.043666806144334
 31
0.0
  0
LINE
  5
1D6
330
2
100
AcDbEntity
  8
0
100
AcDbLine
 10
1.139304542848239
 20
4.188356806144334
 30
0.0
 11
0.9830245428482378
 21
3.978946806144332
 31
0.0
  0
LINE
  5
1D7
330
2
100
AcDbEntity
  8
0
100
AcDbLine
 10
0.8342645428482385
 20
4.599556806144332
 30
0.0
 11
1.135554542848238
 21
4.267076806144335
 31
0.0
  0
LINE
  5
1D8
330
2
100
AcDbEntity
  8
0
100
AcDbLine
 10
0.8349145428482387
 20
4.522526806144331
 30
0.0
 11
1.086174542848239
 21
4.240226806144332
 31
0.0
  0
ARC
  5
1D9
330
2
100
AcDbEntity
  8
0
100
AcDbCircle
 10
1.693874740184544
 20
3.716880520340261
 30
0.0
 40
0.1974604072610808
100
AcDbArc
 50
243.6268583161201
 51
255.9801221126697
  0
ARC
  5
1DA
330
2
100
AcDbEntity
  8
0
100
AcDbCircle
 10
1.719613364586358
 20
3.739069099264185
 30
0.0
 40
0.2291537750005701
100
AcDbArc
 50
215.9427887111814
 51
240.3237949666946
  0
ARC
  5
1DB
330
2
100
AcDbEntity
  8
0
100
AcDbCircle
 10
1.82097065474729
 20
3.812554961341487
 30
0.0
 40
0.3543475136379777
100
AcDbArc
 50
199.1809492515902
 51
215.9427887111772
  0
ARC
  5
1DC
330
2
100
AcDbEntity
  8
0
100
AcDbCircle
 10
1.98738107519454
 20
3.870443167020024
 30
0.0
 40
0.5305390922962979
100
AcDbArc
 50
185.4986125612694
 51
199.1809492515923
  0
ARC
  5
1DD
330
2
100
AcDbEntity
  8
0
100
AcDbCircle
 10
1.987381075194495
 20
3.870443167019989
 30
0.0
 40
0.5305390922962504
100
AcDbArc
 50
171.8162758709426
 51
185.4986125612661
  0
ARC
  5
1DE
330
2
100
AcDbEntity
  8
0
100
AcDbCircle
 10
1.812983706966623
 20
3.895523644393744
 30
0.0
 40
0.3543475136379519
100
AcDbArc
 50
155.0544364113583
 51
171.8162758709453
  0
ARC
  5
1DF
330
2
100
AcDbEntity
  8
0
100
AcDbCircle
 10
1.69946942926175
 20
3.948324979141525
 30
0.0
 40
0.2291537750005657
100
AcDbArc
 50
130.6734301558433
 51
155.0544364113569
  0
ARC
  5
1E0
330
2
100
AcDbEntity
  8
0
100
AcDbCircle
 10
1.623059160311618
 20
4.037243485411036
 30
0.0
 40
0.1119145752496605
100
AcDbArc
 50
95.49861256126781
 51
130.6734301558423
  0
ARC
  5
1E1
330
2
100
AcDbEntity
  8
0
100
AcDbCircle
 10
-1.697573834790278
 20
3.274364203237273
 30
0.0
 40
0.1974604072610808
100
AcDbArc
 50
284.0198778873303
 51
296.3731416838799
  0
ARC
  5
1E2
330
2
100
AcDbEntity
  8
0
100
AcDbCircle
 10
-1.723312459192093
 20
3.296552782161196
 30
0.0
 40
0.2291537750005705
100
AcDbArc
 50
299.6762050333056
 51
324.0572112888187
  0
ARC
  5
1E3
330
2
100
AcDbEntity
  8
0
100
AcDbCircle
 10
-1.824669749353022
 20
3.370038644238505
 30
0.0
 40
0.3543475136379804
100
AcDbArc
 50
324.0572112888217
 51
340.8190507484088
  0
ARC
  5
1E4
330
2
100
AcDbEntity
  8
0
100
AcDbCircle
 10
-1.991080169800272
 20
3.427926849917029
 30
0.0
 40
0.5305390922962956
100
AcDbArc
 50
340.8190507484084
 51
354.5013874387313
  0
ARC
  5
1E5
330
2
100
AcDbEntity
  8
0
100
AcDbCircle
 10
-1.991080169800227
 20
3.427926849917011
 30
0.0
 40
0.5305390922962496
100
AcDbArc
 50
354.5013874387327
 51
8.183724129056289
  0
ARC
  5
1E6
330
2
100
AcDbEntity
  8
0
100
AcDbCircle
 10
-1.816682801572357
 20
3.453007327290749
 30
0.0
 40
0.3543475136379547
100
AcDbArc
 50
8.183724129055761
 51
24.94556358864276
  0
ARC
  5
1E7
330
2
100
AcDbEntity
  8
0
100
AcDbCircle
 10
-1.703168523867483
 20
3.50580866203854
 30
0.0
 40
0.2291537750005634
100
AcDbArc
 50
24.94556358864237
 51
49.32656984415598
  0
ARC
  5
1E8
330
2
100
AcDbEntity
  8
0
100
AcDbCircle
 10
-1.62675825491735
 20
3.594727168308051
 30
0.0
 40
0.1119145752496578
100
AcDbArc
 50
49.32656984415652
 51
84.50138743873201
  0
ARC
  5
1E9
330
2
100
AcDbEntity
  8
0
100
AcDbCircle
 10
-1.091337709457473
 20
3.65929293474953
 30
0.0
 40
0.062
100
AcDbArc
 50
137.8173
 51
216.7333
  0
ARC
  5
1EA
330
2
100
AcDbEntity
  8
0
100
AcDbCircle
 10
-1.064737709457473
 20
3.65346293474953
 30
0.0
 40
0.031
100
AcDbArc
 50
138.32949
 51
217.1508000000001
  0
LINE
  5
1EB
330
2
100
AcDbEntity
  8
0
100
AcDbLine
 10
-0.9703077094574741
 20
3.47751293474953
 30
0.0
 11
-1.089447709457474
 21
3.634742934749529
 31
0.0
  0
LINE
  5
1EC
330
2
100
AcDbEntity
  8
0
100
AcDbLine
 10
-0.9847477094574746
 20
3.412792934749529
 30
0.0
 11
-0.9703077094574741
 21
3.47751293474953
 31
0.0
  0
LINE
  5
1ED
330
2
100
AcDbEntity
  8
0
100
AcDbLine
 10
-1.141027709457473
 20
3.622202934749531
 30
0.0
 11
-0.9847477094574746
 21
3.412792934749529
 31
0.0
  0
LINE
  5
1EE
330
2
100
AcDbEntity
  8
0
100
AcDbLine
 10
-0.8359877094574735
 20
4.033402934749528
 30
0.0
 11
-1.137277709457473
 21
3.700922934749531
 31
0.0
  0
LINE
  5
1EF
330
2
100
AcDbEntity
  8
0
100
AcDbLine
 10
-0.8366377094574737
 20
3.956372934749528
 30
0.0
 11
-1.087897709457474
 21
3.674072934749528
 31
0.0
  0
LINE
  5
2EE
330
2
100
AcDbEntity
  8
0
  6
HIDDEN
100
AcDbLine
 10
-2.523031863959665
 20
7.305703708563978
 30
0.0
 11
-1.030737000000002
 21
7.305703708563978
 31
0.0
  0
LINE
  5
2F2
330
2
100
AcDbEntity
  8
0
  6
HIDDEN
100
AcDbLine
 10
1.031054372412044
 20
7.305703708563978
 30
0.0
 11
2.502430951193048
 21
7.305703708563978
 31
0.0
  0
ENDSEC
  0
SECTION
  2
OBJECTS
  0
DICTIONARY
  5
7
330
0
100
AcDbDictionary
281
     1
  3
ACAD_COLOR
350
11A
  3
ACAD_GROUP
350
1F
  3
ACAD_LAYOUT
350
B
  3
ACAD_MATERIAL
350
119
  3
ACAD_MLINESTYLE
350
20
  3
ACAD_PLOTSETTINGS
350
21
  3
ACAD_PLOTSTYLENAME
350
6
  3
ACAD_TABLESTYLE
350
11B
  3
ACDBHEADERROUNDTRIPXREC
350
32D
  3
AcDbVariableDictionary
350
115
  0
DICTIONARY
  5
122
330
2
100
AcDbDictionary
280
     1
281
     1
  3
ACAD_SORTENTS
360
123
  0
DICTIONARY
  5
11A
102
{ACAD_REACTORS
330
7
102
}
330
7
100
AcDbDictionary
281
     1
  0
DICTIONARY
  5
1F
102
{ACAD_REACTORS
330
7
102
}
330
7
100
AcDbDictionary
281
     1
  0
DICTIONARY
  5
B
102
{ACAD_REACTORS
330
7
102
}
330
7
100
AcDbDictionary
281
     1
  3
Layout1
350
F
  3
Model
350
A
  0
DICTIONARY
  5
119
102
{ACAD_REACTORS
330
7
102
}
330
7
100
AcDbDictionary
281
     1
  0
DICTIONARY
  5
20
102
{ACAD_REACTORS
330
7
102
}
330
7
100
AcDbDictionary
281
     1
  3
STANDARD
350
23
  0
DICTIONARY
  5
21
102
{ACAD_REACTORS
330
7
102
}
330
7
100
AcDbDictionary
281
     1
  0
ACDBDICTIONARYWDFLT
  5
6
102
{ACAD_REACTORS
330
7
102
}
330
7
100
AcDbDictionary
281
     1
  3
Normal
350
5
100
AcDbDictionaryWithDefault
340
5
  0
DICTIONARY
  5
11B
102
{ACAD_REACTORS
330
7
102
}
330
7
100
AcDbDictionary
281
     1
  3
Standard
350
11C
  0
DICTIONARY
  5
32D
102
{ACAD_REACTORS
330
7
102
}
330
7
100
AcDbDictionary
281
     1
  3
COLORDICT
350
32E
  3
MATERIALDICT
350
32F
  0
DICTIONARY
  5
115
102
{ACAD_REACTORS
330
7
102
}
330
7
100
AcDbDictionary
281
     1
  3
CTABLESTYLE
350
225
  3
HIDETEXT
350
32C
  0
SORTENTSTABLE
  5
123
102
{ACAD_REACTORS
330
122
102
}
330
122
100
AcDbSortentsTable
330
2
331
181
  5
1E0
331
193
  5
1F2
331
1D3
  5
1D9
331
1EE
  5
18F
331
182
  5
1E1
331
167
  5
1B9
331
17B
  5
1CD
331
153
  5
1A4
331
16D
  5
1BF
331
180
  5
1DF
331
156
  5
1A7
331
149
  5
193
331
16A
  5
1BC
331
14C
  5
196
331
1E8
  5
19F
331
1DA
  5
1D1
331
166
  5
1B8
331
176
  5
1C8
331
1E4
  5
19B
331
172
  5
1C4
331
184
  5
1E3
331
1E2
  5
199
331
1E0
  5
1D7
331
154
  5
1A5
331
191
  5
1F0
331
15D
  5
1AE
331
18A
  5
1E9
331
168
  5
1BA
331
1D8
  5
1DE
331
1EC
  5
18D
331
175
  5
1C7
331
15C
  5
1AD
331
14A
  5
194
331
158
  5
1A9
331
150
  5
1A1
331
14B
  5
195
331
14D
  5
197
331
1DC
  5
1D3
331
1EB
  5
18C
331
152
  5
1A3
331
1D9
  5
1D0
331
1D7
  5
1DD
331
1D2
  5
1D8
331
185
  5
1E4
331
18E
  5
1ED
331
179
  5
1CB
331
171
  5
1C3
331
195
  5
1F4
331
160
  5
1B1
331
165
  5
1B6
331
188
  5
1E7
331
15F
  5
1B0
331
1ED
  5
18E
331
16E
  5
1C0
331
15A
  5
1AB
331
162
  5
1B3
331
18B
  5
1EA
331
1D4
  5
1DA
331
15E
  5
1AF
331
1DE
  5
1D5
331
155
  5
1A6
331
178
  5
1CA
331
151
  5
1A2
331
1DF
  5
1D6
331
18D
  5
1EC
331
157
  5
1A8
331
17D
  5
1CF
331
1E6
  5
19D
331
192
  5
1F1
331
1E5
  5
19C
331
15B
  5
1AC
331
1DD
  5
1D4
331
17A
  5
1CC
331
1E3
  5
19A
331
1D6
  5
1DC
331
174
  5
1C6
331
14F
  5
1A0
331
177
  5
1C9
331
169
  5
1BB
331
1E9
  5
18A
331
1E1
  5
198
331
163
  5
1B4
331
183
  5
1E2
331
16B
  5
1BD
331
194
  5
1F3
331
170
  5
1C2
331
17C
  5
1CE
331
16F
  5
1C1
331
190
  5
1EF
331
1DB
  5
1D2
331
161
  5
1B2
331
18F
  5
1EE
331
187
  5
1E6
331
186
  5
1E5
331
147
  5
189
331
1EA
  5
18B
331
189
  5
1E8
331
159
  5
1AA
331
164
  5
1B5
331
1E7
  5
19E
331
1D5
  5
1DB
331
1EF
  5
192
331
173
  5
1C5
331
18C
  5
1EB
331
16C
  5
1BE
  0
LAYOUT
  5
F
102
{ACAD_REACTORS
330
B
102
}
102
{ACAD_XDICTIONARY
360
330
102
}
330
B
100
AcDbPlotSettings
  1

  2
X:\Program Files\AutoCAD2002\plotters\DWF ePlot (optimized for plotting).pc3
  4

  6

 40
0.0
 41
0.0
 42
0.0
 43
0.0
 44
0.0
 45
0.0
 46
0.0
 47
0.0
 48
0.0
 49
0.0
140
0.0
141
0.0
142
1.0
143
1.0
 70
   688
 72
     0
 73
     0
 74
     5
  7

 75
    16
147
1.0
148
0.0
149
0.0
100
AcDbLayout
  1
Layout1
 70
     0
 71
     1
 10
0.0
 20
0.0
 11
12.0
 21
9.0
 12
0.0
 22
0.0
 32
0.0
 14
1.000000000000000E+20
 24
1.000000000000000E+20
 34
1.000000000000000E+20
 15
-1.000000000000000E+20
 25
-1.000000000000000E+20
 35
-1.000000000000000E+20
146
0.0
 13
0.0
 23
0.0
 33
0.0
 16
1.0
 26
0.0
 36
0.0
 17
0.0
 27
1.0
 37
0.0
 76
     0
330
C
  0
LAYOUT
  5
A
102
{ACAD_REACTORS
330
B
102
}
102
{ACAD_XDICTIONARY
360
332
102
}
330
B
100
AcDbPlotSettings
  1

  2
X:\Program Files\AutoCAD2002\plotters\DWF ePlot (optimized for plotting).pc3
  4

  6

 40
0.0
 41
0.0
 42
0.0
 43
0.0
 44
0.0
 45
0.0
 46
0.0
 47
0.0
 48
0.0
 49
0.0
140
0.0
141
0.0
142
1.0
143
1.0
 70
  1712
 72
     0
 73
     0
 74
     0
  7

 75
     0
147
1.0
148
0.0
149
0.0
100
AcDbLayout
  1
Model
 70
     1
 71
     0
 10
0.0
 20
0.0
 11
12.0
 21
9.0
 12
0.0
 22
0.0
 32
0.0
 14
0.0
 24
0.0
 34
0.0
 15
0.0
 25
0.0
 35
0.0
146
0.0
 13
0.0
 23
0.0
 33
0.0
 16
1.0
 26
0.0
 36
0.0
 17
0.0
 27
1.0
 37
0.0
 76
     0
330
2
  0
MLINESTYLE
  5
23
102
{ACAD_REACTORS
330
20
102
}
330
20
100
AcDbMlineStyle
  2
STANDARD
 70
     0
  3

 62
   256
 51
90.0
 52
90.0
 71
     2
 49
0.5
 62
   256
  6
BYLAYER
 49
-0.5
 62
   256
  6
BYLAYER
  0
ACDBPLACEHOLDER
  5
5
102
{ACAD_REACTORS
330
6
102
}
330
6
  0
ACAD_PROXY_OBJECT
  5
11C
102
{ACAD_REACTORS
330
11B
102
}
330
11B
100
AcDbProxyObject
 90
      499
 91
      505
 95
   983063
 70
     0
 93
     1841
310
4214DD185B99185C9928B81E85EB51B8AE3F2E07A17AD46E2B8FC02B5E8DC0F42B1CFD028000000C1008070000C3001FDFF8000000C1003FBFF000000182007F7FE00000030400FEFFC00000060801FDFF8000000C1003FBFF00000018200000000000000681FA0B0000001820100E000186003FBFF000000182007F7FE000
310
00030400FEFFC00000060801FDFF8000000C1003FBFF000000182007F7FE000000304000AD7A3703D0AC73F4160000003040201C00030C007F7FE00000030400FEFFC00000060801FDFF8000000C1003FBFF000000182007F7FE00000030400FEFFC000000608000
340
12
340
12
340
12
 94
        0
  0
XRECORD
  5
32E
102
{ACAD_REACTORS
330
32D
102
}
330
32D
100
AcDbXrecord
340
11A
  0
XRECORD
  5
32F
102
{ACAD_REACTORS
330
32D
102
}
330
32D
100
AcDbXrecord
340
119
  0
DICTIONARYVAR
  5
225
102
{ACAD_REACTORS
330
115
102
}
330
115
100
DictionaryVariables
280
     0
  1
STANDARD
  0
DICTIONARYVAR
  5
32C
102
{ACAD_REACTORS
330
115
102
}
330
115
100
DictionaryVariables
280
     0
  1
0
  0
DICTIONARY
  5
330
330
F
100
AcDbDictionary
280
     1
281
     1
  3
ACAD_XREC_ROUNDTRIP
360
331
  0
DICTIONARY
  5
332
330
A
100
AcDbDictionary
280
     1
281
     1
  3
ACAD_XREC_ROUNDTRIP
360
333
  0
XRECORD
  5
331
102
{ACAD_REACTORS
330
330
102
}
330
330
100
AcDbXrecord
102
SHADEPLOT
 70
     0
102
SHADEPLOTRESLEVEL
 70
     2
102
SHADEPLOTCUSTOMDPI
 70
   300
  0
XRECORD
  5
333
102
{ACAD_REACTORS
330
332
102
}
330
332
100
AcDbXrecord
102
SHADEPLOT
 70
     0
102
SHADEPLOTRESLEVEL
 70
     2
102
SHADEPLOTCUSTOMDPI
 70
   300
  0
ENDSEC
  0
EOF
