  0
SECTION
  2
HEADER
  9
$ACADVER
  1
AC1015
  9
$ACADMAINTVER
 70
     6
  9
$DWGCODEPAGE
  3
ANSI_1252
  9
$INSBASE
 10
0.0
 20
0.0
 30
0.0
  9
$EXTMIN
 10
-11.4070888773428
 20
-0.0128406204335666
 30
0.0
  9
$EXTMAX
 10
11.4070888773428
 20
16.8626516152647
 30
0.0
  9
$LIMMIN
 10
0.0
 20
0.0
  9
$LIMMAX
 10
12.0
 20
9.0
  9
$ORTHOMODE
 70
     1
  9
$REGENMODE
 70
     1
  9
$FILLMODE
 70
     1
  9
$QTEXTMODE
 70
     0
  9
$MIRRTEXT
 70
     1
  9
$LTSCALE
 40
1.0
  9
$ATTMODE
 70
     1
  9
$TEXTSIZE
 40
0.2
  9
$TRACEWID
 40
0.05
  9
$TEXTSTYLE
  7
Standard
  9
$CLAYER
  8
0
  9
$CELTYPE
  6
ByLayer
  9
$CECOLOR
 62
   256
  9
$CELTSCALE
 40
1.0
  9
$DISPSILH
 70
     0
  9
$DIMSCALE
 40
1.0
  9
$DIMASZ
 40
0.18
  9
$DIMEXO
 40
0.0625
  9
$DIMDLI
 40
0.38
  9
$DIMRND
 40
0.0
  9
$DIMDLE
 40
0.0
  9
$DIMEXE
 40
0.18
  9
$DIMTP
 40
0.0
  9
$DIMTM
 40
0.0
  9
$DIMTXT
 40
0.18
  9
$DIMCEN
 40
0.09
  9
$DIMTSZ
 40
0.0
  9
$DIMTOL
 70
     0
  9
$DIMLIM
 70
     0
  9
$DIMTIH
 70
     1
  9
$DIMTOH
 70
     1
  9
$DIMSE1
 70
     0
  9
$DIMSE2
 70
     0
  9
$DIMTAD
 70
     0
  9
$DIMZIN
 70
     0
  9
$DIMBLK
  1

  9
$DIMASO
 70
     1
  9
$DIMSHO
 70
     1
  9
$DIMPOST
  1

  9
$DIMAPOST
  1

  9
$DIMALT
 70
     0
  9
$DIMALTD
 70
     2
  9
$DIMALTF
 40
25.4
  9
$DIMLFAC
 40
1.0
  9
$DIMTOFL
 70
     0
  9
$DIMTVP
 40
0.0
  9
$DIMTIX
 70
     0
  9
$DIMSOXD
 70
     0
  9
$DIMSAH
 70
     0
  9
$DIMBLK1
  1

  9
$DIMBLK2
  1

  9
$DIMSTYLE
  2
Standard
  9
$DIMCLRD
 70
     0
  9
$DIMCLRE
 70
     0
  9
$DIMCLRT
 70
     0
  9
$DIMTFAC
 40
1.0
  9
$DIMGAP
 40
0.09
  9
$DIMJUST
 70
     0
  9
$DIMSD1
 70
     0
  9
$DIMSD2
 70
     0
  9
$DIMTOLJ
 70
     1
  9
$DIMTZIN
 70
     0
  9
$DIMALTZ
 70
     0
  9
$DIMALTTZ
 70
     0
  9
$DIMUPT
 70
     0
  9
$DIMDEC
 70
     4
  9
$DIMTDEC
 70
     4
  9
$DIMALTU
 70
     2
  9
$DIMALTTD
 70
     2
  9
$DIMTXSTY
  7
Standard
  9
$DIMAUNIT
 70
     0
  9
$DIMADEC
 70
     0
  9
$DIMALTRND
 40
0.0
  9
$DIMAZIN
 70
     0
  9
$DIMDSEP
 70
    46
  9
$DIMATFIT
 70
     3
  9
$DIMFRAC
 70
     0
  9
$DIMLDRBLK
  1

  9
$DIMLUNIT
 70
     2
  9
$DIMLWD
 70
    -2
  9
$DIMLWE
 70
    -2
  9
$DIMTMOVE
 70
     0
  9
$LUNITS
 70
     2
  9
$LUPREC
 70
     4
  9
$SKETCHINC
 40
0.1
  9
$FILLETRAD
 40
0.5
  9
$AUNITS
 70
     0
  9
$AUPREC
 70
     0
  9
$MENU
  1
.
  9
$ELEVATION
 40
0.0
  9
$PELEVATION
 40
0.0
  9
$THICKNESS
 40
0.0
  9
$LIMCHECK
 70
     0
  9
$CHAMFERA
 40
0.5
  9
$CHAMFERB
 40
0.5
  9
$CHAMFERC
 40
1.0
  9
$CHAMFERD
 40
0.0
  9
$SKPOLY
 70
     0
  9
$TDCREATE
 40
2451869.910686921
  9
$TDUCREATE
 40
2451870.244020255
  9
$TDUPDATE
 40
2454160.607779572
  9
$TDUUPDATE
 40
2454160.941112905
  9
$TDINDWG
 40
0.0095277315
  9
$TDUSRTIMER
 40
0.0095277315
  9
$USRTIMER
 70
     1
  9
$ANGBASE
 50
0.0
  9
$ANGDIR
 70
     0
  9
$PDMODE
 70
     0
  9
$PDSIZE
 40
0.0
  9
$PLINEWID
 40
0.0
  9
$SPLFRAME
 70
     0
  9
$SPLINETYPE
 70
     6
  9
$SPLINESEGS
 70
     8
  9
$HANDSEED
  5
250
  9
$SURFTAB1
 70
     6
  9
$SURFTAB2
 70
     6
  9
$SURFTYPE
 70
     6
  9
$SURFU
 70
     6
  9
$SURFV
 70
     6
  9
$UCSBASE
  2

  9
$UCSNAME
  2

  9
$UCSORG
 10
0.0
 20
0.0
 30
0.0
  9
$UCSXDIR
 10
1.0
 20
0.0
 30
0.0
  9
$UCSYDIR
 10
0.0
 20
1.0
 30
0.0
  9
$UCSORTHOREF
  2

  9
$UCSORTHOVIEW
 70
     0
  9
$UCSORGTOP
 10
0.0
 20
0.0
 30
0.0
  9
$UCSORGBOTTOM
 10
0.0
 20
0.0
 30
0.0
  9
$UCSORGLEFT
 10
0.0
 20
0.0
 30
0.0
  9
$UCSORGRIGHT
 10
0.0
 20
0.0
 30
0.0
  9
$UCSORGFRONT
 10
0.0
 20
0.0
 30
0.0
  9
$UCSORGBACK
 10
0.0
 20
0.0
 30
0.0
  9
$PUCSBASE
  2

  9
$PUCSNAME
  2

  9
$PUCSORG
 10
0.0
 20
0.0
 30
0.0
  9
$PUCSXDIR
 10
1.0
 20
0.0
 30
0.0
  9
$PUCSYDIR
 10
0.0
 20
1.0
 30
0.0
  9
$PUCSORTHOREF
  2

  9
$PUCSORTHOVIEW
 70
     0
  9
$PUCSORGTOP
 10
0.0
 20
0.0
 30
0.0
  9
$PUCSORGBOTTOM
 10
0.0
 20
0.0
 30
0.0
  9
$PUCSORGLEFT
 10
0.0
 20
0.0
 30
0.0
  9
$PUCSORGRIGHT
 10
0.0
 20
0.0
 30
0.0
  9
$PUCSORGFRONT
 10
0.0
 20
0.0
 30
0.0
  9
$PUCSORGBACK
 10
0.0
 20
0.0
 30
0.0
  9
$USERI1
 70
     0
  9
$USERI2
 70
     0
  9
$USERI3
 70
     0
  9
$USERI4
 70
     0
  9
$USERI5
 70
     0
  9
$USERR1
 40
0.0
  9
$USERR2
 40
0.0
  9
$USERR3
 40
0.0
  9
$USERR4
 40
0.0
  9
$USERR5
 40
0.0
  9
$WORLDVIEW
 70
     1
  9
$SHADEDGE
 70
     3
  9
$SHADEDIF
 70
    70
  9
$TILEMODE
 70
     1
  9
$MAXACTVP
 70
    48
  9
$PINSBASE
 10
0.0
 20
0.0
 30
0.0
  9
$PLIMCHECK
 70
     0
  9
$PEXTMIN
 10
1.000000000000000E+20
 20
1.000000000000000E+20
 30
1.000000000000000E+20
  9
$PEXTMAX
 10
-1.000000000000000E+20
 20
-1.000000000000000E+20
 30
-1.000000000000000E+20
  9
$PLIMMIN
 10
0.0
 20
0.0
  9
$PLIMMAX
 10
12.0
 20
9.0
  9
$UNITMODE
 70
     0
  9
$VISRETAIN
 70
     1
  9
$PLINEGEN
 70
     0
  9
$PSLTSCALE
 70
     1
  9
$TREEDEPTH
 70
  3020
  9
$CMLSTYLE
  2
Standard
  9
$CMLJUST
 70
     0
  9
$CMLSCALE
 40
1.0
  9
$PROXYGRAPHICS
 70
     1
  9
$MEASUREMENT
 70
     0
  9
$CELWEIGHT
370
    -1
  9
$ENDCAPS
280
     0
  9
$JOINSTYLE
280
     0
  9
$LWDISPLAY
290
     0
  9
$INSUNITS
 70
     1
  9
$HYPERLINKBASE
  1

  9
$STYLESHEET
  1

  9
$XEDIT
290
     1
  9
$CEPSNTYPE
380
     0
  9
$PSTYLEMODE
290
     1
  9
$FINGERPRINTGUID
  2
{FDEAD576-A652-11D2-9A35-0060089B3A3F}
  9
$VERSIONGUID
  2
{154365B1-823D-4E91-9ACB-C1B379A0F96D}
  9
$EXTNAMES
290
     1
  9
$PSVPSCALE
 40
0.0
  9
$OLESTARTUP
290
     0
  0
ENDSEC
  0
SECTION
  2
CLASSES
  0
CLASS
  1
ACDBDICTIONARYWDFLT
  2
AcDbDictionaryWithDefault
  3
AutoCAD 2000
 90
        0
280
     0
281
     0
  0
CLASS
  1
ACDBPLACEHOLDER
  2
AcDbPlaceHolder
  3
ObjectDBX Classes
 90
        0
280
     0
281
     0
  0
CLASS
  1
LAYOUT
  2
AcDbLayout
  3
ObjectDBX Classes
 90
        0
280
     0
281
     0
  0
CLASS
  1
LONG_TRANSACTION
  2
AcDbLongTransaction
  3
ObjectDBX Classes
 90
   -65536
280
     1
281
     0
  0
CLASS
  1
LWPOLYLINE
  2
AcDbPolyline
  3
AutoCAD 2000
 90
        0
280
     0
281
     1
  0
CLASS
  1
HATCH
  2
AcDbHatch
  3
AutoCAD 2000
 90
        0
280
     0
281
     1
  0
CLASS
  1
XRECORD
  2
AcDbXrecord
  3
AutoCAD 2000
 90
        0
280
     0
281
     0
  0
CLASS
  1
DICTIONARYVAR
  2
AcDbDictionaryVar
  3
AutoCAD 2000
 90
        0
280
     0
281
     0
  0
CLASS
  1
TABLESTYLE
  2
AcDbTableStyle
  3
ObjectDBX Classes
 90
     2047
280
     1
281
     0
  0
CLASS
  1
SORTENTSTABLE
  2
AcDbSortentsTable
  3
AutoCAD 2000
 90
        0
280
     0
281
     0
  0
ENDSEC
  0
SECTION
  2
TABLES
  0
TABLE
  2
VPORT
  5
1D
330
0
100
AcDbSymbolTable
 70
     2
  0
VPORT
  5
242
330
1D
100
AcDbSymbolTableRecord
100
AcDbViewportTableRecord
  2
*Active
 70
     0
 10
0.0
 20
0.0
 11
1.0
 21
1.0
 12
0.2944551133698958
 22
9.646053658658374
 13
0.0
 23
0.0
 14
0.5
 24
0.5
 15
0.5
 25
0.5
 16
0.0
 26
0.0
 36
1.0
 17
0.0
 27
0.0
 37
0.0
 40
19.59098859610686
 41
1.55012853470437
 42
50.0
 43
0.0
 44
0.0
 50
0.0
 51
0.0
 71
     0
 72
   100
 73
     1
 74
     3
 75
     0
 76
     0
 77
     0
 78
     0
281
     0
 65
     1
110
0.0
120
0.0
130
0.0
111
1.0
121
0.0
131
0.0
112
0.0
122
1.0
132
0.0
 79
     0
146
0.0
  0
ENDTAB
  0
TABLE
  2
LTYPE
  5
18
330
0
100
AcDbSymbolTable
 70
     2
  0
LTYPE
  5
19
330
18
100
AcDbSymbolTableRecord
100
AcDbLinetypeTableRecord
  2
ByBlock
 70
     0
  3

 72
    65
 73
     0
 40
0.0
  0
LTYPE
  5
1A
330
18
100
AcDbSymbolTableRecord
100
AcDbLinetypeTableRecord
  2
ByLayer
 70
     0
  3

 72
    65
 73
     0
 40
0.0
  0
LTYPE
  5
A
330
18
100
AcDbSymbolTableRecord
100
AcDbLinetypeTableRecord
  2
Continuous
 70
     0
  3
Solid line
 72
    65
 73
     0
 40
0.0
  0
LTYPE
  5
20A
330
18
100
AcDbSymbolTableRecord
100
AcDbLinetypeTableRecord
  2
HIDDEN
 70
     0
  3
Hidden __ __ __ __ __ __ __ __ __ __ __ __ __ _
 72
    65
 73
     2
 40
0.375
 49
0.25
 74
     0
 49
-0.125
 74
     0
  0
ENDTAB
  0
TABLE
  2
LAYER
  5
14
330
0
100
AcDbSymbolTable
 70
     1
  0
LAYER
  5
6
330
14
100
AcDbSymbolTableRecord
100
AcDbLayerTableRecord
  2
0
 70
     0
 62
     7
  6
Continuous
370
    -3
390
7
  0
ENDTAB
  0
TABLE
  2
STYLE
  5
15
330
0
100
AcDbSymbolTable
 70
     2
  0
STYLE
  5
16
330
15
100
AcDbSymbolTableRecord
100
AcDbTextStyleTableRecord
  2
Standard
 70
     0
 40
0.0
 41
1.0
 50
0.0
 71
     0
 42
0.2
  3
txt
  4

  0
ENDTAB
  0
TABLE
  2
VIEW
  5
1B
330
0
100
AcDbSymbolTable
 70
     0
  0
ENDTAB
  0
TABLE
  2
UCS
  5
1C
330
0
100
AcDbSymbolTable
 70
     0
  0
ENDTAB
  0
TABLE
  2
APPID
  5
1F
330
0
100
AcDbSymbolTable
 70
     1
  0
APPID
  5
20
330
1F
100
AcDbSymbolTableRecord
100
AcDbRegAppTableRecord
  2
ACAD
 70
     0
  0
ENDTAB
  0
TABLE
  2
DIMSTYLE
  5
21
330
0
100
AcDbSymbolTable
 70
     1
100
AcDbDimStyleTable
  0
DIMSTYLE
105
27
330
21
100
AcDbSymbolTableRecord
100
AcDbDimStyleTableRecord
  2
Standard
 70
     0
  3

  4

340
16
  0
ENDTAB
  0
TABLE
  2
BLOCK_RECORD
  5
1
330
0
100
AcDbSymbolTable
 70
     0
  0
BLOCK_RECORD
  5
2
102
{ACAD_XDICTIONARY
360
3
102
}
330
1
100
AcDbSymbolTableRecord
100
AcDbBlockTableRecord
  2
*Model_Space
340
C
  0
BLOCK_RECORD
  5
E
330
1
100
AcDbSymbolTableRecord
100
AcDbBlockTableRecord
  2
*Paper_Space
340
13
  0
ENDTAB
  0
ENDSEC
  0
SECTION
  2
BLOCKS
  0
BLOCK
  5
5
330
2
100
AcDbEntity
  8
0
100
AcDbBlockBegin
  2
*Model_Space
 70
     0
 10
0.0
 20
0.0
 30
0.0
  3
*Model_Space
  1

  4

  0
ENDBLK
  5
B
330
2
100
AcDbEntity
  8
0
100
AcDbBlockEnd
  0
BLOCK
  5
11
330
E
100
AcDbEntity
 67
     1
  8
0
100
AcDbBlockBegin
  2
*Paper_Space
 70
     0
 10
0.0
 20
0.0
 30
0.0
  3
*Paper_Space
  1

  4

  0
ENDBLK
  5
12
330
E
100
AcDbEntity
 67
     1
  8
0
100
AcDbBlockEnd
  0
ENDSEC
  0
SECTION
  2
ENTITIES
  0
LINE
  5
120
330
2
100
AcDbEntity
  8
0
100
AcDbLine
 10
8.844588877342801
 20
4.022677706764522
 30
0.0
 11
8.844588877342801
 21
4.635229641814586
 31
0.0
  0
LINE
  5
121
330
2
100
AcDbEntity
  8
0
100
AcDbLine
 10
9.927922210676137
 20
1.501751953367933
 30
0.0
 11
9.927922210676137
 21
7.125
 31
0.0
  0
LINE
  5
122
330
2
100
AcDbEntity
  8
0
100
AcDbLine
 10
9.844590668394666
 20
1.251229403521229
 30
0.0
 11
9.844590668394668
 21
9.285743879077819
 31
0.0
  0
ARC
  5
124
330
2
100
AcDbEntity
  8
0
100
AcDbCircle
 10
12.1883388773428
 20
0.0
 30
0.0
 40
2.656249999999996
100
AcDbArc
 50
151.927513064147
 51
180.0
  0
LINE
  5
125
330
2
100
AcDbEntity
  8
0
100
AcDbLine
 10
7.532088877342801
 20
0.625
 30
0.0
 11
7.899181634025087
 21
1.219340653676081
 31
0.0
  0
LINE
  5
126
330
2
100
AcDbEntity
  8
0
100
AcDbLine
 10
7.532088877342801
 20
0.0
 30
0.0
 11
9.532088877342801
 21
0.0
 31
0.0
  0
LINE
  5
127
330
2
100
AcDbEntity
  8
0
100
AcDbLine
 10
7.532088877342801
 20
0.0
 30
0.0
 11
7.532088877342801
 21
0.625
 31
0.0
  0
LINE
  5
128
330
2
100
AcDbEntity
  8
0
100
AcDbLine
 10
9.532088877342801
 20
0.0
 30
0.0
 11
9.532088877342801
 21
0.0
 31
0.0
  0
LINE
  5
129
330
2
100
AcDbEntity
  8
0
100
AcDbLine
 10
7.949517739131423
 20
1.188070556818225
 30
0.0
 11
8.379395787911911
 21
1.876654897459961
 31
0.0
  0
LINE
  5
12A
330
2
100
AcDbEntity
  8
0
100
AcDbLine
 10
7.949517739131423
 20
1.188070556818225
 30
0.0
 11
7.899181634025087
 21
1.219340653676081
 31
0.0
  0
LINE
  5
12B
330
2
100
AcDbEntity
  8
0
100
AcDbLine
 10
8.32801563069031
 20
1.913643314943585
 30
0.0
 11
8.844588877342801
 21
2.75
 31
0.0
  0
LINE
  5
12C
330
2
100
AcDbEntity
  8
0
100
AcDbLine
 10
8.379395787911911
 20
1.876654897459961
 30
0.0
 11
8.32801563069031
 21
1.913643314943585
 31
0.0
  0
ARC
  5
12D
330
2
100
AcDbEntity
  8
0
100
AcDbCircle
 10
10.26652982015689
 20
1.249999999999996
 30
0.0
 40
0.4219409428140866
100
AcDbArc
 50
143.3695029775663
 51
179.9999999999996
  0
ARC
  5
12E
330
2
100
AcDbEntity
  8
0
100
AcDbCircle
 10
8.906984764133391
 20
3.327501446792795
 30
0.0
 40
0.3125
100
AcDbArc
 50
101.5174772917967
 51
258.4825227082033
  0
CIRCLE
  5
12F
330
2
100
AcDbEntity
  8
0
100
AcDbCircle
 10
8.967119200868922
 20
3.327501446792795
 30
0.0
 40
0.078
  0
LINE
  5
130
330
2
100
AcDbEntity
  8
0
100
AcDbLine
 10
8.844588877342801
 20
2.75
 30
0.0
 11
8.844588877342801
 21
3.021293995362221
 31
0.0
  0
LINE
  5
132
330
2
100
AcDbEntity
  8
0
100
AcDbLine
 10
8.844588877342801
 20
3.633708898223368
 30
0.0
 11
8.844588877342801
 21
4.022677706764522
 31
0.0
  0
LINE
  5
133
330
2
100
AcDbEntity
  8
0
100
AcDbLine
 10
9.898596532531656
 20
9.448676481466531
 30
0.0
 11
11.4070888773428
 21
9.448676481466531
 31
0.0
  0
LINE
  5
134
330
2
100
AcDbEntity
  8
0
100
AcDbLine
 10
11.4070888773428
 20
9.306779656877199
 30
0.0
 11
9.987922210676135
 21
9.306779656877199
 31
0.0
  0
LINE
  5
135
330
2
100
AcDbEntity
  8
0
100
AcDbLine
 10
9.944590668394667
 20
9.38574387907782
 30
0.0
 11
11.4070888773428
 21
9.38574387907782
 31
0.0
  0
LINE
  5
136
330
2
100
AcDbEntity
  8
0
100
AcDbLine
 10
8.921890679133639
 20
8.002208914180063
 30
0.0
 11
9.737166769634001
 21
8.905444624204996
 31
0.0
  0
LINE
  5
137
330
2
100
AcDbEntity
  8
0
100
AcDbLine
 10
9.927922210676137
 20
7.124999999999996
 30
0.0
 11
9.927922210676137
 21
9.265389691139202
 31
0.0
  0
LINE
  5
139
330
2
100
AcDbEntity
  8
0
100
AcDbLine
 10
8.844588877342801
 20
4.635229641814586
 30
0.0
 11
8.844588877342801
 21
7.125
 31
0.0
  0
LINE
  5
13A
330
2
100
AcDbEntity
  8
0
100
AcDbLine
 10
8.844588877342801
 20
5.25
 30
0.0
 11
8.844588877342801
 21
5.43
 31
0.0
  0
LINE
  5
13B
330
2
100
AcDbEntity
  8
0
100
AcDbLine
 10
8.844588877342801
 20
7.125
 30
0.0
 11
8.844588877342801
 21
7.801197689333307
 31
0.0
  0
ARC
  5
13C
330
2
100
AcDbEntity
  8
0
100
AcDbCircle
 10
9.144588877342802
 20
7.801197689333307
 30
0.0
 40
0.3
100
AcDbArc
 50
137.9300473352724
 51
180.0
  0
LINE
  5
13D
330
2
100
AcDbEntity
  8
0
100
AcDbLine
 10
9.753573843872598
 20
8.272000977719143
 30
0.0
 11
9.755003606770252
 21
9.307286515728533
 31
0.0
  0
ARC
  5
13E
330
2
100
AcDbEntity
  8
0
100
AcDbCircle
 10
9.864763969617904
 20
8.291650439715729
 30
0.0
 40
0.1129129993402536
100
AcDbArc
 50
190.021809371748
 51
259.2220691983233
  0
ARC
  5
13F
330
2
100
AcDbEntity
  8
0
100
AcDbCircle
 10
9.915003606770252
 20
9.288676481466531
 30
0.0
 40
0.16
100
AcDbArc
 50
90.0
 51
180.0
  0
ARC
  5
140
330
2
100
AcDbEntity
  8
0
100
AcDbCircle
 10
9.987922210676132
 20
9.2467796568772
 30
0.0
 40
0.06
100
AcDbArc
 50
90.0
 51
180.0
  0
ARC
  5
141
330
2
100
AcDbEntity
  8
0
100
AcDbCircle
 10
9.944590668394667
 20
9.285743879077819
 30
0.0
 40
0.1
100
AcDbArc
 50
90.0
 51
180.0
  0
LINE
  5
143
330
2
100
AcDbEntity
  8
0
100
AcDbLine
 10
11.4070888773428
 20
9.448676481466531
 30
0.0
 11
11.4070888773428
 21
9.306779656877199
 31
0.0
  0
LINE
  5
144
330
2
100
AcDbEntity
  8
0
100
AcDbLine
 10
1.735099622122982
 20
5.516333309972128
 30
0.0
 11
1.735099622122982
 21
3.578833309972223
 31
0.0
  0
LINE
  5
145
330
2
100
AcDbEntity
  8
0
100
AcDbLine
 10
0.8600996221229789
 20
5.516333309972128
 30
0.0
 11
0.8600996221229789
 21
1.578833309972128
 31
0.0
  0
LINE
  5
146
330
2
100
AcDbEntity
  8
0
100
AcDbLine
 10
-0.7815374632619561
 20
5.516333309972128
 30
0.0
 11
-0.7815374632619552
 21
1.57853999911219
 31
0.0
  0
LINE
  5
147
330
2
100
AcDbEntity
  8
0
100
AcDbLine
 10
-0.8600996221229789
 20
5.51074387907782
 30
0.0
 11
-0.8600996221229798
 21
1.57853999911219
 31
0.0
  0
LINE
  5
148
330
2
100
AcDbEntity
  8
0
100
AcDbLine
 10
0.7809625367380431
 20
1.578669913203557
 30
0.0
 11
0.7809625367380466
 21
5.51074387907782
 31
0.0
  0
ARC
  5
149
330
2
100
AcDbEntity
  8
0
100
AcDbCircle
 10
-1.781537463261956
 20
4.266333309972131
 30
0.0
 40
0.3125
100
AcDbArc
 50
278.5458664742671
 51
81.45413352573287
  0
ARC
  5
14A
330
2
100
AcDbEntity
  8
0
100
AcDbCircle
 10
1.235099622122982
 20
1.578833309972131
 30
0.0
 40
0.375
100
AcDbArc
 50
89.99999999999994
 51
180.0
  0
LINE
  5
14B
330
2
100
AcDbEntity
  8
0
100
AcDbLine
 10
0.8600996221229789
 20
1.26622437879308
 30
0.0
 11
0.8600996221229789
 21
0.0619999999999994
 31
0.0
  0
LINE
  5
14C
330
2
100
AcDbEntity
  8
0
100
AcDbLine
 10
-0.8600996221229798
 20
1.26622437879308
 30
0.0
 11
-0.8600996221229798
 21
0.0619999999999994
 31
0.0
  0
LINE
  5
14D
330
2
100
AcDbEntity
  8
0
100
AcDbLine
 10
-0.7815374632619561
 20
1.26622437879308
 30
0.0
 11
-0.7815374632619561
 21
0.1107243787930834
 31
0.0
  0
LINE
  5
14E
330
2
100
AcDbEntity
  8
0
100
AcDbLine
 10
0.7809625367380431
 20
0.1107243787930834
 30
0.0
 11
0.7809625367380431
 21
1.26622437879308
 31
0.0
  0
LINE
  5
14F
330
2
100
AcDbEntity
  8
0
100
AcDbLine
 10
-0.7980996221229804
 20
0.0
 30
0.0
 11
0.7980996221229812
 21
0.0
 31
0.0
  0
LINE
  5
150
330
2
100
AcDbEntity
  8
0
100
AcDbLine
 10
-0.749537463261956
 20
0.0787243787930834
 30
0.0
 11
0.748962536738043
 21
0.0787243787930834
 31
0.0
  0
ARC
  5
151
330
2
100
AcDbEntity
  8
0
100
AcDbCircle
 10
-0.7980996221229804
 20
0.0619999999999994
 30
0.0
 40
0.062
100
AcDbArc
 50
180.0
 51
269.9999999999999
  0
ARC
  5
152
330
2
100
AcDbEntity
  8
0
100
AcDbCircle
 10
-0.749537463261956
 20
0.1107243787930834
 30
0.0
 40
0.032
100
AcDbArc
 50
180.0
 51
269.9999999999999
  0
POINT
  5
153
330
2
100
AcDbEntity
  8
0
100
AcDbPoint
 10
-0.7815331801508121
 20
0.0000024040361559
 30
0.0
  0
ARC
  5
154
330
2
100
AcDbEntity
  8
0
100
AcDbCircle
 10
0.748962536738043
 20
0.1107243787930834
 30
0.0
 40
0.032
100
AcDbArc
 50
270.0
 51
0.0
  0
ARC
  5
155
330
2
100
AcDbEntity
  8
0
100
AcDbCircle
 10
0.7980996221229812
 20
0.0619999999999994
 30
0.0
 40
0.062
100
AcDbArc
 50
270.0
 51
0.0
  0
LINE
  5
156
330
2
100
AcDbEntity
  8
0
100
AcDbLine
 10
-1.235099622122983
 20
1.953833309972131
 30
0.0
 11
-1.735099622122983
 21
2.703833309972131
 31
0.0
  0
LINE
  5
157
330
2
100
AcDbEntity
  8
0
100
AcDbLine
 10
-1.735099622122989
 20
3.957302928115665
 30
0.0
 11
-1.735099622122983
 21
2.703833309972131
 31
0.0
  0
ARC
  5
158
330
2
100
AcDbEntity
  8
0
100
AcDbCircle
 10
-1.235099622122983
 20
1.578833309972131
 30
0.0
 40
0.375
100
AcDbArc
 50
0.0
 51
90.00000000000003
  0
LINE
  5
159
330
2
100
AcDbEntity
  8
0
100
AcDbLine
 10
-0.8600996221229798
 20
1.578835919542634
 30
0.0
 11
-0.8600996221229798
 21
1.26622437879308
 31
0.0
  0
LINE
  5
15A
330
2
100
AcDbEntity
  8
0
100
AcDbLine
 10
-0.7815374632619552
 20
1.578835919542634
 30
0.0
 11
-0.7815374632619561
 21
1.26622437879308
 31
0.0
  0
LINE
  5
15B
330
2
100
AcDbEntity
  8
0
100
AcDbLine
 10
0.8600996221229789
 20
1.57872437879308
 30
0.0
 11
0.8600996221229789
 21
1.26622437879308
 31
0.0
  0
LINE
  5
15C
330
2
100
AcDbEntity
  8
0
100
AcDbLine
 10
0.7809625367380431
 20
1.26622437879308
 30
0.0
 11
0.7809625367380431
 21
1.578669913203557
 31
0.0
  0
LINE
  5
15D
330
2
100
AcDbEntity
  8
0
100
AcDbLine
 10
1.235099622122982
 20
1.953833309972131
 30
0.0
 11
1.735099622122982
 21
2.703833309972131
 31
0.0
  0
ARC
  5
15E
330
2
100
AcDbEntity
  8
0
100
AcDbCircle
 10
1.783262667527948
 20
3.270067102207554
 30
0.0
 40
0.3125
100
AcDbArc
 50
98.86586392314196
 51
261.1341360768581
  0
LINE
  5
15F
330
2
100
AcDbEntity
  8
0
100
AcDbLine
 10
1.735099622122975
 20
2.961300894442978
 30
0.0
 11
1.735099622122982
 21
2.703833309972131
 31
0.0
  0
LINE
  5
160
330
2
100
AcDbEntity
  8
0
100
AcDbLine
 10
1.110763721252706
 20
9.259727618915216
 30
0.0
 11
0.8600996221229789
 21
8.974986365870516
 31
0.0
  0
LINE
  5
161
330
2
100
AcDbEntity
  8
0
100
AcDbLine
 10
0.7809625367380448
 20
5.510743879077824
 30
0.0
 11
0.7809625367380448
 21
8.885090792738788
 31
0.0
  0
LINE
  5
162
330
2
100
AcDbEntity
  8
0
100
AcDbLine
 10
0.8600996221229806
 20
8.974986365870519
 30
0.0
 11
0.8600996221229789
 21
5.51074387907782
 31
0.0
  0
LINE
  5
163
330
2
100
AcDbEntity
  8
0
100
AcDbLine
 10
-2.85927330727324
 20
9.073603915254497
 30
0.0
 11
-1.735099622122983
 21
7.885743879077831
 31
0.0
  0
LINE
  5
164
330
2
100
AcDbEntity
  8
0
100
AcDbLine
 10
-0.8600996221229824
 20
8.974986365870519
 30
0.0
 11
-0.8600996221229798
 21
5.51074387907782
 31
0.0
  0
LINE
  5
165
330
2
100
AcDbEntity
  8
0
100
AcDbLine
 10
-0.7815374632619569
 20
8.88574387907782
 30
0.0
 11
-0.7815374632619569
 21
5.51074387907782
 31
0.0
  0
ARC
  5
166
330
2
100
AcDbEntity
  8
0
100
AcDbCircle
 10
-1.488380122998072
 20
8.366138342230441
 30
0.0
 40
0.1875
100
AcDbArc
 50
178.1390701705581
 51
353.3393348885672
  0
LINE
  5
167
330
2
100
AcDbEntity
  8
0
100
AcDbLine
 10
-1.735099622122983
 20
7.885743879077831
 30
0.0
 11
-1.735099622122984
 21
5.51074387907782
 31
0.0
  0
LINE
  5
168
330
2
100
AcDbEntity
  8
0
100
AcDbLine
 10
-1.735099622122984
 20
5.51074387907782
 30
0.0
 11
-1.735099622122983
 21
4.575363691828629
 31
0.0
  0
ARC
  5
169
330
2
100
AcDbEntity
  8
0
100
AcDbCircle
 10
-1.488300618374117
 20
9.260644530754872
 30
0.0
 40
0.1875
100
AcDbArc
 50
6.866943986413137
 51
180.8238843440265
  0
ARC
  5
16A
330
2
100
AcDbEntity
  8
0
100
AcDbCircle
 10
-2.514847821591895
 20
9.261434473300836
 30
0.0
 40
0.1875
100
AcDbArc
 50
9.108999784328761
 51
176.9030114038837
  0
ARC
  5
16B
330
2
100
AcDbEntity
  8
0
100
AcDbCircle
 10
-2.514847821591895
 20
9.177946139637013
 30
0.0
 40
0.1875
100
AcDbArc
 50
176.9030114034984
 51
350.8910002156713
  0
LINE
  5
16C
330
2
100
AcDbEntity
  8
0
100
AcDbLine
 10
-2.859273307273242
 20
9.385743879077824
 30
0.0
 11
-2.655216698610214
 21
9.385743879077824
 31
0.0
  0
LINE
  5
16D
330
2
100
AcDbEntity
  8
0
100
AcDbLine
 10
-2.85927330727324
 20
9.385743879077824
 30
0.0
 11
-2.85927330727324
 21
9.073603915254497
 31
0.0
  0
LINE
  5
16E
330
2
100
AcDbEntity
  8
0
100
AcDbLine
 10
-1.675781234033948
 20
8.372227150202344
 30
0.0
 11
-1.67578123403367
 21
9.257948468456808
 31
0.0
  0
LINE
  5
16F
330
2
100
AcDbEntity
  8
0
100
AcDbLine
 10
-2.329712393138003
 20
9.148262421352511
 30
0.0
 11
-2.329712393138003
 21
9.291118191584383
 31
0.0
  0
CIRCLE
  5
170
330
2
100
AcDbEntity
  8
0
100
AcDbCircle
 10
-1.986529428312171
 20
8.739652426545215
 30
0.0
 40
0.0855
  0
LINE
  5
171
330
2
100
AcDbEntity
  8
0
100
AcDbLine
 10
-2.37447894457398
 20
9.38574387907782
 30
0.0
 11
-1.627965943524146
 21
9.38574387907782
 31
0.0
  0
LINE
  5
172
330
2
100
AcDbEntity
  8
0
100
AcDbLine
 10
-2.70207397995507
 20
9.188076076683567
 30
0.0
 11
-2.70207397995507
 21
9.271564410346128
 31
0.0
  0
LINE
  5
173
330
2
100
AcDbEntity
  8
0
100
AcDbLine
 10
-1.11076372125271
 20
9.259727618915219
 30
0.0
 11
-0.8600996221229824
 21
8.974986365870519
 31
0.0
  0
LINE
  5
174
330
2
100
AcDbEntity
  8
0
100
AcDbLine
 10
-1.302145651873461
 20
9.283062792220461
 30
0.0
 11
-1.30214565187323
 21
8.344390428195966
 31
0.0
  0
LINE
  5
175
330
2
100
AcDbEntity
  8
0
100
AcDbLine
 10
-0.7815374632619569
 20
8.88574387907782
 30
0.0
 11
-0.8600996221229824
 21
8.974986365870516
 31
0.0
  0
LINE
  5
176
330
2
100
AcDbEntity
  8
0
100
AcDbLine
 10
-1.11076372125271
 20
9.385743879077824
 30
0.0
 11
-1.348635293224342
 21
9.385743879077824
 31
0.0
  0
LINE
  5
177
330
2
100
AcDbEntity
  8
0
100
AcDbLine
 10
-1.11076372125271
 20
9.385743879077824
 30
0.0
 11
-1.11076372125271
 21
9.259727618915219
 31
0.0
  0
POINT
  5
178
330
2
100
AcDbEntity
  8
0
100
AcDbPoint
 10
-1.11076372125271
 20
9.385743879077824
 30
0.0
  0
LINE
  5
179
330
2
100
AcDbEntity
  8
0
100
AcDbLine
 10
0.7809625367380448
 20
8.885090792738788
 30
0.0
 11
0.8600996221229789
 21
8.974986365870512
 31
0.0
  0
ARC
  5
17A
330
2
100
AcDbEntity
  8
0
100
AcDbCircle
 10
1.488380122998068
 20
8.366138342230437
 30
0.0
 40
0.1875
100
AcDbArc
 50
186.6606651114329
 51
1.860929829441864
  0
LINE
  5
17B
330
2
100
AcDbEntity
  8
0
100
AcDbLine
 10
2.859273307273236
 20
9.073603915254493
 30
0.0
 11
1.735099622122981
 21
7.88574387907782
 31
0.0
  0
LINE
  5
17C
330
2
100
AcDbEntity
  8
0
100
AcDbLine
 10
1.735099622122981
 20
7.88574387907782
 30
0.0
 11
1.735099622122981
 21
5.51074387907782
 31
0.0
  0
LINE
  5
17D
330
2
100
AcDbEntity
  8
0
100
AcDbLine
 10
2.374478944573976
 20
9.385743879077817
 30
0.0
 11
1.627965943524142
 21
9.385743879077817
 31
0.0
  0
LINE
  5
17E
330
2
100
AcDbEntity
  8
0
100
AcDbLine
 10
1.675781234033945
 20
8.37222715020234
 30
0.0
 11
1.675781234033666
 21
9.257948468456805
 31
0.0
  0
LINE
  5
17F
330
2
100
AcDbEntity
  8
0
100
AcDbLine
 10
1.302145651873458
 20
9.283062792220457
 30
0.0
 11
1.302145651873227
 21
8.344390428195963
 31
0.0
  0
CIRCLE
  5
180
330
2
100
AcDbEntity
  8
0
100
AcDbCircle
 10
1.986529428312167
 20
8.739652426545211
 30
0.0
 40
0.0855
  0
ARC
  5
181
330
2
100
AcDbEntity
  8
0
100
AcDbCircle
 10
1.488300618374113
 20
9.260644530754869
 30
0.0
 40
0.1875
100
AcDbArc
 50
359.1761156559734
 51
173.1330560135869
  0
LINE
  5
182
330
2
100
AcDbEntity
  8
0
100
AcDbLine
 10
1.110763721252706
 20
9.38574387907782
 30
0.0
 11
1.348635293224339
 21
9.38574387907782
 31
0.0
  0
POINT
  5
183
330
2
100
AcDbEntity
  8
0
100
AcDbPoint
 10
1.110763721252706
 20
9.38574387907782
 30
0.0
  0
LINE
  5
184
330
2
100
AcDbEntity
  8
0
100
AcDbLine
 10
1.110763721252706
 20
9.38574387907782
 30
0.0
 11
1.110763721252706
 21
9.259727618915216
 31
0.0
  0
LINE
  5
185
330
2
100
AcDbEntity
  8
0
100
AcDbLine
 10
2.859273307273236
 20
9.38574387907782
 30
0.0
 11
2.859273307273236
 21
9.073603915254493
 31
0.0
  0
ARC
  5
186
330
2
100
AcDbEntity
  8
0
100
AcDbCircle
 10
2.514847821591891
 20
9.17794613963701
 30
0.0
 40
0.1875
100
AcDbArc
 50
189.1089997843287
 51
3.096988596501563
  0
LINE
  5
187
330
2
100
AcDbEntity
  8
0
100
AcDbLine
 10
2.329712393137999
 20
9.148262421352507
 30
0.0
 11
2.329712393137999
 21
9.29111819158438
 31
0.0
  0
LINE
  5
188
330
2
100
AcDbEntity
  8
0
100
AcDbLine
 10
2.85927330727324
 20
9.38574387907782
 30
0.0
 11
2.655216698610211
 21
9.38574387907782
 31
0.0
  0
ARC
  5
189
330
2
100
AcDbEntity
  8
0
100
AcDbCircle
 10
2.514847821591891
 20
9.261434473300833
 30
0.0
 40
0.1875
100
AcDbArc
 50
3.09698859611631
 51
170.8910002156713
  0
LINE
  5
18A
330
2
100
AcDbEntity
  8
0
100
AcDbLine
 10
2.702073979955067
 20
9.188076076683563
 30
0.0
 11
2.702073979955067
 21
9.271564410346125
 31
0.0
  0
LINE
  5
1E1
330
2
100
AcDbEntity
  8
0
100
AcDbLine
 10
2.858458240333476
 20
16.8626516152647
 30
0.0
 11
0.9044372476632319
 21
16.8626516152647
 31
0.0
  0
ARC
  5
1E2
330
2
100
AcDbEntity
  8
0
100
AcDbCircle
 10
1.487922386380902
 20
15.40590463925836
 30
0.0
 40
0.1875
100
AcDbArc
 50
218.9715107129808
 51
321.0284892870192
  0
LINE
  5
1E3
330
2
100
AcDbEntity
  8
0
  6
HIDDEN
100
AcDbLine
 10
2.858458240333476
 20
15.36654079797393
 30
0.0
 11
0.9415140441444194
 21
15.36654079797393
 31
0.0
  0
LINE
  5
1E4
330
2
100
AcDbEntity
  8
0
100
AcDbLine
 10
0.9401082095437729
 20
15.28797953459508
 30
0.0
 11
2.858441365322697
 21
15.28797953459508
 31
0.0
  0
LINE
  5
1E5
330
2
100
AcDbEntity
  8
0
100
AcDbLine
 10
-1.302709344015291
 20
15.36325173591723
 30
0.0
 11
-1.302709344015291
 21
16.8626516152647
 31
0.0
  0
LINE
  5
1E6
330
2
100
AcDbEntity
  8
0
100
AcDbLine
 10
-1.677166373656661
 20
16.8626516152647
 30
0.0
 11
-1.677166373656661
 21
15.36325173591723
 31
0.0
  0
LINE
  5
1E7
330
2
100
AcDbEntity
  8
0
100
AcDbLine
 10
-2.331480762293168
 20
15.36325173591723
 30
0.0
 11
-2.331480762293168
 21
16.8626516152647
 31
0.0
  0
LINE
  5
1E8
330
2
100
AcDbEntity
  8
0
100
AcDbLine
 10
-2.70199613899095
 20
16.86025346005677
 30
0.0
 11
-2.70199613899095
 21
15.36325173591723
 31
0.0
  0
LINE
  5
1E9
330
2
100
AcDbEntity
  8
0
100
AcDbLine
 10
-2.858502886316757
 20
15.36654079797393
 30
0.0
 11
-2.858502886316757
 21
16.8626516152647
 31
0.0
  0
LINE
  5
1EA
330
2
100
AcDbEntity
  8
0
100
AcDbLine
 10
-0.904481893646512
 20
16.8626516152647
 30
0.0
 11
-0.904481893646512
 21
15.36654079797393
 31
0.0
  0
LINE
  5
1EB
330
2
100
AcDbEntity
  8
0
100
AcDbLine
 10
1.302664698032011
 20
15.36325173591723
 30
0.0
 11
1.302664698032011
 21
16.8626516152647
 31
0.0
  0
LINE
  5
1EC
330
2
100
AcDbEntity
  8
0
100
AcDbLine
 10
0.9044372476632319
 20
16.8626516152647
 30
0.0
 11
0.9044372476632319
 21
15.36654079797393
 31
0.0
  0
LINE
  5
1ED
330
2
100
AcDbEntity
  8
0
100
AcDbLine
 10
-2.858502886316757
 20
16.8626516152647
 30
0.0
 11
-0.904481893646512
 21
16.8626516152647
 31
0.0
  0
CIRCLE
  5
1EE
330
2
100
AcDbEntity
  8
0
100
AcDbCircle
 10
-1.90578224438508
 20
16.36559496443368
 30
0.0
 40
0.0855
  0
ARC
  5
1EF
330
2
100
AcDbEntity
  8
0
100
AcDbCircle
 10
-0.9401528555270531
 20
15.20797953459508
 30
0.0
 40
0.08
100
AcDbArc
 50
0.0
 51
90.00000000000003
  0
ARC
  5
1F0
330
2
100
AcDbEntity
  8
0
100
AcDbCircle
 10
-0.9415586901276924
 20
15.20654079797393
 30
0.0
 40
0.16
100
AcDbArc
 50
0.0
 51
90.00000000000003
  0
LINE
  5
1F1
330
2
100
AcDbEntity
  8
0
100
AcDbLine
 10
-0.9401528555270531
 20
15.28797953459508
 30
0.0
 11
-2.858486011305978
 21
15.28797953459508
 31
0.0
  0
LINE
  5
1F2
330
2
100
AcDbEntity
  8
0
  6
HIDDEN
100
AcDbLine
 10
-2.858502886316757
 20
15.36654079797393
 30
0.0
 11
-0.9415586901276924
 21
15.36654079797393
 31
0.0
  0
LINE
  5
1F3
330
2
100
AcDbEntity
  8
0
100
AcDbLine
 10
-2.858486011305978
 20
15.28797953459508
 30
0.0
 11
-2.858486011305978
 21
15.36654079797393
 31
0.0
  0
ARC
  5
1F4
330
2
100
AcDbEntity
  8
0
100
AcDbCircle
 10
-2.514908965297813
 20
15.41205582887838
 30
0.0
 40
0.1875
100
AcDbArc
 50
221.4327285198219
 51
318.5672714801781
  0
ARC
  5
1F5
330
2
100
AcDbEntity
  8
0
100
AcDbCircle
 10
-1.487967032364182
 20
15.40590463925836
 30
0.0
 40
0.1875
100
AcDbArc
 50
218.9715107129808
 51
321.0284892870192
  0
LINE
  5
1F6
330
2
100
AcDbEntity
  8
0
100
AcDbLine
 10
0.8601082095437747
 20
12.97547953459508
 30
0.0
 11
0.8601082095437747
 21
14.97547953459508
 31
0.0
  0
LINE
  5
1F7
330
2
100
AcDbEntity
  8
0
100
AcDbLine
 10
-0.8601528555270548
 20
14.97547953459508
 30
0.0
 11
-0.8601528555270548
 21
12.97547953459508
 31
0.0
  0
LINE
  5
1F8
330
2
100
AcDbEntity
  8
0
100
AcDbLine
 10
0.7815140441444157
 20
14.97547953459508
 30
0.0
 11
-0.7815586901276959
 21
14.97547953459508
 31
0.0
  0
LINE
  5
1F9
330
2
100
AcDbEntity
  8
0
100
AcDbLine
 10
-0.8601528555270548
 20
14.97547953459508
 30
0.0
 11
-0.8601528555270548
 21
15.20797953459508
 31
0.0
  0
LINE
  5
1FA
330
2
100
AcDbEntity
  8
0
100
AcDbLine
 10
-0.7815586901276959
 20
15.20654079797393
 30
0.0
 11
-0.7815586901276959
 21
12.97547953459508
 31
0.0
  0
LINE
  5
1FB
330
2
100
AcDbEntity
  8
0
100
AcDbLine
 10
0.7815140441444157
 20
15.20654079797393
 30
0.0
 11
0.7815140441444157
 21
12.97547953459508
 31
0.0
  0
LINE
  5
1FC
330
2
100
AcDbEntity
  8
0
100
AcDbLine
 10
0.8601082095437747
 20
14.97547953459508
 30
0.0
 11
0.8601082095437747
 21
15.20797953459508
 31
0.0
  0
ARC
  5
1FD
330
2
100
AcDbEntity
  8
0
100
AcDbCircle
 10
0.9415140441444194
 20
15.20654079797393
 30
0.0
 40
0.16
100
AcDbArc
 50
90.00000000000006
 51
180.0
  0
ARC
  5
1FE
330
2
100
AcDbEntity
  8
0
100
AcDbCircle
 10
0.9401082095437729
 20
15.20797953459508
 30
0.0
 40
0.08
100
AcDbArc
 50
90.00000000000011
 51
180.0
  0
LINE
  5
1FF
330
2
100
AcDbEntity
  8
0
100
AcDbLine
 10
-0.8601082095437747
 20
12.97547953459508
 30
0.0
 11
0.8601082095437747
 21
12.97547953459508
 31
0.0
  0
LINE
  5
200
330
2
100
AcDbEntity
  8
0
100
AcDbLine
 10
1.677121727673381
 20
16.8626516152647
 30
0.0
 11
1.677121727673381
 21
15.36325173591723
 31
0.0
  0
LINE
  5
201
330
2
100
AcDbEntity
  8
0
100
AcDbLine
 10
2.331436116309895
 20
15.36325173591723
 30
0.0
 11
2.331436116309895
 21
16.8626516152647
 31
0.0
  0
LINE
  5
202
330
2
100
AcDbEntity
  8
0
100
AcDbLine
 10
2.701951493007677
 20
16.86025346005677
 30
0.0
 11
2.701951493007677
 21
15.36325173591723
 31
0.0
  0
LINE
  5
203
330
2
100
AcDbEntity
  8
0
100
AcDbLine
 10
2.858458240333476
 20
15.36654079797393
 30
0.0
 11
2.858458240333476
 21
16.8626516152647
 31
0.0
  0
CIRCLE
  5
204
330
2
100
AcDbEntity
  8
0
100
AcDbCircle
 10
1.9057375984018
 20
16.49059496443368
 30
0.0
 40
0.0855
  0
ARC
  5
205
330
2
100
AcDbEntity
  8
0
100
AcDbCircle
 10
2.514864319314533
 20
15.41205582887838
 30
0.0
 40
0.1875
100
AcDbArc
 50
221.4327285198219
 51
318.5672714801782
  0
LINE
  5
206
330
2
100
AcDbEntity
  8
0
100
AcDbLine
 10
2.858441365322697
 20
15.28797953459508
 30
0.0
 11
2.858441365322697
 21
15.36654079797393
 31
0.0
  0
LINE
  5
20C
330
2
100
AcDbEntity
  8
0
  6
HIDDEN
100
AcDbLine
 10
7.532088877342801
 20
0.0787243787930834
 30
0.0
 11
9.53325572710369
 21
0.0787243787930834
 31
0.0
  0
ARC
  5
213
330
2
100
AcDbEntity
  8
0
100
AcDbCircle
 10
9.864763969617904
 20
9.105268585186684
 30
0.0
 40
0.1129129993402536
100
AcDbArc
 50
190.021809371748
 51
259.2220691983233
  0
LINE
  5
215
330
2
100
AcDbEntity
  8
0
  6
HIDDEN
100
AcDbLine
 10
2.859273307273237
 20
9.306779656877199
 30
0.0
 11
1.110763721252706
 21
9.306779656877199
 31
0.0
  0
LINE
  5
216
330
2
100
AcDbEntity
  8
0
  6
HIDDEN
100
AcDbLine
 10
-1.11076372125271
 20
9.306779656877199
 30
0.0
 11
-2.85927330727324
 21
9.306779656877197
 31
0.0
  0
LINE
  5
218
330
2
100
AcDbEntity
  8
0
100
AcDbLine
 10
-9.927922210676137
 20
1.501751953367933
 30
0.0
 11
-9.927922210676137
 21
7.125
 31
0.0
  0
LINE
  5
219
330
2
100
AcDbEntity
  8
0
100
AcDbLine
 10
-9.844590668394666
 20
1.251229403521229
 30
0.0
 11
-9.844590668394666
 21
9.285743879077819
 31
0.0
  0
ARC
  5
21A
330
2
100
AcDbEntity
  8
0
100
AcDbCircle
 10
-8.906647573079994
 20
4.328953674289554
 30
0.0
 40
0.3125
100
AcDbArc
 50
281.4543911030132
 51
78.54560889698685
  0
ARC
  5
21B
330
2
100
AcDbEntity
  8
0
100
AcDbCircle
 10
-12.1883388773428
 20
0.0
 30
0.0
 40
2.656249999999996
100
AcDbArc
 50
0.000000000000007
 51
28.07248693585297
  0
LINE
  5
21C
330
2
100
AcDbEntity
  8
0
100
AcDbLine
 10
-7.5320888773428
 20
0.625
 30
0.0
 11
-7.899181634025086
 21
1.219340653676081
 31
0.0
  0
LINE
  5
21D
330
2
100
AcDbEntity
  8
0
100
AcDbLine
 10
-7.5320888773428
 20
0.0
 30
0.0
 11
-9.532088877342801
 21
0.0
 31
0.0
  0
LINE
  5
21E
330
2
100
AcDbEntity
  8
0
100
AcDbLine
 10
-7.5320888773428
 20
0.0
 30
0.0
 11
-7.5320888773428
 21
0.625
 31
0.0
  0
LINE
  5
21F
330
2
100
AcDbEntity
  8
0
100
AcDbLine
 10
-9.532088877342801
 20
0.0
 30
0.0
 11
-9.532088877342801
 21
0.0
 31
0.0
  0
LINE
  5
220
330
2
100
AcDbEntity
  8
0
100
AcDbLine
 10
-7.949517739131422
 20
1.188070556818225
 30
0.0
 11
-8.379395787911911
 21
1.876654897459961
 31
0.0
  0
LINE
  5
221
330
2
100
AcDbEntity
  8
0
100
AcDbLine
 10
-7.949517739131422
 20
1.188070556818225
 30
0.0
 11
-7.899181634025086
 21
1.219340653676081
 31
0.0
  0
LINE
  5
222
330
2
100
AcDbEntity
  8
0
100
AcDbLine
 10
-8.32801563069031
 20
1.913643314943585
 30
0.0
 11
-8.844588877342801
 21
2.75
 31
0.0
  0
LINE
  5
223
330
2
100
AcDbEntity
  8
0
100
AcDbLine
 10
-8.379395787911911
 20
1.876654897459961
 30
0.0
 11
-8.32801563069031
 21
1.913643314943585
 31
0.0
  0
ARC
  5
224
330
2
100
AcDbEntity
  8
0
100
AcDbCircle
 10
-10.26652982015689
 20
1.249999999999996
 30
0.0
 40
0.4219409428140866
100
AcDbArc
 50
0.0000000000004141
 51
36.63049702243367
  0
LINE
  5
227
330
2
100
AcDbEntity
  8
0
100
AcDbLine
 10
-8.844588877342801
 20
2.75
 30
0.0
 11
-8.844588877342801
 21
4.022677706764515
 31
0.0
  0
CIRCLE
  5
228
330
2
100
AcDbEntity
  8
0
100
AcDbCircle
 10
-8.967119200868922
 20
4.328953674289554
 30
0.0
 40
0.078
  0
LINE
  5
22A
330
2
100
AcDbEntity
  8
0
100
AcDbLine
 10
-9.898596532531656
 20
9.448676481466531
 30
0.0
 11
-11.4070888773428
 21
9.448676481466531
 31
0.0
  0
LINE
  5
22B
330
2
100
AcDbEntity
  8
0
100
AcDbLine
 10
-11.4070888773428
 20
9.306779656877199
 30
0.0
 11
-9.987922210676135
 21
9.306779656877199
 31
0.0
  0
LINE
  5
22C
330
2
100
AcDbEntity
  8
0
100
AcDbLine
 10
-9.944590668394667
 20
9.38574387907782
 30
0.0
 11
-11.4070888773428
 21
9.38574387907782
 31
0.0
  0
LINE
  5
22D
330
2
100
AcDbEntity
  8
0
100
AcDbLine
 10
-8.921890679133639
 20
8.002208914180063
 30
0.0
 11
-9.737166769634001
 21
8.905444624204996
 31
0.0
  0
LINE
  5
22E
330
2
100
AcDbEntity
  8
0
100
AcDbLine
 10
-9.927922210676137
 20
7.124999999999996
 30
0.0
 11
-9.927922210676137
 21
9.265389691139202
 31
0.0
  0
LINE
  5
22F
330
2
100
AcDbEntity
  8
0
100
AcDbLine
 10
-8.844588877342801
 20
4.635229641814586
 30
0.0
 11
-8.844588877342801
 21
7.125
 31
0.0
  0
LINE
  5
230
330
2
100
AcDbEntity
  8
0
100
AcDbLine
 10
-8.844588877342801
 20
5.25
 30
0.0
 11
-8.844588877342801
 21
5.43
 31
0.0
  0
LINE
  5
231
330
2
100
AcDbEntity
  8
0
100
AcDbLine
 10
-8.844588877342801
 20
7.125
 30
0.0
 11
-8.844588877342801
 21
7.801197689333307
 31
0.0
  0
ARC
  5
232
330
2
100
AcDbEntity
  8
0
100
AcDbCircle
 10
-9.144588877342802
 20
7.801197689333307
 30
0.0
 40
0.3
100
AcDbArc
 50
0.000000000000007
 51
42.06995266472757
  0
LINE
  5
233
330
2
100
AcDbEntity
  8
0
100
AcDbLine
 10
-9.753573843872598
 20
8.272000977719143
 30
0.0
 11
-9.755003606770252
 21
9.307286515728533
 31
0.0
  0
ARC
  5
234
330
2
100
AcDbEntity
  8
0
100
AcDbCircle
 10
-9.864763969617904
 20
8.291650439715729
 30
0.0
 40
0.1129129993402536
100
AcDbArc
 50
280.7779308016767
 51
349.978190628252
  0
ARC
  5
235
330
2
100
AcDbEntity
  8
0
100
AcDbCircle
 10
-9.915003606770252
 20
9.288676481466531
 30
0.0
 40
0.16
100
AcDbArc
 50
0.000000000000007
 51
90.0
  0
ARC
  5
236
330
2
100
AcDbEntity
  8
0
100
AcDbCircle
 10
-9.987922210676132
 20
9.2467796568772
 30
0.0
 40
0.06
100
AcDbArc
 50
0.000000000000007
 51
90.0
  0
ARC
  5
237
330
2
100
AcDbEntity
  8
0
100
AcDbCircle
 10
-9.944590668394667
 20
9.285743879077819
 30
0.0
 40
0.1
100
AcDbArc
 50
0.000000000000007
 51
90.0
  0
LINE
  5
238
330
2
100
AcDbEntity
  8
0
100
AcDbLine
 10
-11.4070888773428
 20
9.448676481466531
 30
0.0
 11
-11.4070888773428
 21
9.306779656877199
 31
0.0
  0
LINE
  5
239
330
2
100
AcDbEntity
  8
0
  6
HIDDEN
100
AcDbLine
 10
-7.5320888773428
 20
0.0787243787930834
 30
0.0
 11
-9.53325572710369
 21
0.0787243787930834
 31
0.0
  0
ARC
  5
23A
330
2
100
AcDbEntity
  8
0
100
AcDbCircle
 10
-9.864763969617904
 20
9.105268585186684
 30
0.0
 40
0.1129129993402536
100
AcDbArc
 50
280.7779308016767
 51
349.978190628252
  0
ENDSEC
  0
SECTION
  2
OBJECTS
  0
DICTIONARY
  5
9
330
0
100
AcDbDictionary
281
     1
  3
ACAD_COLOR
350
112
  3
ACAD_GROUP
350
23
  3
ACAD_LAYOUT
350
D
  3
ACAD_MATERIAL
350
111
  3
ACAD_MLINESTYLE
350
24
  3
ACAD_PLOTSETTINGS
350
25
  3
ACAD_PLOTSTYLENAME
350
8
  3
ACAD_TABLESTYLE
350
113
  3
ACDBHEADERROUNDTRIPXREC
350
249
  3
AcDbVariableDictionary
350
10D
  0
DICTIONARY
  5
3
330
2
100
AcDbDictionary
280
     1
281
     1
  3
ACAD_SORTENTS
360
118
  0
DICTIONARY
  5
112
102
{ACAD_REACTORS
330
9
102
}
330
9
100
AcDbDictionary
281
     1
  0
DICTIONARY
  5
23
102
{ACAD_REACTORS
330
9
102
}
330
9
100
AcDbDictionary
281
     1
  0
DICTIONARY
  5
D
102
{ACAD_REACTORS
330
9
102
}
330
9
100
AcDbDictionary
281
     1
  3
Layout1
350
13
  3
Model
350
C
  0
DICTIONARY
  5
111
102
{ACAD_REACTORS
330
9
102
}
330
9
100
AcDbDictionary
281
     1
  0
DICTIONARY
  5
24
102
{ACAD_REACTORS
330
9
102
}
330
9
100
AcDbDictionary
281
     1
  3
Standard
350
26
  0
DICTIONARY
  5
25
102
{ACAD_REACTORS
330
9
102
}
330
9
100
AcDbDictionary
281
     1
  0
ACDBDICTIONARYWDFLT
  5
8
102
{ACAD_REACTORS
330
9
102
}
330
9
100
AcDbDictionary
281
     1
  3
Normal
350
7
100
AcDbDictionaryWithDefault
340
7
  0
DICTIONARY
  5
113
102
{ACAD_REACTORS
330
9
102
}
330
9
100
AcDbDictionary
281
     1
  3
Standard
350
114
  0
DICTIONARY
  5
249
102
{ACAD_REACTORS
330
9
102
}
330
9
100
AcDbDictionary
281
     1
  3
COLORDICT
350
24A
  3
MATERIALDICT
350
24B
  0
DICTIONARY
  5
10D
102
{ACAD_REACTORS
330
9
102
}
330
9
100
AcDbDictionary
281
     1
  3
CTABLESTYLE
350
1DC
  3
HIDETEXT
350
248
  0
SORTENTSTABLE
  5
118
102
{ACAD_REACTORS
330
3
102
}
330
3
100
AcDbSortentsTable
330
2
331
15C
  5
182
331
153
  5
179
331
16F
  5
195
331
12F
  5
1C0
331
130
  5
1C1
331
188
  5
1AE
331
154
  5
17A
331
17E
  5
1A4
331
170
  5
196
331
122
  5
1B3
331
148
  5
16E
331
13D
  5
1CE
331
179
  5
19F
331
137
  5
1C8
331
176
  5
19C
331
158
  5
17E
331
14E
  5
174
331
178
  5
19E
331
180
  5
1A6
331
186
  5
1AC
331
144
  5
16A
331
14A
  5
170
331
16D
  5
193
331
156
  5
17C
331
177
  5
19D
331
13E
  5
1CF
331
140
  5
1D1
331
141
  5
1D2
331
166
  5
18C
331
13B
  5
1CC
331
162
  5
188
331
132
  5
1C3
331
159
  5
17F
331
146
  5
16C
331
16A
  5
190
331
12A
  5
1BB
331
161
  5
187
331
174
  5
19A
331
150
  5
176
331
163
  5
189
331
12B
  5
1BC
331
171
  5
197
331
169
  5
18F
331
17A
  5
1A0
331
145
  5
16B
331
14D
  5
173
331
17B
  5
1A1
331
15A
  5
180
331
175
  5
19B
331
187
  5
1AD
331
18A
  5
1B0
331
16E
  5
194
331
14F
  5
175
331
155
  5
17B
331
135
  5
1C6
331
143
  5
1D4
331
172
  5
198
331
189
  5
1AF
331
120
  5
1B1
331
12E
  5
1BF
331
136
  5
1C7
331
165
  5
18B
331
139
  5
1CA
331
182
  5
1A8
331
16B
  5
191
331
15B
  5
181
331
17C
  5
1A2
331
15F
  5
185
331
134
  5
1C5
331
133
  5
1C4
331
147
  5
16D
331
167
  5
18D
331
14B
  5
171
331
160
  5
186
331
15E
  5
184
331
126
  5
1B7
331
185
  5
1AB
331
164
  5
18A
331
13C
  5
1CD
331
129
  5
1BA
331
13F
  5
1D0
331
127
  5
1B8
331
15D
  5
183
331
121
  5
1B2
331
151
  5
177
331
12D
  5
1BE
331
183
  5
1A9
331
157
  5
17D
331
13A
  5
1CB
331
173
  5
199
331
149
  5
16F
331
128
  5
1B9
331
181
  5
1A7
331
17D
  5
1A3
331
14C
  5
172
331
17F
  5
1A5
331
12C
  5
1BD
331
184
  5
1AA
331
168
  5
18E
331
124
  5
1B5
331
125
  5
1B6
331
16C
  5
192
331
152
  5
178
  0
LAYOUT
  5
13
102
{ACAD_REACTORS
330
D
102
}
102
{ACAD_XDICTIONARY
360
24C
102
}
330
D
100
AcDbPlotSettings
  1

  2

  4

  6

 40
0.0
 41
0.0
 42
0.0
 43
0.0
 44
0.0
 45
0.0
 46
0.0
 47
0.0
 48
0.0
 49
0.0
140
0.0
141
0.0
142
1.0
143
1.0
 70
   688
 72
     0
 73
     0
 74
     5
  7

 75
    16
147
1.0
148
0.0
149
0.0
100
AcDbLayout
  1
Layout1
 70
     1
 71
     1
 10
0.0
 20
0.0
 11
12.0
 21
9.0
 12
0.0
 22
0.0
 32
0.0
 14
1.000000000000000E+20
 24
1.000000000000000E+20
 34
1.000000000000000E+20
 15
-1.000000000000000E+20
 25
-1.000000000000000E+20
 35
-1.000000000000000E+20
146
0.0
 13
0.0
 23
0.0
 33
0.0
 16
1.0
 26
0.0
 36
0.0
 17
0.0
 27
1.0
 37
0.0
 76
     0
330
E
  0
LAYOUT
  5
C
102
{ACAD_REACTORS
330
D
102
}
102
{ACAD_XDICTIONARY
360
24E
102
}
330
D
100
AcDbPlotSettings
  1

  2

  4

  6

 40
0.0
 41
0.0
 42
0.0
 43
0.0
 44
0.0
 45
0.0
 46
0.0
 47
0.0
 48
0.0
 49
0.0
140
0.0
141
0.0
142
1.0
143
1.0
 70
  1712
 72
     0
 73
     0
 74
     0
  7

 75
     0
147
1.0
148
0.0
149
0.0
100
AcDbLayout
  1
Model
 70
     1
 71
     0
 10
0.0
 20
0.0
 11
12.0
 21
9.0
 12
0.0
 22
0.0
 32
0.0
 14
0.0
 24
0.0
 34
0.0
 15
0.0
 25
0.0
 35
0.0
146
0.0
 13
0.0
 23
0.0
 33
0.0
 16
1.0
 26
0.0
 36
0.0
 17
0.0
 27
1.0
 37
0.0
 76
     0
330
2
  0
MLINESTYLE
  5
26
102
{ACAD_REACTORS
330
24
102
}
330
24
100
AcDbMlineStyle
  2
STANDARD
 70
     0
  3

 62
   256
 51
90.0
 52
90.0
 71
     2
 49
0.5
 62
   256
  6
BYLAYER
 49
-0.5
 62
   256
  6
BYLAYER
  0
ACDBPLACEHOLDER
  5
7
102
{ACAD_REACTORS
330
8
102
}
330
8
  0
ACAD_PROXY_OBJECT
  5
114
102
{ACAD_REACTORS
330
113
102
}
330
113
100
AcDbProxyObject
 90
      499
 91
      508
 95
   983063
 70
     0
 93
     1841
310
4214DD185B99185C9928B81E85EB51B8AE3F2E07A17AD46E2B8FC02B5E8DC0F42B1CFD028000000C1008070000C3001FDFF8000000C1003FBFF000000182007F7FE00000030400FEFFC00000060801FDFF8000000C1003FBFF00000018200000000000000681FA0B0000001820100E000186003FBFF000000182007F7FE000
310
00030400FEFFC00000060801FDFF8000000C1003FBFF000000182007F7FE000000304000AD7A3703D0AC73F4160000003040201C00030C007F7FE00000030400FEFFC00000060801FDFF8000000C1003FBFF000000182007F7FE00000030400FEFFC000000608000
340
16
340
16
340
16
 94
        0
  0
XRECORD
  5
24A
102
{ACAD_REACTORS
330
249
102
}
330
249
100
AcDbXrecord
340
112
  0
XRECORD
  5
24B
102
{ACAD_REACTORS
330
249
102
}
330
249
100
AcDbXrecord
340
111
  0
DICTIONARYVAR
  5
1DC
102
{ACAD_REACTORS
330
10D
102
}
330
10D
100
DictionaryVariables
280
     0
  1
STANDARD
  0
DICTIONARYVAR
  5
248
102
{ACAD_REACTORS
330
10D
102
}
330
10D
100
DictionaryVariables
280
     0
  1
1
  0
DICTIONARY
  5
24C
330
13
100
AcDbDictionary
280
     1
281
     1
  3
ACAD_XREC_ROUNDTRIP
360
24D
  0
DICTIONARY
  5
24E
330
C
100
AcDbDictionary
280
     1
281
     1
  3
ACAD_XREC_ROUNDTRIP
360
24F
  0
XRECORD
  5
24D
102
{ACAD_REACTORS
330
24C
102
}
330
24C
100
AcDbXrecord
102
SHADEPLOT
 70
     0
102
SHADEPLOTRESLEVEL
 70
     2
102
SHADEPLOTCUSTOMDPI
 70
   300
  0
XRECORD
  5
24F
102
{ACAD_REACTORS
330
24E
102
}
330
24E
100
AcDbXrecord
102
SHADEPLOT
 70
     0
102
SHADEPLOTRESLEVEL
 70
     2
102
SHADEPLOTCUSTOMDPI
 70
   300
  0
ENDSEC
  0
EOF
