  0
SECTION
  2
HEADER
  9
$ACADVER
  1
AC1015
  9
$ACADMAINTVER
 70
     6
  9
$DWGCODEPAGE
  3
ANSI_1252
  9
$INSBASE
 10
0.0
 20
0.0
 30
0.0
  9
$EXTMIN
 10
-9.873736393955012
 20
-0.0207106781186551
 30
0.0
  9
$EXTMAX
 10
9.873736393955012
 20
11.8060831283439
 30
0.0
  9
$LIMMIN
 10
0.0
 20
0.0
  9
$LIMMAX
 10
31.5
 20
24.0
  9
$ORTHOMODE
 70
     1
  9
$REGENMODE
 70
     1
  9
$FILLMODE
 70
     1
  9
$QTEXTMODE
 70
     0
  9
$MIRRTEXT
 70
     0
  9
$LTSCALE
 40
0.5
  9
$ATTMODE
 70
     1
  9
$TEXTSIZE
 40
0.27
  9
$TRACEWID
 40
0.05
  9
$TEXTSTYLE
  7
STANDARD
  9
$CLAYER
  8
0
  9
$CELTYPE
  6
ByLayer
  9
$CECOLOR
 62
   256
  9
$CELTSCALE
 40
1.0
  9
$DISPSILH
 70
     0
  9
$DIMSCALE
 40
3.0
  9
$DIMASZ
 40
0.1
  9
$DIMEXO
 40
0.062
  9
$DIMDLI
 40
0.375
  9
$DIMRND
 40
0.0
  9
$DIMDLE
 40
0.0
  9
$DIMEXE
 40
0.08
  9
$DIMTP
 40
0.0
  9
$DIMTM
 40
0.0
  9
$DIMTXT
 40
0.09
  9
$DIMCEN
 40
-0.03125
  9
$DIMTSZ
 40
0.0
  9
$DIMTOL
 70
     0
  9
$DIMLIM
 70
     0
  9
$DIMTIH
 70
     1
  9
$DIMTOH
 70
     1
  9
$DIMSE1
 70
     0
  9
$DIMSE2
 70
     0
  9
$DIMTAD
 70
     0
  9
$DIMZIN
 70
     0
  9
$DIMBLK
  1

  9
$DIMASO
 70
     0
  9
$DIMSHO
 70
     0
  9
$DIMPOST
  1

  9
$DIMAPOST
  1

  9
$DIMALT
 70
     0
  9
$DIMALTD
 70
     2
  9
$DIMALTF
 40
25.4
  9
$DIMLFAC
 40
1.0
  9
$DIMTOFL
 70
     0
  9
$DIMTVP
 40
0.0
  9
$DIMTIX
 70
     0
  9
$DIMSOXD
 70
     0
  9
$DIMSAH
 70
     0
  9
$DIMBLK1
  1

  9
$DIMBLK2
  1

  9
$DIMSTYLE
  2
Standard
  9
$DIMCLRD
 70
     0
  9
$DIMCLRE
 70
     0
  9
$DIMCLRT
 70
     0
  9
$DIMTFAC
 40
1.0
  9
$DIMGAP
 40
0.09
  9
$DIMJUST
 70
     0
  9
$DIMSD1
 70
     0
  9
$DIMSD2
 70
     0
  9
$DIMTOLJ
 70
     1
  9
$DIMTZIN
 70
     0
  9
$DIMALTZ
 70
     0
  9
$DIMALTTZ
 70
     0
  9
$DIMUPT
 70
     0
  9
$DIMDEC
 70
     4
  9
$DIMTDEC
 70
     4
  9
$DIMALTU
 70
     2
  9
$DIMALTTD
 70
     2
  9
$DIMTXSTY
  7
STANDARD
  9
$DIMAUNIT
 70
     0
  9
$DIMADEC
 70
     0
  9
$DIMALTRND
 40
0.0
  9
$DIMAZIN
 70
     0
  9
$DIMDSEP
 70
    46
  9
$DIMATFIT
 70
     3
  9
$DIMFRAC
 70
     0
  9
$DIMLDRBLK
  1

  9
$DIMLUNIT
 70
     2
  9
$DIMLWD
 70
    -2
  9
$DIMLWE
 70
    -2
  9
$DIMTMOVE
 70
     2
  9
$LUNITS
 70
     2
  9
$LUPREC
 70
     4
  9
$SKETCHINC
 40
0.1
  9
$FILLETRAD
 40
0.0
  9
$AUNITS
 70
     0
  9
$AUPREC
 70
     0
  9
$MENU
  1
acad
  9
$ELEVATION
 40
0.0
  9
$PELEVATION
 40
0.0
  9
$THICKNESS
 40
0.0
  9
$LIMCHECK
 70
     0
  9
$CHAMFERA
 40
0.25
  9
$CHAMFERB
 40
0.25
  9
$CHAMFERC
 40
0.0
  9
$CHAMFERD
 40
0.0
  9
$SKPOLY
 70
     0
  9
$TDCREATE
 40
2448226.866883102
  9
$TDUCREATE
 40
2448227.200216435
  9
$TDUPDATE
 40
2454160.607276285
  9
$TDUUPDATE
 40
2454160.940609618
  9
$TDINDWG
 40
0.4265501273
  9
$TDUSRTIMER
 40
0.4265501273
  9
$USRTIMER
 70
     1
  9
$ANGBASE
 50
0.0
  9
$ANGDIR
 70
     0
  9
$PDMODE
 70
     0
  9
$PDSIZE
 40
0.0
  9
$PLINEWID
 40
0.0
  9
$SPLFRAME
 70
     0
  9
$SPLINETYPE
 70
     6
  9
$SPLINESEGS
 70
     8
  9
$HANDSEED
  5
1CE
  9
$SURFTAB1
 70
     6
  9
$SURFTAB2
 70
     6
  9
$SURFTYPE
 70
     6
  9
$SURFU
 70
     6
  9
$SURFV
 70
     6
  9
$UCSBASE
  2

  9
$UCSNAME
  2

  9
$UCSORG
 10
0.0
 20
0.0
 30
0.0
  9
$UCSXDIR
 10
1.0
 20
0.0
 30
0.0
  9
$UCSYDIR
 10
0.0
 20
1.0
 30
0.0
  9
$UCSORTHOREF
  2

  9
$UCSORTHOVIEW
 70
     0
  9
$UCSORGTOP
 10
0.0
 20
0.0
 30
0.0
  9
$UCSORGBOTTOM
 10
0.0
 20
0.0
 30
0.0
  9
$UCSORGLEFT
 10
0.0
 20
0.0
 30
0.0
  9
$UCSORGRIGHT
 10
0.0
 20
0.0
 30
0.0
  9
$UCSORGFRONT
 10
0.0
 20
0.0
 30
0.0
  9
$UCSORGBACK
 10
0.0
 20
0.0
 30
0.0
  9
$PUCSBASE
  2

  9
$PUCSNAME
  2

  9
$PUCSORG
 10
0.0
 20
0.0
 30
0.0
  9
$PUCSXDIR
 10
1.0
 20
0.0
 30
0.0
  9
$PUCSYDIR
 10
0.0
 20
1.0
 30
0.0
  9
$PUCSORTHOREF
  2

  9
$PUCSORTHOVIEW
 70
     0
  9
$PUCSORGTOP
 10
0.0
 20
0.0
 30
0.0
  9
$PUCSORGBOTTOM
 10
0.0
 20
0.0
 30
0.0
  9
$PUCSORGLEFT
 10
0.0
 20
0.0
 30
0.0
  9
$PUCSORGRIGHT
 10
0.0
 20
0.0
 30
0.0
  9
$PUCSORGFRONT
 10
0.0
 20
0.0
 30
0.0
  9
$PUCSORGBACK
 10
0.0
 20
0.0
 30
0.0
  9
$USERI1
 70
     0
  9
$USERI2
 70
     0
  9
$USERI3
 70
     0
  9
$USERI4
 70
     0
  9
$USERI5
 70
     0
  9
$USERR1
 40
0.0
  9
$USERR2
 40
0.0
  9
$USERR3
 40
0.0
  9
$USERR4
 40
0.0
  9
$USERR5
 40
0.0
  9
$WORLDVIEW
 70
     1
  9
$SHADEDGE
 70
     3
  9
$SHADEDIF
 70
    70
  9
$TILEMODE
 70
     1
  9
$MAXACTVP
 70
    16
  9
$PINSBASE
 10
0.0
 20
0.0
 30
0.0
  9
$PLIMCHECK
 70
     0
  9
$PEXTMIN
 10
1.000000000000000E+20
 20
1.000000000000000E+20
 30
1.000000000000000E+20
  9
$PEXTMAX
 10
-1.000000000000000E+20
 20
-1.000000000000000E+20
 30
-1.000000000000000E+20
  9
$PLIMMIN
 10
0.0
 20
0.0
  9
$PLIMMAX
 10
12.0
 20
9.0
  9
$UNITMODE
 70
     0
  9
$VISRETAIN
 70
     0
  9
$PLINEGEN
 70
     1
  9
$PSLTSCALE
 70
     0
  9
$TREEDEPTH
 70
  3020
  9
$CMLSTYLE
  2
Standard
  9
$CMLJUST
 70
     0
  9
$CMLSCALE
 40
1.0
  9
$PROXYGRAPHICS
 70
     1
  9
$MEASUREMENT
 70
     0
  9
$CELWEIGHT
370
    -1
  9
$ENDCAPS
280
     0
  9
$JOINSTYLE
280
     0
  9
$LWDISPLAY
290
     0
  9
$INSUNITS
 70
     0
  9
$HYPERLINKBASE
  1

  9
$STYLESHEET
  1

  9
$XEDIT
290
     1
  9
$CEPSNTYPE
380
     0
  9
$PSTYLEMODE
290
     1
  9
$FINGERPRINTGUID
  2
{70575565-836C-43F0-8F6A-F43B528D293A}
  9
$VERSIONGUID
  2
{A3B432BC-50F4-47F7-BD95-A055E9C1F760}
  9
$EXTNAMES
290
     1
  9
$PSVPSCALE
 40
0.0
  9
$OLESTARTUP
290
     0
  0
ENDSEC
  0
SECTION
  2
CLASSES
  0
CLASS
  1
ACDBDICTIONARYWDFLT
  2
AcDbDictionaryWithDefault
  3
AutoCAD 2000
 90
        0
280
     0
281
     0
  0
CLASS
  1
ACDBPLACEHOLDER
  2
AcDbPlaceHolder
  3
ObjectDBX Classes
 90
        0
280
     0
281
     0
  0
CLASS
  1
LAYOUT
  2
AcDbLayout
  3
ObjectDBX Classes
 90
        0
280
     0
281
     0
  0
CLASS
  1
DICTIONARYVAR
  2
AcDbDictionaryVar
  3
AutoCAD 2000
 90
        0
280
     0
281
     0
  0
CLASS
  1
TABLESTYLE
  2
AcDbTableStyle
  3
ObjectDBX Classes
 90
     2047
280
     1
281
     0
  0
CLASS
  1
SORTENTSTABLE
  2
AcDbSortentsTable
  3
AutoCAD 2000
 90
        0
280
     0
281
     0
  0
ENDSEC
  0
SECTION
  2
TABLES
  0
TABLE
  2
VPORT
  5
19
330
0
100
AcDbSymbolTable
 70
     2
  0
VPORT
  5
1C1
330
19
100
AcDbSymbolTableRecord
100
AcDbViewportTableRecord
  2
*Active
 70
     0
 10
0.0
 20
0.0
 11
1.0
 21
1.0
 12
10.81250053807077
 22
15.4650577358444
 13
0.0
 23
0.0
 14
0.063
 24
0.063
 15
0.25
 25
0.25
 16
0.0
 26
0.0
 36
1.0
 17
0.0
 27
0.0
 37
0.0
 40
31.4581368517905
 41
1.55012853470437
 42
50.0
 43
0.0
 44
0.0
 50
0.0
 51
0.0
 71
     0
 72
   100
 73
     1
 74
     0
 75
     0
 76
     0
 77
     0
 78
     0
281
     0
 65
     1
110
0.0
120
0.0
130
0.0
111
1.0
121
0.0
131
0.0
112
0.0
122
1.0
132
0.0
 79
     0
146
0.0
  0
ENDTAB
  0
TABLE
  2
LTYPE
  5
14
330
0
100
AcDbSymbolTable
 70
     2
  0
LTYPE
  5
15
330
14
100
AcDbSymbolTableRecord
100
AcDbLinetypeTableRecord
  2
ByBlock
 70
     0
  3

 72
    65
 73
     0
 40
0.0
  0
LTYPE
  5
16
330
14
100
AcDbSymbolTableRecord
100
AcDbLinetypeTableRecord
  2
ByLayer
 70
     0
  3

 72
    65
 73
     0
 40
0.0
  0
LTYPE
  5
8
330
14
100
AcDbSymbolTableRecord
100
AcDbLinetypeTableRecord
  2
CONTINUOUS
 70
     0
  3
Solid line
 72
    65
 73
     0
 40
0.0
  0
LTYPE
  5
190
330
14
100
AcDbSymbolTableRecord
100
AcDbLinetypeTableRecord
  2
HIDDEN
 70
     0
  3
Hidden __ __ __ __ __ __ __ __ __ __ __ __ __ _
 72
    65
 73
     2
 40
0.375
 49
0.25
 74
     0
 49
-0.125
 74
     0
  0
ENDTAB
  0
TABLE
  2
LAYER
  5
10
330
0
100
AcDbSymbolTable
 70
     2
  0
LAYER
  5
4
330
10
100
AcDbSymbolTableRecord
100
AcDbLayerTableRecord
  2
0
 70
     0
 62
     7
  6
CONTINUOUS
370
    -3
390
5
  0
ENDTAB
  0
TABLE
  2
STYLE
  5
11
330
0
100
AcDbSymbolTable
 70
     2
  0
STYLE
  5
12
330
11
100
AcDbSymbolTableRecord
100
AcDbTextStyleTableRecord
  2
STANDARD
 70
     0
 40
0.0
 41
1.0
 50
0.0
 71
     0
 42
0.27
  3
TXT
  4

  0
ENDTAB
  0
TABLE
  2
VIEW
  5
17
330
0
100
AcDbSymbolTable
 70
     0
  0
ENDTAB
  0
TABLE
  2
UCS
  5
18
330
0
100
AcDbSymbolTable
 70
     0
  0
ENDTAB
  0
TABLE
  2
APPID
  5
1B
330
0
100
AcDbSymbolTable
 70
     1
  0
APPID
  5
1C
330
1B
100
AcDbSymbolTableRecord
100
AcDbRegAppTableRecord
  2
ACAD
 70
     0
  0
ENDTAB
  0
TABLE
  2
DIMSTYLE
  5
1D
330
0
100
AcDbSymbolTable
 70
     1
100
AcDbDimStyleTable
  0
DIMSTYLE
105
24
330
1D
100
AcDbSymbolTableRecord
100
AcDbDimStyleTableRecord
  2
Standard
 70
     0
  3

  4

340
12
  0
ENDTAB
  0
TABLE
  2
BLOCK_RECORD
  5
1
330
0
100
AcDbSymbolTable
 70
     0
  0
BLOCK_RECORD
  5
2
102
{ACAD_XDICTIONARY
360
E7
102
}
330
1
100
AcDbSymbolTableRecord
100
AcDbBlockTableRecord
  2
*Model_Space
340
A
  0
BLOCK_RECORD
  5
C
330
1
100
AcDbSymbolTableRecord
100
AcDbBlockTableRecord
  2
*Paper_Space
340
F
  0
ENDTAB
  0
ENDSEC
  0
SECTION
  2
BLOCKS
  0
BLOCK
  5
3
330
2
100
AcDbEntity
  8
0
100
AcDbBlockBegin
  2
*Model_Space
 70
     0
 10
0.0
 20
0.0
 30
0.0
  3
*Model_Space
  1

  4

  0
ENDBLK
  5
9
330
2
100
AcDbEntity
  8
0
100
AcDbBlockEnd
  0
BLOCK
  5
D
330
C
100
AcDbEntity
 67
     1
  8
0
100
AcDbBlockBegin
  2
*Paper_Space
 70
     0
 10
0.0
 20
0.0
 30
0.0
  3
*Paper_Space
  1

  4

  0
ENDBLK
  5
E
330
C
100
AcDbEntity
 67
     1
  8
0
100
AcDbBlockEnd
  0
ENDSEC
  0
SECTION
  2
ENTITIES
  0
LINE
  5
EC
330
2
100
AcDbEntity
  8
0
100
AcDbLine
 10
-1.532909106288569
 20
10.24358312834389
 30
0.0
 11
-1.782909106288566
 21
10.24358312834389
 31
0.0
  0
ARC
  5
ED
330
2
100
AcDbEntity
  8
0
100
AcDbCircle
 10
-1.907909106288569
 20
10.48411792446969
 30
0.0
 40
0.125
100
AcDbArc
 50
0.0
 51
89.99999999999992
  0
ARC
  5
EE
330
2
100
AcDbEntity
  8
0
100
AcDbCircle
 10
-1.907909106288569
 20
10.21751204141337
 30
0.0
 40
0.125
100
AcDbArc
 50
270.0000000000001
 51
0.0
  0
LINE
  5
EF
330
2
100
AcDbEntity
  8
0
100
AcDbLine
 10
-2.387867870856153
 20
11.80608312834389
 30
0.0
 11
-1.075367870856153
 21
11.80608312834389
 31
0.0
  0
ARC
  5
F0
330
2
100
AcDbEntity
  8
0
100
AcDbCircle
 10
-1.907909106288569
 20
10.21751204141337
 30
0.0
 40
0.125
100
AcDbArc
 50
180.0
 51
270.0
  0
LINE
  5
F1
330
2
100
AcDbEntity
  8
0
100
AcDbLine
 10
-2.387867870856153
 20
10.24358312834389
 30
0.0
 11
-2.387867870856153
 21
11.80608312834389
 31
0.0
  0
LINE
  5
F2
330
2
100
AcDbEntity
  8
0
100
AcDbLine
 10
-2.032909106288569
 20
10.24358312834389
 30
0.0
 11
-2.387867870856153
 21
10.24358312834389
 31
0.0
  0
ARC
  5
F3
330
2
100
AcDbEntity
  8
0
100
AcDbCircle
 10
-1.907909106288569
 20
10.48411792446969
 30
0.0
 40
0.125
100
AcDbArc
 50
90.00000000000003
 51
180.0000000000001
  0
LINE
  5
F4
330
2
100
AcDbEntity
  8
0
100
AcDbLine
 10
-1.907909106288569
 20
10.60911792446969
 30
0.0
 11
-1.907909106288569
 21
10.60911792446969
 31
0.0
  0
LINE
  5
F5
330
2
100
AcDbEntity
  8
0
100
AcDbLine
 10
-1.782909106288569
 20
10.21751204141337
 30
0.0
 11
-1.782909106288569
 21
10.48425991896927
 31
0.0
  0
LINE
  5
F6
330
2
100
AcDbEntity
  8
0
100
AcDbLine
 10
-2.032909106288569
 20
10.21751204141337
 30
0.0
 11
-2.032909106288569
 21
10.48425991896927
 31
0.0
  0
ARC
  5
F7
330
2
100
AcDbEntity
  8
0
100
AcDbCircle
 10
-1.407909106288566
 20
10.21751204141337
 30
0.0
 40
0.125
100
AcDbArc
 50
270.0
 51
0.0
  0
ARC
  5
F8
330
2
100
AcDbEntity
  8
0
100
AcDbCircle
 10
-1.407909106288569
 20
10.21751204141337
 30
0.0
 40
0.125
100
AcDbArc
 50
180.0000000000001
 51
269.9999999999999
  0
ARC
  5
F9
330
2
100
AcDbEntity
  8
0
100
AcDbCircle
 10
1.407909106288569
 20
10.21751204141337
 30
0.0
 40
0.125
100
AcDbArc
 50
270.0000000000001
 51
0.0
  0
ARC
  5
FA
330
2
100
AcDbEntity
  8
0
100
AcDbCircle
 10
1.407909106288566
 20
10.21751204141337
 30
0.0
 40
0.125
100
AcDbArc
 50
180.0
 51
270.0
  0
ARC
  5
FB
330
2
100
AcDbEntity
  8
0
100
AcDbCircle
 10
1.907909106288569
 20
10.21751204141337
 30
0.0
 40
0.125
100
AcDbArc
 50
270.0
 51
359.9998979749433
  0
ARC
  5
FC
330
2
100
AcDbEntity
  8
0
100
AcDbCircle
 10
1.907909106288566
 20
10.21751204141337
 30
0.0
 40
0.125
100
AcDbArc
 50
180.0000000000001
 51
269.9999999999999
  0
LINE
  5
FD
330
2
100
AcDbEntity
  8
0
100
AcDbLine
 10
0.7812500000000018
 20
8.600792768479062
 30
0.0
 11
0.7812500000000018
 21
10.2060831283439
 31
0.0
  0
LINE
  5
FE
330
2
100
AcDbEntity
  8
0
100
AcDbLine
 10
0.8437500000000018
 20
8.493583128343902
 30
0.0
 11
0.8437500000000018
 21
10.1810831283439
 31
0.0
  0
LINE
  5
FF
330
2
100
AcDbEntity
  8
0
100
AcDbLine
 10
-0.8437499999999982
 20
8.493583128343905
 30
0.0
 11
-0.8437500000000018
 21
10.1810831283439
 31
0.0
  0
LINE
  5
100
330
2
100
AcDbEntity
  8
0
100
AcDbLine
 10
-0.7812500000000018
 20
8.493583128343909
 30
0.0
 11
-0.7812500000000018
 21
10.2060831283439
 31
0.0
  0
LINE
  5
101
330
2
100
AcDbEntity
  8
0
100
AcDbLine
 10
0.7454840396287121
 20
8.493583128343902
 30
0.0
 11
-0.7415275318453833
 21
8.494135027438494
 31
0.0
  0
LINE
  5
102
330
2
100
AcDbEntity
  8
0
100
AcDbLine
 10
0.7812500000000018
 20
9.993583128343902
 30
0.0
 11
-0.7812500000000018
 21
9.993583128343905
 31
0.0
  0
ARC
  5
103
330
2
100
AcDbEntity
  8
0
100
AcDbCircle
 10
-0.7439157495704674
 20
8.542510427700792
 30
0.0
 40
0.0484343156701714
100
AcDbArc
 50
272.8263082316822
 51
140.4277878798969
  0
LINE
  5
104
330
2
100
AcDbEntity
  8
0
100
AcDbLine
 10
-0.7812500000000018
 20
8.493583128343905
 30
0.0
 11
-0.8437499999999982
 21
8.493583128343905
 31
0.0
  0
ARC
  5
105
330
2
100
AcDbEntity
  8
0
100
AcDbCircle
 10
0.7606060889372674
 20
8.548109016183192
 30
0.0
 40
0.0565839979139202
100
AcDbArc
 50
68.60247541931879
 51
254.4993342208197
  0
LINE
  5
106
330
2
100
AcDbEntity
  8
0
100
AcDbLine
 10
0.7812500000000018
 20
8.600792768479062
 30
0.0
 11
0.7812500000000018
 21
8.493583128343902
 31
0.0
  0
LINE
  5
107
330
2
100
AcDbEntity
  8
0
100
AcDbLine
 10
0.8437500000000018
 20
8.493583128343902
 30
0.0
 11
0.7812500000000018
 21
8.493583128343905
 31
0.0
  0
LINE
  5
108
330
2
100
AcDbEntity
  8
0
100
AcDbLine
 10
1.782909106288566
 20
10.2435831283439
 30
0.0
 11
1.532909106288569
 21
10.2435831283439
 31
0.0
  0
LINE
  5
109
330
2
100
AcDbEntity
  8
0
100
AcDbLine
 10
1.113791235432414
 20
11.8060831283439
 30
0.0
 11
2.426291235432414
 21
11.8060831283439
 31
0.0
  0
LINE
  5
10A
330
2
100
AcDbEntity
  8
0
100
AcDbLine
 10
-1.075367870856153
 20
11.80608312834389
 30
0.0
 11
-1.075367870856153
 21
10.24358312834389
 31
0.0
  0
LINE
  5
10B
330
2
100
AcDbEntity
  8
0
100
AcDbLine
 10
-0.8812499999999996
 20
10.30608312834391
 30
0.0
 11
-1.075367870856153
 21
10.30608312834391
 31
0.0
  0
LINE
  5
10C
330
2
100
AcDbEntity
  8
0
100
AcDbLine
 10
-0.9062500000000018
 20
10.2435831283439
 30
0.0
 11
-1.075367870856153
 21
10.24358312834391
 31
0.0
  0
ARC
  5
10D
330
2
100
AcDbEntity
  8
0
100
AcDbCircle
 10
-1.407909106288566
 20
10.48411792446969
 30
0.0
 40
0.125
100
AcDbArc
 50
0.0
 51
90.00000000000003
  0
ARC
  5
10E
330
2
100
AcDbEntity
  8
0
100
AcDbCircle
 10
-1.407909106288569
 20
10.48411792446969
 30
0.0
 40
0.125
100
AcDbArc
 50
90.00000000000006
 51
180.0
  0
LINE
  5
10F
330
2
100
AcDbEntity
  8
0
100
AcDbLine
 10
-1.532909106288569
 20
10.21751204141337
 30
0.0
 11
-1.532909106288569
 21
10.48425991896927
 31
0.0
  0
LINE
  5
110
330
2
100
AcDbEntity
  8
0
100
AcDbLine
 10
-1.282909106288566
 20
10.21751204141337
 30
0.0
 11
-1.282909106288569
 21
10.48425991896927
 31
0.0
  0
LINE
  5
111
330
2
100
AcDbEntity
  8
0
100
AcDbLine
 10
-1.075367870856153
 20
10.24358312834389
 30
0.0
 11
-1.282909106288566
 21
10.24358312834389
 31
0.0
  0
ARC
  5
112
330
2
100
AcDbEntity
  8
0
100
AcDbCircle
 10
-0.8812499999999996
 20
10.2060831283439
 30
0.0
 40
0.1
100
AcDbArc
 50
0.0
 51
90.0
  0
ARC
  5
113
330
2
100
AcDbEntity
  8
0
100
AcDbCircle
 10
-0.9062500000000018
 20
10.1810831283439
 30
0.0
 40
0.0625
100
AcDbArc
 50
0.0
 51
90.0
  0
CIRCLE
  5
114
330
2
100
AcDbEntity
  8
0
100
AcDbCircle
 10
-1.450367870856153
 20
11.24358312834389
 30
0.0
 40
0.0855
  0
LINE
  5
115
330
2
100
AcDbEntity
  8
0
100
AcDbLine
 10
1.113791235432414
 20
10.2435831283439
 30
0.0
 11
1.113791235432414
 21
11.8060831283439
 31
0.0
  0
ARC
  5
116
330
2
100
AcDbEntity
  8
0
100
AcDbCircle
 10
0.8812500000000032
 20
10.2060831283439
 30
0.0
 40
0.1
100
AcDbArc
 50
89.99999999999987
 51
180.0
  0
LINE
  5
117
330
2
100
AcDbEntity
  8
0
100
AcDbLine
 10
1.282909106288569
 20
10.2435831283439
 30
0.0
 11
0.9062500000000018
 21
10.2435831283439
 31
0.0
  0
LINE
  5
118
330
2
100
AcDbEntity
  8
0
100
AcDbLine
 10
1.113791235432414
 20
10.3060831283439
 30
0.0
 11
0.8812500000000032
 21
10.3060831283439
 31
0.0
  0
ARC
  5
119
330
2
100
AcDbEntity
  8
0
100
AcDbCircle
 10
0.9062500000000018
 20
10.1810831283439
 30
0.0
 40
0.0625
100
AcDbArc
 50
89.99999999999987
 51
180.0000000000001
  0
LINE
  5
11A
330
2
100
AcDbEntity
  8
0
100
AcDbLine
 10
1.532909106288569
 20
10.21751204141337
 30
0.0
 11
1.532909106288569
 21
10.48425991896927
 31
0.0
  0
LINE
  5
11B
330
2
100
AcDbEntity
  8
0
100
AcDbLine
 10
1.282909106288566
 20
10.21751204141337
 30
0.0
 11
1.282909106288569
 21
10.48425991896927
 31
0.0
  0
ARC
  5
11C
330
2
100
AcDbEntity
  8
0
100
AcDbCircle
 10
1.407909106288569
 20
10.48411792446969
 30
0.0
 40
0.125
100
AcDbArc
 50
0.0
 51
89.99999999999992
  0
ARC
  5
11D
330
2
100
AcDbEntity
  8
0
100
AcDbCircle
 10
1.407909106288566
 20
10.48411792446969
 30
0.0
 40
0.125
100
AcDbArc
 50
90.00000000000003
 51
180.0000000000001
  0
CIRCLE
  5
11E
330
2
100
AcDbEntity
  8
0
100
AcDbCircle
 10
1.488791235432414
 20
11.2435831283439
 30
0.0
 40
0.0855
  0
LINE
  5
11F
330
2
100
AcDbEntity
  8
0
100
AcDbLine
 10
2.426291235432414
 20
11.8060831283439
 30
0.0
 11
2.426291235432414
 21
10.2435831283439
 31
0.0
  0
ARC
  5
120
330
2
100
AcDbEntity
  8
0
100
AcDbCircle
 10
1.907909106288569
 20
10.48411792446969
 30
0.0
 40
0.125
100
AcDbArc
 50
0.0
 51
90.00000000000003
  0
LINE
  5
121
330
2
100
AcDbEntity
  8
0
100
AcDbLine
 10
2.426291235432414
 20
10.2435831283439
 30
0.0
 11
2.032909106288566
 21
10.2435831283439
 31
0.0
  0
LINE
  5
122
330
2
100
AcDbEntity
  8
0
100
AcDbLine
 10
2.032909106288569
 20
10.21751204141337
 30
0.0
 11
2.032909106288569
 21
10.48425991896927
 31
0.0
  0
LINE
  5
123
330
2
100
AcDbEntity
  8
0
100
AcDbLine
 10
1.782909106288566
 20
10.21751204141337
 30
0.0
 11
1.782909106288569
 21
10.48425991896927
 31
0.0
  0
ARC
  5
124
330
2
100
AcDbEntity
  8
0
100
AcDbCircle
 10
1.907909106288566
 20
10.48411792446969
 30
0.0
 40
0.125
100
AcDbArc
 50
90.00000000000006
 51
180.0
  0
LINE
  5
125
330
2
100
AcDbEntity
  8
0
100
AcDbLine
 10
2.032909106288569
 20
5.062500000000002
 30
0.0
 11
2.032909106288569
 21
5.499999999999998
 31
0.0
  0
LINE
  5
126
330
2
100
AcDbEntity
  8
0
100
AcDbLine
 10
1.782909106288566
 20
5.062500000000002
 30
0.0
 11
1.782909106288569
 21
5.499999999999998
 31
0.0
  0
LINE
  5
127
330
2
100
AcDbEntity
  8
0
100
AcDbLine
 10
1.532909106288569
 20
5.062500000000002
 30
0.0
 11
1.532909106288569
 21
5.499999999999998
 31
0.0
  0
LINE
  5
128
330
2
100
AcDbEntity
  8
0
100
AcDbLine
 10
1.282909106288566
 20
5.062500000000002
 30
0.0
 11
1.282909106288569
 21
5.499999999999998
 31
0.0
  0
LINE
  5
129
330
2
100
AcDbEntity
  8
0
100
AcDbLine
 10
-2.032909106288569
 20
5.062500000000005
 30
0.0
 11
-2.032909106288569
 21
5.500000000000002
 31
0.0
  0
LINE
  5
12A
330
2
100
AcDbEntity
  8
0
100
AcDbLine
 10
-1.782909106288569
 20
5.062500000000005
 30
0.0
 11
-1.782909106288569
 21
5.500000000000002
 31
0.0
  0
LINE
  5
12B
330
2
100
AcDbEntity
  8
0
100
AcDbLine
 10
-1.532909106288569
 20
5.062500000000005
 30
0.0
 11
-1.532909106288569
 21
5.500000000000002
 31
0.0
  0
LINE
  5
12C
330
2
100
AcDbEntity
  8
0
100
AcDbLine
 10
-1.282909106288566
 20
5.062500000000005
 30
0.0
 11
-1.282909106288569
 21
5.500000000000002
 31
0.0
  0
LINE
  5
12D
330
2
100
AcDbEntity
  8
0
100
AcDbLine
 10
-1.093750000000005
 20
5.437500000000002
 30
0.0
 11
-0.8437499999999982
 21
5.187500000000002
 31
0.0
  0
LINE
  5
12E
330
2
100
AcDbEntity
  8
0
100
AcDbLine
 10
1.093750000000002
 20
5.437500000000002
 30
0.0
 11
0.8437500000000018
 21
5.187500000000002
 31
0.0
  0
LINE
  5
12F
330
2
100
AcDbEntity
  8
0
100
AcDbLine
 10
-2.407909106288569
 20
5.308359739327996
 30
0.0
 11
-2.407909106288569
 21
5.500000000000002
 31
0.0
  0
LINE
  5
130
330
2
100
AcDbEntity
  8
0
100
AcDbLine
 10
2.407909106288569
 20
5.308359739327996
 30
0.0
 11
2.407909106288569
 21
5.500000000000002
 31
0.0
  0
ARC
  5
131
330
2
100
AcDbEntity
  8
0
100
AcDbCircle
 10
-1.907909106288569
 20
5.062500000000005
 30
0.0
 40
0.125
100
AcDbArc
 50
270.0000000000001
 51
0.0
  0
LINE
  5
132
330
2
100
AcDbEntity
  8
0
100
AcDbLine
 10
-1.466250000000001
 20
4.062499999999998
 30
0.0
 11
-2.407909106288569
 21
5.308359739327996
 31
0.0
  0
ARC
  5
133
330
2
100
AcDbEntity
  8
0
100
AcDbCircle
 10
-1.907909106288569
 20
5.062500000000005
 30
0.0
 40
0.125
100
AcDbArc
 50
180.0
 51
270.0
  0
LINE
  5
134
330
2
100
AcDbEntity
  8
0
100
AcDbLine
 10
-1.907909106288569
 20
4.937500000000005
 30
0.0
 11
-1.907909106288569
 21
4.937500000000005
 31
0.0
  0
LINE
  5
135
330
2
100
AcDbEntity
  8
0
100
AcDbLine
 10
-1.466250000000001
 20
2.062499999999998
 30
0.0
 11
-0.8437499999999982
 21
0.8124999999999991
 31
0.0
  0
LINE
  5
136
330
2
100
AcDbEntity
  8
0
100
AcDbLine
 10
0.8437500000000018
 20
0.8124999999999991
 30
0.0
 11
1.466250000000001
 21
2.062499999999998
 31
0.0
  0
LINE
  5
137
330
2
100
AcDbEntity
  8
0
100
AcDbLine
 10
0.8437500000000018
 20
0.0999999999999996
 30
0.0
 11
0.8437500000000018
 21
5.187500000000002
 31
0.0
  0
LINE
  5
138
330
2
100
AcDbEntity
  8
0
100
AcDbLine
 10
0.7812500000000018
 20
0.125
 30
0.0
 11
0.7812500000000018
 21
5.187500000000002
 31
0.0
  0
LINE
  5
139
330
2
100
AcDbEntity
  8
0
100
AcDbLine
 10
-0.7812499999999982
 20
0.125
 30
0.0
 11
-0.7812500000000018
 21
5.187500000000002
 31
0.0
  0
LINE
  5
13A
330
2
100
AcDbEntity
  8
0
100
AcDbLine
 10
-0.8437499999999982
 20
0.0999999999999996
 30
0.0
 11
-0.8437499999999982
 21
5.187500000000002
 31
0.0
  0
LINE
  5
13B
330
2
100
AcDbEntity
  8
0
100
AcDbLine
 10
-0.7437500000000004
 20
0.0
 30
0.0
 11
0.7437500000000004
 21
0.0
 31
0.0
  0
LINE
  5
13C
330
2
100
AcDbEntity
  8
0
100
AcDbLine
 10
-0.7187499999999982
 20
0.0625
 30
0.0
 11
0.7187500000000018
 21
0.0625
 31
0.0
  0
LINE
  5
13D
330
2
100
AcDbEntity
  8
0
100
AcDbLine
 10
-0.7187500814893948
 20
0.0625
 30
0.0
 11
-0.6584760391171098
 21
0.0012444696879115
 31
0.0
  0
LINE
  5
13E
330
2
100
AcDbEntity
  8
0
100
AcDbLine
 10
-0.7812499999999982
 20
0.1249998666548997
 30
0.0
 11
-0.8437499999999982
 21
0.1249998666548997
 31
0.0
  0
ARC
  5
13F
330
2
100
AcDbEntity
  8
0
100
AcDbCircle
 10
-0.7437500000000004
 20
0.0999999999999996
 30
0.0
 40
0.1
100
AcDbArc
 50
180.0
 51
269.9999999999999
  0
ARC
  5
140
330
2
100
AcDbEntity
  8
0
100
AcDbCircle
 10
-0.7187499999999982
 20
0.125
 30
0.0
 40
0.0625
100
AcDbArc
 50
180.0
 51
270.0
  0
ARC
  5
141
330
2
100
AcDbEntity
  8
0
100
AcDbCircle
 10
0.7437500000000004
 20
0.0999999999999996
 30
0.0
 40
0.1
100
AcDbArc
 50
270.0
 51
0.0
  0
ARC
  5
142
330
2
100
AcDbEntity
  8
0
100
AcDbCircle
 10
0.7187500000000018
 20
0.125
 30
0.0
 40
0.0625
100
AcDbArc
 50
270.0
 51
0.0
  0
LINE
  5
143
330
2
100
AcDbEntity
  8
0
100
AcDbLine
 10
0.7187500000000018
 20
0.0625
 30
0.0
 11
0.6538868784424228
 21
0.0012444696879115
 31
0.0
  0
LINE
  5
144
330
2
100
AcDbEntity
  8
0
100
AcDbLine
 10
0.7812500000000018
 20
0.1249999402500128
 30
0.0
 11
0.8437500000000018
 21
0.1249999402500128
 31
0.0
  0
LINE
  5
145
330
2
100
AcDbEntity
  8
0
100
AcDbLine
 10
1.466249999999997
 20
4.062500000000002
 30
0.0
 11
2.407909106288569
 21
5.308359739327996
 31
0.0
  0
CIRCLE
  5
146
330
2
100
AcDbEntity
  8
0
100
AcDbCircle
 10
1.593750000000002
 20
4.750000000000002
 30
0.0
 40
0.0855
  0
LINE
  5
147
330
2
100
AcDbEntity
  8
0
100
AcDbLine
 10
-1.466250000000001
 20
2.926499999999992
 30
0.0
 11
-1.466250000000001
 21
4.062500000000002
 31
0.0
  0
LINE
  5
148
330
2
100
AcDbEntity
  8
0
100
AcDbLine
 10
1.466250000000001
 20
3.219000000000017
 30
0.0
 11
1.466249999999997
 21
4.062500000000002
 31
0.0
  0
ARC
  5
149
330
2
100
AcDbEntity
  8
0
100
AcDbCircle
 10
-1.668279761904755
 20
2.582500000000001
 30
0.0
 40
0.3989386227169419
100
AcDbArc
 50
300.4255380837888
 51
59.57446191621243
  0
LINE
  5
14A
330
2
100
AcDbEntity
  8
0
100
AcDbLine
 10
-1.466250000000001
 20
2.062499999999998
 30
0.0
 11
-1.466250000000001
 21
2.238500000000011
 31
0.0
  0
LINE
  5
14B
330
2
100
AcDbEntity
  8
0
100
AcDbLine
 10
1.466250000000001
 20
2.062499999999998
 30
0.0
 11
1.466250000000001
 21
2.530999999999983
 31
0.0
  0
ARC
  5
14C
330
2
100
AcDbEntity
  8
0
100
AcDbCircle
 10
1.668279761904751
 20
2.874999999999998
 30
0.0
 40
0.3989386227169419
100
AcDbArc
 50
120.4255380837876
 51
239.5744619162138
  0
CIRCLE
  5
14D
330
2
100
AcDbEntity
  8
0
100
AcDbCircle
 10
-1.593749999999998
 20
4.750000000000002
 30
0.0
 40
0.0855
  0
ARC
  5
14E
330
2
100
AcDbEntity
  8
0
100
AcDbCircle
 10
-1.407909106288566
 20
5.062500000000005
 30
0.0
 40
0.125
100
AcDbArc
 50
270.0
 51
0.0
  0
ARC
  5
14F
330
2
100
AcDbEntity
  8
0
100
AcDbCircle
 10
-1.407909106288569
 20
5.062500000000005
 30
0.0
 40
0.125
100
AcDbArc
 50
180.0000000000001
 51
269.9999999999999
  0
LINE
  5
150
330
2
100
AcDbEntity
  8
0
100
AcDbLine
 10
-0.8437499999999982
 20
5.187500000000002
 30
0.0
 11
-0.7812499999999982
 21
5.187500000000002
 31
0.0
  0
LINE
  5
151
330
2
100
AcDbEntity
  8
0
100
AcDbLine
 10
0.8437500000000018
 20
5.187500000000002
 30
0.0
 11
0.7812500000000018
 21
5.187500000000002
 31
0.0
  0
LINE
  5
152
330
2
100
AcDbEntity
  8
0
100
AcDbLine
 10
1.407909106288569
 20
4.937500000000002
 30
0.0
 11
1.407909106288566
 21
4.937500000000002
 31
0.0
  0
ARC
  5
153
330
2
100
AcDbEntity
  8
0
100
AcDbCircle
 10
1.407909106288569
 20
5.062500000000002
 30
0.0
 40
0.125
100
AcDbArc
 50
270.0000000000001
 51
0.0
  0
ARC
  5
154
330
2
100
AcDbEntity
  8
0
100
AcDbCircle
 10
1.407909106288566
 20
5.062500000000002
 30
0.0
 40
0.125
100
AcDbArc
 50
180.0
 51
270.0
  0
ARC
  5
155
330
2
100
AcDbEntity
  8
0
100
AcDbCircle
 10
1.907909106288569
 20
5.062500000000002
 30
0.0
 40
0.125
100
AcDbArc
 50
270.0
 51
0.0
  0
ARC
  5
156
330
2
100
AcDbEntity
  8
0
100
AcDbCircle
 10
1.907909106288566
 20
5.062500000000002
 30
0.0
 40
0.125
100
AcDbArc
 50
180.0000000000001
 51
269.9999999999999
  0
LINE
  5
157
330
2
100
AcDbEntity
  8
0
100
AcDbLine
 10
-1.532909106288569
 20
5.500000000000002
 30
0.0
 11
-1.782909106288569
 21
5.499999999999998
 31
0.0
  0
ARC
  5
158
330
2
100
AcDbEntity
  8
0
100
AcDbCircle
 10
-1.907909106288569
 20
5.499858005500419
 30
0.0
 40
0.125
100
AcDbArc
 50
0.0
 51
89.99999999999992
  0
LINE
  5
159
330
2
100
AcDbEntity
  8
0
100
AcDbLine
 10
-2.032909106288569
 20
5.499999999999998
 30
0.0
 11
-2.407909106288569
 21
5.499999999999998
 31
0.0
  0
LINE
  5
15A
330
2
100
AcDbEntity
  8
0
100
AcDbLine
 10
-1.907909106288569
 20
5.624858005500419
 30
0.0
 11
-1.907909106288569
 21
5.624858005500419
 31
0.0
  0
ARC
  5
15B
330
2
100
AcDbEntity
  8
0
100
AcDbCircle
 10
-1.907909106288569
 20
5.499858005500419
 30
0.0
 40
0.125
100
AcDbArc
 50
90.00000000000003
 51
180.0000000000001
  0
LINE
  5
15C
330
2
100
AcDbEntity
  8
0
100
AcDbLine
 10
1.782909106288566
 20
5.500000000000002
 30
0.0
 11
1.532909106288566
 21
5.500000000000002
 31
0.0
  0
ARC
  5
15D
330
2
100
AcDbEntity
  8
0
100
AcDbCircle
 10
-1.407909106288566
 20
5.499858005500419
 30
0.0
 40
0.125
100
AcDbArc
 50
0.0
 51
90.00000000000003
  0
ARC
  5
15E
330
2
100
AcDbEntity
  8
0
100
AcDbCircle
 10
-1.407909106288569
 20
5.499858005500419
 30
0.0
 40
0.125
100
AcDbArc
 50
90.00000000000006
 51
180.0
  0
LINE
  5
15F
330
2
100
AcDbEntity
  8
0
100
AcDbLine
 10
-1.093750000000002
 20
5.437500000000002
 30
0.0
 11
-1.093750000000002
 21
5.500000000000002
 31
0.0
  0
LINE
  5
160
330
2
100
AcDbEntity
  8
0
100
AcDbLine
 10
-1.093750000000002
 20
5.500000000000002
 30
0.0
 11
-1.282909106288569
 21
5.500000000000002
 31
0.0
  0
LINE
  5
161
330
2
100
AcDbEntity
  8
0
100
AcDbLine
 10
1.282909106288566
 20
5.500000000000002
 30
0.0
 11
1.093750000000002
 21
5.500000000000002
 31
0.0
  0
LINE
  5
162
330
2
100
AcDbEntity
  8
0
100
AcDbLine
 10
1.093750000000002
 20
5.437500000000002
 30
0.0
 11
1.093750000000002
 21
5.500000000000002
 31
0.0
  0
ARC
  5
163
330
2
100
AcDbEntity
  8
0
100
AcDbCircle
 10
1.407909106288566
 20
5.499858005500423
 30
0.0
 40
0.125
100
AcDbArc
 50
90.00000000000003
 51
180.0000000000001
  0
ARC
  5
164
330
2
100
AcDbEntity
  8
0
100
AcDbCircle
 10
1.407909106288569
 20
5.499858005500423
 30
0.0
 40
0.125
100
AcDbArc
 50
0.0
 51
89.99999999999992
  0
LINE
  5
165
330
2
100
AcDbEntity
  8
0
100
AcDbLine
 10
1.407909106288569
 20
5.624858005500423
 30
0.0
 11
1.407909106288566
 21
5.624858005500423
 31
0.0
  0
ARC
  5
166
330
2
100
AcDbEntity
  8
0
100
AcDbCircle
 10
1.907909106288569
 20
5.499858005500423
 30
0.0
 40
0.125
100
AcDbArc
 50
0.0
 51
90.00000000000003
  0
LINE
  5
167
330
2
100
AcDbEntity
  8
0
100
AcDbLine
 10
2.407909106288569
 20
5.500000000000002
 30
0.0
 11
2.032909106288566
 21
5.500000000000002
 31
0.0
  0
ARC
  5
168
330
2
100
AcDbEntity
  8
0
100
AcDbCircle
 10
1.907909106288566
 20
5.499858005500423
 30
0.0
 40
0.125
100
AcDbArc
 50
90.00000000000006
 51
180.0
  0
LINE
  5
169
330
2
100
AcDbEntity
  8
0
100
AcDbLine
 10
8.415051965386683
 20
5.203852385507597
 30
0.0
 11
8.415051965386683
 21
5.445509894185284
 31
0.0
  0
LINE
  5
16A
330
2
100
AcDbEntity
  8
0
100
AcDbLine
 10
8.498736393955012
 20
5.418403383953129
 30
0.0
 11
8.498736393955015
 21
0.6898746934459856
 31
0.0
  0
LINE
  5
16B
330
2
100
AcDbEntity
  8
0
100
AcDbLine
 10
8.561236393955012
 20
5.393403383953126
 30
0.0
 11
8.561236393955012
 21
0.8153767014781108
 31
0.0
  0
LINE
  5
16C
330
2
100
AcDbEntity
  8
0
100
AcDbLine
 10
6.687638118632544
 20
0.0651793614731568
 30
0.0
 11
7.686236393955015
 21
2.070396781799394
 31
0.0
  0
LINE
  5
16D
330
2
100
AcDbEntity
  8
0
  6
HIDDEN
100
AcDbLine
 10
8.187638118632544
 20
0.0651793614731551
 30
0.0
 11
6.687638118632544
 21
0.0651793614731568
 31
0.0
  0
LINE
  5
16E
330
2
100
AcDbEntity
  8
0
100
AcDbLine
 10
8.187638118632544
 20
0.002679361473156
 30
0.0
 11
6.687638118632544
 21
0.002679361473156
 31
0.0
  0
LINE
  5
16F
330
2
100
AcDbEntity
  8
0
100
AcDbLine
 10
6.687638118632544
 20
0.065179361473156
 30
0.0
 11
6.687638118632544
 21
0.002679361473156
 31
0.0
  0
LINE
  5
170
330
2
100
AcDbEntity
  8
0
100
AcDbLine
 10
8.187638118632544
 20
0.0651793614731568
 30
0.0
 11
8.561236393955012
 21
0.8153767014781126
 31
0.0
  0
LINE
  5
171
330
2
100
AcDbEntity
  8
0
100
AcDbLine
 10
8.187638118632544
 20
0.0651793614731551
 30
0.0
 11
8.187638118632544
 21
0.0026793614731551
 31
0.0
  0
LINE
  5
172
330
2
100
AcDbEntity
  8
0
100
AcDbLine
 10
7.686236393955012
 20
4.067673869710111
 30
0.0
 11
7.686236393955012
 21
3.177278287184022
 31
0.0
  0
ARC
  5
173
330
2
100
AcDbEntity
  8
0
100
AcDbCircle
 10
7.751117257295034
 20
2.877679361473154
 30
0.0
 40
0.3065437044122916
100
AcDbArc
 50
102.2192338847465
 51
257.7807661152545
  0
LINE
  5
174
330
2
100
AcDbEntity
  8
0
100
AcDbLine
 10
7.686236393955012
 20
2.578080435762287
 30
0.0
 11
7.686236393955015
 21
2.070396781799394
 31
0.0
  0
CIRCLE
  5
175
330
2
100
AcDbEntity
  8
0
100
AcDbCircle
 10
7.811236393955015
 20
2.877679361473154
 30
0.0
 40
0.0855
  0
LINE
  5
176
330
2
100
AcDbEntity
  8
0
100
AcDbLine
 10
8.498736393955015
 20
5.192673869710111
 30
0.0
 11
7.686236393955012
 21
4.067673869710111
 31
0.0
  0
ARC
  5
177
330
2
100
AcDbEntity
  8
0
100
AcDbCircle
 10
8.485051965386683
 20
5.203852385507597
 30
0.0
 40
0.07
100
AcDbArc
 50
180.0
 51
270.0000000000012
  0
LINE
  5
178
330
2
100
AcDbEntity
  8
0
100
AcDbLine
 10
8.498736393955012
 20
5.133852385507597
 30
0.0
 11
8.485051965386683
 21
5.133852385507597
 31
0.0
  0
LINE
  5
179
330
2
100
AcDbEntity
  8
0
100
AcDbLine
 10
8.623736393955012
 20
5.455903383953126
 30
0.0
 11
9.873736393955012
 21
5.455903383953126
 31
0.0
  0
LINE
  5
17A
330
2
100
AcDbEntity
  8
0
100
AcDbLine
 10
8.598736393955013
 20
5.518403383953126
 30
0.0
 11
9.873736393955012
 21
5.518403383953126
 31
0.0
  0
ARC
  5
17B
330
2
100
AcDbEntity
  8
0
100
AcDbCircle
 10
8.575051965386683
 20
5.445509894185284
 30
0.0
 40
0.16
100
AcDbArc
 50
90.0
 51
180.0
  0
ARC
  5
17C
330
2
100
AcDbEntity
  8
0
100
AcDbCircle
 10
8.829403318030272
 20
5.535509894185283
 30
0.0
 40
0.07
100
AcDbArc
 50
0.0
 51
90.0
  0
LINE
  5
17D
330
2
100
AcDbEntity
  8
0
100
AcDbLine
 10
8.575051965386683
 20
5.605509894185284
 30
0.0
 11
8.829403318030272
 21
5.605509894185284
 31
0.0
  0
ARC
  5
17E
330
2
100
AcDbEntity
  8
0
100
AcDbCircle
 10
8.598736393955013
 20
5.418403383953129
 30
0.0
 40
0.1
100
AcDbArc
 50
90.0
 51
180.0
  0
ARC
  5
17F
330
2
100
AcDbEntity
  8
0
100
AcDbCircle
 10
8.623736393955012
 20
5.393403383953126
 30
0.0
 40
0.0625
100
AcDbArc
 50
90.0
 51
180.0
  0
LINE
  5
180
330
2
100
AcDbEntity
  8
0
100
AcDbLine
 10
8.899403318030272
 20
5.535509894185283
 30
0.0
 11
8.899403318030275
 21
5.518403383953126
 31
0.0
  0
LINE
  5
181
330
2
100
AcDbEntity
  8
0
100
AcDbLine
 10
9.873736393955012
 20
5.518403383953126
 30
0.0
 11
9.873736393955012
 21
5.455903383953126
 31
0.0
  0
LINE
  5
191
330
2
100
AcDbEntity
  8
0
  6
HIDDEN
100
AcDbLine
 10
1.113791235432414
 20
10.3060831283439
 30
0.0
 11
2.426291235432414
 21
10.3060831283439
 31
0.0
  0
LINE
  5
192
330
2
100
AcDbEntity
  8
0
  6
HIDDEN
100
AcDbLine
 10
-1.075367870856153
 20
10.30608312834391
 30
0.0
 11
-2.387867870856153
 21
10.30608312834391
 31
0.0
  0
LINE
  5
19B
330
2
100
AcDbEntity
  8
0
100
AcDbLine
 10
-8.415051965386683
 20
5.203852385507597
 30
0.0
 11
-8.415051965386683
 21
5.445509894185284
 31
0.0
  0
LINE
  5
19C
330
2
100
AcDbEntity
  8
0
100
AcDbLine
 10
-8.498736393955012
 20
5.418403383953129
 30
0.0
 11
-8.498736393955015
 21
0.6898746934459856
 31
0.0
  0
LINE
  5
19D
330
2
100
AcDbEntity
  8
0
100
AcDbLine
 10
-8.561236393955012
 20
5.393403383953126
 30
0.0
 11
-8.561236393955012
 21
0.8153767014781108
 31
0.0
  0
LINE
  5
19E
330
2
100
AcDbEntity
  8
0
100
AcDbLine
 10
-6.687638118632544
 20
0.0651793614731568
 30
0.0
 11
-7.686236393955015
 21
2.070396781799394
 31
0.0
  0
LINE
  5
19F
330
2
100
AcDbEntity
  8
0
  6
HIDDEN
100
AcDbLine
 10
-8.187638118632544
 20
0.0651793614731551
 30
0.0
 11
-6.687638118632544
 21
0.0651793614731568
 31
0.0
  0
LINE
  5
1A0
330
2
100
AcDbEntity
  8
0
100
AcDbLine
 10
-8.187638118632544
 20
0.002679361473156
 30
0.0
 11
-6.687638118632544
 21
0.002679361473156
 31
0.0
  0
LINE
  5
1A1
330
2
100
AcDbEntity
  8
0
100
AcDbLine
 10
-6.687638118632544
 20
0.065179361473156
 30
0.0
 11
-6.687638118632544
 21
0.002679361473156
 31
0.0
  0
LINE
  5
1A2
330
2
100
AcDbEntity
  8
0
100
AcDbLine
 10
-8.187638118632544
 20
0.0651793614731568
 30
0.0
 11
-8.561236393955012
 21
0.8153767014781126
 31
0.0
  0
LINE
  5
1A3
330
2
100
AcDbEntity
  8
0
100
AcDbLine
 10
-8.187638118632544
 20
0.0651793614731551
 30
0.0
 11
-8.187638118632544
 21
0.0026793614731551
 31
0.0
  0
LINE
  5
1A4
330
2
100
AcDbEntity
  8
0
100
AcDbLine
 10
-7.686236393955012
 20
4.067673869710111
 30
0.0
 11
-7.686236393955012
 21
3.177278287184022
 31
0.0
  0
ARC
  5
1A5
330
2
100
AcDbEntity
  8
0
100
AcDbCircle
 10
-7.751117257295034
 20
2.877679361473154
 30
0.0
 40
0.3065437044122916
100
AcDbArc
 50
282.2192338847455
 51
77.78076611525351
  0
LINE
  5
1A6
330
2
100
AcDbEntity
  8
0
100
AcDbLine
 10
-7.686236393955012
 20
2.578080435762287
 30
0.0
 11
-7.686236393955015
 21
2.070396781799394
 31
0.0
  0
CIRCLE
  5
1A7
330
2
100
AcDbEntity
  8
0
100
AcDbCircle
 10
-7.811236393955015
 20
2.877679361473154
 30
0.0
 40
0.0855
  0
LINE
  5
1A8
330
2
100
AcDbEntity
  8
0
100
AcDbLine
 10
-8.498736393955015
 20
5.192673869710111
 30
0.0
 11
-7.686236393955012
 21
4.067673869710111
 31
0.0
  0
ARC
  5
1A9
330
2
100
AcDbEntity
  8
0
100
AcDbCircle
 10
-8.485051965386683
 20
5.203852385507597
 30
0.0
 40
0.07
100
AcDbArc
 50
269.9999999999988
 51
0.000000000000007
  0
LINE
  5
1AA
330
2
100
AcDbEntity
  8
0
100
AcDbLine
 10
-8.498736393955012
 20
5.133852385507597
 30
0.0
 11
-8.485051965386683
 21
5.133852385507597
 31
0.0
  0
LINE
  5
1AB
330
2
100
AcDbEntity
  8
0
100
AcDbLine
 10
-8.623736393955012
 20
5.455903383953126
 30
0.0
 11
-9.873736393955012
 21
5.455903383953126
 31
0.0
  0
LINE
  5
1AC
330
2
100
AcDbEntity
  8
0
100
AcDbLine
 10
-8.598736393955013
 20
5.518403383953126
 30
0.0
 11
-9.873736393955012
 21
5.518403383953126
 31
0.0
  0
ARC
  5
1AD
330
2
100
AcDbEntity
  8
0
100
AcDbCircle
 10
-8.575051965386683
 20
5.445509894185284
 30
0.0
 40
0.16
100
AcDbArc
 50
0.000000000000007
 51
90.0
  0
ARC
  5
1AE
330
2
100
AcDbEntity
  8
0
100
AcDbCircle
 10
-8.829403318030272
 20
5.535509894185283
 30
0.0
 40
0.07
100
AcDbArc
 50
90.0
 51
180.0
  0
LINE
  5
1AF
330
2
100
AcDbEntity
  8
0
100
AcDbLine
 10
-8.575051965386683
 20
5.605509894185284
 30
0.0
 11
-8.829403318030272
 21
5.605509894185284
 31
0.0
  0
ARC
  5
1B0
330
2
100
AcDbEntity
  8
0
100
AcDbCircle
 10
-8.598736393955013
 20
5.418403383953129
 30
0.0
 40
0.1
100
AcDbArc
 50
0.000000000000007
 51
90.0
  0
ARC
  5
1B1
330
2
100
AcDbEntity
  8
0
100
AcDbCircle
 10
-8.623736393955012
 20
5.393403383953126
 30
0.0
 40
0.0625
100
AcDbArc
 50
0.000000000000007
 51
90.0
  0
LINE
  5
1B2
330
2
100
AcDbEntity
  8
0
100
AcDbLine
 10
-8.899403318030272
 20
5.535509894185283
 30
0.0
 11
-8.899403318030275
 21
5.518403383953126
 31
0.0
  0
LINE
  5
1B3
330
2
100
AcDbEntity
  8
0
100
AcDbLine
 10
-9.873736393955012
 20
5.518403383953126
 30
0.0
 11
-9.873736393955012
 21
5.455903383953126
 31
0.0
  0
LINE
  5
1BA
330
2
100
AcDbEntity
  8
0
  6
HIDDEN
100
AcDbLine
 10
2.40790910628857
 20
5.455903383953127
 30
0.0
 11
1.093750000000002
 21
5.455903383953126
 31
0.0
  0
LINE
  5
1BB
330
2
100
AcDbEntity
  8
0
  6
HIDDEN
100
AcDbLine
 10
-1.093750000000002
 20
5.455903383953126
 30
0.0
 11
-2.407909106288569
 21
5.455903383953126
 31
0.0
  0
ENDSEC
  0
SECTION
  2
OBJECTS
  0
DICTIONARY
  5
7
330
0
100
AcDbDictionary
281
     1
  3
ACAD_COLOR
350
DF
  3
ACAD_GROUP
350
1F
  3
ACAD_LAYOUT
350
B
  3
ACAD_MATERIAL
350
DE
  3
ACAD_MLINESTYLE
350
20
  3
ACAD_PLOTSETTINGS
350
21
  3
ACAD_PLOTSTYLENAME
350
6
  3
ACAD_TABLESTYLE
350
E0
  3
ACDBHEADERROUNDTRIPXREC
350
1C7
  3
AcDbVariableDictionary
350
DA
  0
DICTIONARY
  5
E7
330
2
100
AcDbDictionary
280
     1
281
     1
  3
ACAD_SORTENTS
360
E8
  0
DICTIONARY
  5
DF
102
{ACAD_REACTORS
330
7
102
}
330
7
100
AcDbDictionary
281
     1
  0
DICTIONARY
  5
1F
102
{ACAD_REACTORS
330
7
102
}
330
7
100
AcDbDictionary
281
     1
  0
DICTIONARY
  5
B
102
{ACAD_REACTORS
330
7
102
}
330
7
100
AcDbDictionary
281
     1
  3
Layout1
350
F
  3
Model
350
A
  0
DICTIONARY
  5
DE
102
{ACAD_REACTORS
330
7
102
}
330
7
100
AcDbDictionary
281
     1
  0
DICTIONARY
  5
20
102
{ACAD_REACTORS
330
7
102
}
330
7
100
AcDbDictionary
281
     1
  3
Standard
350
23
  0
DICTIONARY
  5
21
102
{ACAD_REACTORS
330
7
102
}
330
7
100
AcDbDictionary
281
     1
  0
ACDBDICTIONARYWDFLT
  5
6
102
{ACAD_REACTORS
330
7
102
}
330
7
100
AcDbDictionary
281
     1
  3
Normal
350
5
100
AcDbDictionaryWithDefault
340
5
  0
DICTIONARY
  5
E0
102
{ACAD_REACTORS
330
7
102
}
330
7
100
AcDbDictionary
281
     1
  3
Standard
350
E1
  0
DICTIONARY
  5
1C7
102
{ACAD_REACTORS
330
7
102
}
330
7
100
AcDbDictionary
281
     1
  3
COLORDICT
350
1C8
  3
MATERIALDICT
350
1C9
  0
DICTIONARY
  5
DA
102
{ACAD_REACTORS
330
7
102
}
330
7
100
AcDbDictionary
281
     1
  3
CTABLESTYLE
350
189
  3
DIMASSOC
350
DC
  3
HIDETEXT
350
DB
  0
SORTENTSTABLE
  5
E8
102
{ACAD_REACTORS
330
E7
102
}
330
E7
100
AcDbSortentsTable
330
2
331
127
  5
107
331
177
  5
FA
331
10E
  5
16B
331
16F
  5
F2
331
168
  5
148
331
169
  5
EC
331
14D
  5
12D
331
EF
  5
14C
331
148
  5
128
331
115
  5
172
331
F8
  5
155
331
10D
  5
16A
331
126
  5
106
331
11D
  5
17A
331
152
  5
132
331
125
  5
105
331
14E
  5
12E
331
137
  5
117
331
160
  5
140
331
151
  5
131
331
163
  5
143
331
10B
  5
168
331
157
  5
137
331
108
  5
165
331
167
  5
147
331
12E
  5
10E
331
166
  5
146
331
146
  5
126
331
170
  5
F3
331
180
  5
103
331
114
  5
171
331
121
  5
17E
331
100
  5
15D
331
16E
  5
F1
331
13B
  5
11B
331
105
  5
162
331
140
  5
120
331
17E
  5
101
331
F5
  5
152
331
109
  5
166
331
139
  5
119
331
11A
  5
177
331
132
  5
112
331
101
  5
15E
331
145
  5
125
331
F0
  5
14D
331
FD
  5
15A
331
156
  5
136
331
174
  5
F7
331
104
  5
161
331
135
  5
115
331
13F
  5
11F
331
16C
  5
EF
331
130
  5
110
331
14C
  5
12C
331
12F
  5
10F
331
FA
  5
157
331
119
  5
176
331
117
  5
174
331
13C
  5
11C
331
134
  5
114
331
16A
  5
ED
331
147
  5
127
331
14F
  5
12F
331
118
  5
175
331
12B
  5
10B
331
17D
  5
100
331
11E
  5
17B
331
150
  5
130
331
162
  5
142
331
158
  5
138
331
155
  5
135
331
15E
  5
13E
331
16B
  5
EE
331
171
  5
F4
331
179
  5
FC
331
F6
  5
153
331
165
  5
145
331
F4
  5
151
331
15C
  5
13C
331
141
  5
121
331
EC
  5
149
331
10A
  5
167
331
138
  5
118
331
ED
  5
14A
331
154
  5
134
331
EE
  5
14B
331
13D
  5
11D
331
F1
  5
14E
331
106
  5
163
331
161
  5
141
331
131
  5
111
331
172
  5
F5
331
175
  5
F8
331
15A
  5
13A
331
128
  5
108
331
14A
  5
12A
331
17B
  5
FE
331
122
  5
17F
331
181
  5
104
331
11B
  5
178
331
14B
  5
12B
331
111
  5
16E
331
110
  5
16D
331
17A
  5
FD
331
11F
  5
17C
331
176
  5
F9
331
12A
  5
10A
331
153
  5
133
331
16D
  5
F0
331
15B
  5
13B
331
17F
  5
102
331
129
  5
109
331
12C
  5
10C
331
178
  5
FB
331
143
  5
123
331
10C
  5
169
331
17C
  5
FF
331
120
  5
17D
331
116
  5
173
331
12D
  5
10D
331
FF
  5
15C
331
13E
  5
11E
331
112
  5
16F
331
F2
  5
14F
331
173
  5
F6
331
11C
  5
179
331
F9
  5
156
331
F7
  5
154
331
13A
  5
11A
331
FB
  5
158
331
144
  5
124
331
FC
  5
159
331
10F
  5
16C
331
103
  5
160
331
107
  5
164
331
102
  5
15F
331
F3
  5
150
331
159
  5
139
331
15F
  5
13F
331
164
  5
144
331
149
  5
129
331
133
  5
113
331
123
  5
180
331
15D
  5
13D
331
124
  5
181
331
136
  5
116
331
FE
  5
15B
331
142
  5
122
331
113
  5
170
  0
LAYOUT
  5
F
102
{ACAD_REACTORS
330
B
102
}
102
{ACAD_XDICTIONARY
360
1CA
102
}
330
B
100
AcDbPlotSettings
  1

  2
X:\Program Files\AutoCAD2002\plotters\DWF ePlot (optimized for plotting).pc3
  4

  6

 40
0.0
 41
0.0
 42
0.0
 43
0.0
 44
0.0
 45
0.0
 46
0.0
 47
0.0
 48
0.0
 49
0.0
140
0.0
141
0.0
142
1.0
143
1.0
 70
   688
 72
     0
 73
     0
 74
     5
  7

 75
    16
147
1.0
148
0.0
149
0.0
100
AcDbLayout
  1
Layout1
 70
     0
 71
     1
 10
0.0
 20
0.0
 11
12.0
 21
9.0
 12
0.0
 22
0.0
 32
0.0
 14
1.000000000000000E+20
 24
1.000000000000000E+20
 34
1.000000000000000E+20
 15
-1.000000000000000E+20
 25
-1.000000000000000E+20
 35
-1.000000000000000E+20
146
0.0
 13
0.0
 23
0.0
 33
0.0
 16
1.0
 26
0.0
 36
0.0
 17
0.0
 27
1.0
 37
0.0
 76
     0
330
C
  0
LAYOUT
  5
A
102
{ACAD_REACTORS
330
B
102
}
102
{ACAD_XDICTIONARY
360
1CC
102
}
330
B
100
AcDbPlotSettings
  1

  2
X:\Program Files\AutoCAD2002\plotters\DWF ePlot (optimized for plotting).pc3
  4

  6

 40
0.0
 41
0.0
 42
0.0
 43
0.0
 44
0.0
 45
0.0
 46
0.0
 47
0.0
 48
0.0
 49
0.0
140
0.0
141
0.0
142
1.0
143
1.0
 70
  1712
 72
     0
 73
     0
 74
     0
  7

 75
     0
147
1.0
148
0.0
149
0.0
100
AcDbLayout
  1
Model
 70
     1
 71
     0
 10
0.0
 20
0.0
 11
12.0
 21
9.0
 12
0.0
 22
0.0
 32
0.0
 14
0.0
 24
0.0
 34
0.0
 15
0.0
 25
0.0
 35
0.0
146
0.0
 13
0.0
 23
0.0
 33
0.0
 16
1.0
 26
0.0
 36
0.0
 17
0.0
 27
1.0
 37
0.0
 76
     0
330
2
  0
MLINESTYLE
  5
23
102
{ACAD_REACTORS
330
20
102
}
330
20
100
AcDbMlineStyle
  2
STANDARD
 70
     0
  3

 62
   256
 51
90.0
 52
90.0
 71
     2
 49
0.5
 62
   256
  6
BYLAYER
 49
-0.5
 62
   256
  6
BYLAYER
  0
ACDBPLACEHOLDER
  5
5
102
{ACAD_REACTORS
330
6
102
}
330
6
  0
ACAD_PROXY_OBJECT
  5
E1
102
{ACAD_REACTORS
330
E0
102
}
330
E0
100
AcDbProxyObject
 90
      499
 91
      504
 95
   983063
 70
     0
 93
     1841
310
4214DD185B99185C9928B81E85EB51B8AE3F2E07A17AD46E2B8FC02B5E8DC0F42B1CFD028000000C1008070000C3001FDFF8000000C1003FBFF000000182007F7FE00000030400FEFFC00000060801FDFF8000000C1003FBFF00000018200000000000000681FA0B0000001820100E000186003FBFF000000182007F7FE000
310
00030400FEFFC00000060801FDFF8000000C1003FBFF000000182007F7FE000000304000AD7A3703D0AC73F4160000003040201C00030C007F7FE00000030400FEFFC00000060801FDFF8000000C1003FBFF000000182007F7FE00000030400FEFFC000000608000
340
12
340
12
340
12
 94
        0
  0
XRECORD
  5
1C8
102
{ACAD_REACTORS
330
1C7
102
}
330
1C7
100
AcDbXrecord
340
DF
  0
XRECORD
  5
1C9
102
{ACAD_REACTORS
330
1C7
102
}
330
1C7
100
AcDbXrecord
340
DE
  0
DICTIONARYVAR
  5
189
102
{ACAD_REACTORS
330
DA
102
}
330
DA
100
DictionaryVariables
280
     0
  1
STANDARD
  0
DICTIONARYVAR
  5
DC
102
{ACAD_REACTORS
330
DA
102
}
330
DA
100
DictionaryVariables
280
     0
  1
2
  0
DICTIONARYVAR
  5
DB
102
{ACAD_REACTORS
330
DA
102
}
330
DA
100
DictionaryVariables
280
     0
  1
1
  0
DICTIONARY
  5
1CA
330
F
100
AcDbDictionary
280
     1
281
     1
  3
ACAD_XREC_ROUNDTRIP
360
1CB
  0
DICTIONARY
  5
1CC
330
A
100
AcDbDictionary
280
     1
281
     1
  3
ACAD_XREC_ROUNDTRIP
360
1CD
  0
XRECORD
  5
1CB
102
{ACAD_REACTORS
330
1CA
102
}
330
1CA
100
AcDbXrecord
102
SHADEPLOT
 70
     0
102
SHADEPLOTRESLEVEL
 70
     2
102
SHADEPLOTCUSTOMDPI
 70
   300
  0
XRECORD
  5
1CD
102
{ACAD_REACTORS
330
1CC
102
}
330
1CC
100
AcDbXrecord
102
SHADEPLOT
 70
     0
102
SHADEPLOTRESLEVEL
 70
     2
102
SHADEPLOTCUSTOMDPI
 70
   300
  0
ENDSEC
  0
EOF
