  0
SECTION
  2
HEADER
  9
$ACADVER
  1
AC1015
  9
$ACADMAINTVER
 70
     6
  9
$DWGCODEPAGE
  3
ANSI_1252
  9
$INSBASE
 10
0.0
 20
0.0
 30
0.0
  9
$EXTMIN
 10
-13.3135257512814
 20
0.0
 30
0.0
  9
$EXTMAX
 10
16.7570086253412
 20
13.7558077222777
 30
0.0
  9
$LIMMIN
 10
0.0
 20
0.0
  9
$LIMMAX
 10
31.5
 20
24.0
  9
$ORTHOMODE
 70
     0
  9
$REGENMODE
 70
     1
  9
$FILLMODE
 70
     1
  9
$QTEXTMODE
 70
     0
  9
$MIRRTEXT
 70
     1
  9
$LTSCALE
 40
1.0
  9
$ATTMODE
 70
     1
  9
$TEXTSIZE
 40
0.27
  9
$TRACEWID
 40
0.05
  9
$TEXTSTYLE
  7
STANDARD
  9
$CLAYER
  8
0
  9
$CELTYPE
  6
BYLAYER
  9
$CECOLOR
 62
   256
  9
$CELTSCALE
 40
1.0
  9
$DISPSILH
 70
     0
  9
$DIMSCALE
 40
1.0
  9
$DIMASZ
 40
0.375
  9
$DIMEXO
 40
0.0625
  9
$DIMDLI
 40
0.75
  9
$DIMRND
 40
0.0
  9
$DIMDLE
 40
0.0
  9
$DIMEXE
 40
0.18
  9
$DIMTP
 40
0.0
  9
$DIMTM
 40
0.0
  9
$DIMTXT
 40
0.27
  9
$DIMCEN
 40
-0.06
  9
$DIMTSZ
 40
0.0
  9
$DIMTOL
 70
     0
  9
$DIMLIM
 70
     0
  9
$DIMTIH
 70
     1
  9
$DIMTOH
 70
     1
  9
$DIMSE1
 70
     0
  9
$DIMSE2
 70
     0
  9
$DIMTAD
 70
     0
  9
$DIMZIN
 70
     0
  9
$DIMBLK
  1

  9
$DIMASO
 70
     0
  9
$DIMSHO
 70
     0
  9
$DIMPOST
  1

  9
$DIMAPOST
  1

  9
$DIMALT
 70
     0
  9
$DIMALTD
 70
     2
  9
$DIMALTF
 40
25.4
  9
$DIMLFAC
 40
1.0
  9
$DIMTOFL
 70
     0
  9
$DIMTVP
 40
0.0
  9
$DIMTIX
 70
     0
  9
$DIMSOXD
 70
     0
  9
$DIMSAH
 70
     0
  9
$DIMBLK1
  1

  9
$DIMBLK2
  1

  9
$DIMSTYLE
  2
STANDARD
  9
$DIMCLRD
 70
     0
  9
$DIMCLRE
 70
     0
  9
$DIMCLRT
 70
     0
  9
$DIMTFAC
 40
1.0
  9
$DIMGAP
 40
0.09375
  9
$DIMJUST
 70
     0
  9
$DIMSD1
 70
     0
  9
$DIMSD2
 70
     0
  9
$DIMTOLJ
 70
     1
  9
$DIMTZIN
 70
     0
  9
$DIMALTZ
 70
     0
  9
$DIMALTTZ
 70
     0
  9
$DIMUPT
 70
     0
  9
$DIMDEC
 70
     5
  9
$DIMTDEC
 70
     4
  9
$DIMALTU
 70
     5
  9
$DIMALTTD
 70
     2
  9
$DIMTXSTY
  7
STANDARD
  9
$DIMAUNIT
 70
     0
  9
$DIMADEC
 70
     0
  9
$DIMALTRND
 40
0.0
  9
$DIMAZIN
 70
     0
  9
$DIMDSEP
 70
    46
  9
$DIMATFIT
 70
     3
  9
$DIMFRAC
 70
     2
  9
$DIMLDRBLK
  1

  9
$DIMLUNIT
 70
     5
  9
$DIMLWD
 70
    -2
  9
$DIMLWE
 70
    -2
  9
$DIMTMOVE
 70
     2
  9
$LUNITS
 70
     5
  9
$LUPREC
 70
     5
  9
$SKETCHINC
 40
0.1
  9
$FILLETRAD
 40
0.046
  9
$AUNITS
 70
     0
  9
$AUPREC
 70
     0
  9
$MENU
  1
ACAD
  9
$ELEVATION
 40
0.0
  9
$PELEVATION
 40
0.0
  9
$THICKNESS
 40
0.0
  9
$LIMCHECK
 70
     0
  9
$CHAMFERA
 40
0.0
  9
$CHAMFERB
 40
0.0
  9
$CHAMFERC
 40
0.0
  9
$CHAMFERD
 40
0.0
  9
$SKPOLY
 70
     0
  9
$TDCREATE
 40
2450361.941600694
  9
$TDUCREATE
 40
2450362.274934028
  9
$TDUPDATE
 40
2454181.830855671
  9
$TDUUPDATE
 40
2454182.164189005
  9
$TDINDWG
 40
0.8830409028
  9
$TDUSRTIMER
 40
0.0
  9
$USRTIMER
 70
     0
  9
$ANGBASE
 50
0.0
  9
$ANGDIR
 70
     0
  9
$PDMODE
 70
     0
  9
$PDSIZE
 40
0.0
  9
$PLINEWID
 40
0.0
  9
$SPLFRAME
 70
     0
  9
$SPLINETYPE
 70
     6
  9
$SPLINESEGS
 70
     8
  9
$HANDSEED
  5
174
  9
$SURFTAB1
 70
     6
  9
$SURFTAB2
 70
     6
  9
$SURFTYPE
 70
     6
  9
$SURFU
 70
     6
  9
$SURFV
 70
     6
  9
$UCSBASE
  2

  9
$UCSNAME
  2

  9
$UCSORG
 10
0.0
 20
0.0
 30
0.0
  9
$UCSXDIR
 10
1.0
 20
0.0
 30
0.0
  9
$UCSYDIR
 10
0.0
 20
1.0
 30
0.0
  9
$UCSORTHOREF
  2

  9
$UCSORTHOVIEW
 70
     0
  9
$UCSORGTOP
 10
0.0
 20
0.0
 30
0.0
  9
$UCSORGBOTTOM
 10
0.0
 20
0.0
 30
0.0
  9
$UCSORGLEFT
 10
0.0
 20
0.0
 30
0.0
  9
$UCSORGRIGHT
 10
0.0
 20
0.0
 30
0.0
  9
$UCSORGFRONT
 10
0.0
 20
0.0
 30
0.0
  9
$UCSORGBACK
 10
0.0
 20
0.0
 30
0.0
  9
$PUCSBASE
  2

  9
$PUCSNAME
  2

  9
$PUCSORG
 10
0.0
 20
0.0
 30
0.0
  9
$PUCSXDIR
 10
1.0
 20
0.0
 30
0.0
  9
$PUCSYDIR
 10
0.0
 20
1.0
 30
0.0
  9
$PUCSORTHOREF
  2

  9
$PUCSORTHOVIEW
 70
     0
  9
$PUCSORGTOP
 10
0.0
 20
0.0
 30
0.0
  9
$PUCSORGBOTTOM
 10
0.0
 20
0.0
 30
0.0
  9
$PUCSORGLEFT
 10
0.0
 20
0.0
 30
0.0
  9
$PUCSORGRIGHT
 10
0.0
 20
0.0
 30
0.0
  9
$PUCSORGFRONT
 10
0.0
 20
0.0
 30
0.0
  9
$PUCSORGBACK
 10
0.0
 20
0.0
 30
0.0
  9
$USERI1
 70
     0
  9
$USERI2
 70
     0
  9
$USERI3
 70
     0
  9
$USERI4
 70
     0
  9
$USERI5
 70
     0
  9
$USERR1
 40
0.0
  9
$USERR2
 40
0.0
  9
$USERR3
 40
0.0
  9
$USERR4
 40
0.0
  9
$USERR5
 40
0.0
  9
$WORLDVIEW
 70
     1
  9
$SHADEDGE
 70
     3
  9
$SHADEDIF
 70
    70
  9
$TILEMODE
 70
     1
  9
$MAXACTVP
 70
    16
  9
$PINSBASE
 10
0.0
 20
0.0
 30
0.0
  9
$PLIMCHECK
 70
     0
  9
$PEXTMIN
 10
1.000000000000000E+20
 20
1.000000000000000E+20
 30
1.000000000000000E+20
  9
$PEXTMAX
 10
-1.000000000000000E+20
 20
-1.000000000000000E+20
 30
-1.000000000000000E+20
  9
$PLIMMIN
 10
0.0
 20
0.0
  9
$PLIMMAX
 10
12.0
 20
9.0
  9
$UNITMODE
 70
     0
  9
$VISRETAIN
 70
     1
  9
$PLINEGEN
 70
     1
  9
$PSLTSCALE
 70
     0
  9
$TREEDEPTH
 70
  3020
  9
$CMLSTYLE
  2
STANDARD
  9
$CMLJUST
 70
     0
  9
$CMLSCALE
 40
1.0
  9
$PROXYGRAPHICS
 70
     1
  9
$MEASUREMENT
 70
     0
  9
$CELWEIGHT
370
    -1
  9
$ENDCAPS
280
     0
  9
$JOINSTYLE
280
     0
  9
$LWDISPLAY
290
     0
  9
$INSUNITS
 70
     0
  9
$HYPERLINKBASE
  1

  9
$STYLESHEET
  1

  9
$XEDIT
290
     1
  9
$CEPSNTYPE
380
     0
  9
$PSTYLEMODE
290
     1
  9
$FINGERPRINTGUID
  2
{B4B5AE23-2B15-11D4-AFE6-00805F15063D}
  9
$VERSIONGUID
  2
{008E1D9D-0AA6-4D80-9FE5-B1627EF29BB8}
  9
$EXTNAMES
290
     1
  9
$PSVPSCALE
 40
0.0
  9
$OLESTARTUP
290
     0
  0
ENDSEC
  0
SECTION
  2
CLASSES
  0
CLASS
  1
DICTIONARYVAR
  2
AcDbDictionaryVar
  3
AutoCAD 2000
 90
        0
280
     0
281
     0
  0
CLASS
  1
LWPOLYLINE
  2
AcDbPolyline
  3
AutoCAD 2000
 90
        0
280
     0
281
     1
  0
CLASS
  1
ACDBDICTIONARYWDFLT
  2
AcDbDictionaryWithDefault
  3
AutoCAD 2000
 90
        0
280
     0
281
     0
  0
CLASS
  1
ACDBPLACEHOLDER
  2
AcDbPlaceHolder
  3
ObjectDBX Classes
 90
        0
280
     0
281
     0
  0
CLASS
  1
LAYOUT
  2
AcDbLayout
  3
ObjectDBX Classes
 90
        0
280
     0
281
     0
  0
CLASS
  1
LONG_TRANSACTION
  2
AcDbLongTransaction
  3
ObjectDBX Classes
 90
   -65536
280
     1
281
     0
  0
CLASS
  1
LWPOLYLINE
  2
AcDbPolyline
  3
AutoCAD 2000
 90
        0
280
     0
281
     1
  0
CLASS
  1
HATCH
  2
AcDbHatch
  3
AutoCAD 2000
 90
        0
280
     0
281
     1
  0
CLASS
  1
XRECORD
  2
AcDbXrecord
  3
AutoCAD 2000
 90
        0
280
     0
281
     0
  0
CLASS
  1
LONG_TRANSACTION
  2
AcDbLongTransaction
  3
ObjectDBX Classes
 90
   -65536
280
     1
281
     0
  0
CLASS
  1
LWPOLYLINE
  2
AcDbPolyline
  3
AutoCAD 2000
 90
        0
280
     0
281
     1
  0
CLASS
  1
HATCH
  2
AcDbHatch
  3
AutoCAD 2000
 90
        0
280
     0
281
     1
  0
CLASS
  1
XRECORD
  2
AcDbXrecord
  3
AutoCAD 2000
 90
        0
280
     0
281
     0
  0
CLASS
  1
LONG_TRANSACTION
  2
AcDbLongTransaction
  3
ObjectDBX Classes
 90
   -65536
280
     1
281
     0
  0
CLASS
  1
LWPOLYLINE
  2
AcDbPolyline
  3
AutoCAD 2000
 90
        0
280
     0
281
     1
  0
CLASS
  1
HATCH
  2
AcDbHatch
  3
AutoCAD 2000
 90
        0
280
     0
281
     1
  0
CLASS
  1
XRECORD
  2
AcDbXrecord
  3
AutoCAD 2000
 90
        0
280
     0
281
     0
  0
CLASS
  1
LONG_TRANSACTION
  2
AcDbLongTransaction
  3
ObjectDBX Classes
 90
   -65536
280
     1
281
     0
  0
CLASS
  1
LWPOLYLINE
  2
AcDbPolyline
  3
AutoCAD 2000
 90
        0
280
     0
281
     1
  0
CLASS
  1
HATCH
  2
AcDbHatch
  3
AutoCAD 2000
 90
        0
280
     0
281
     1
  0
CLASS
  1
XRECORD
  2
AcDbXrecord
  3
AutoCAD 2000
 90
        0
280
     0
281
     0
  0
CLASS
  1
LONG_TRANSACTION
  2
AcDbLongTransaction
  3
ObjectDBX Classes
 90
   -65536
280
     1
281
     0
  0
CLASS
  1
LWPOLYLINE
  2
AcDbPolyline
  3
AutoCAD 2000
 90
        0
280
     0
281
     1
  0
CLASS
  1
HATCH
  2
AcDbHatch
  3
AutoCAD 2000
 90
        0
280
     0
281
     1
  0
CLASS
  1
XRECORD
  2
AcDbXrecord
  3
AutoCAD 2000
 90
        0
280
     0
281
     0
  0
CLASS
  1
TABLESTYLE
  2
AcDbTableStyle
  3
ObjectDBX Classes
 90
     2047
280
     1
281
     0
  0
CLASS
  1
SORTENTSTABLE
  2
AcDbSortentsTable
  3
AutoCAD 2000
 90
        0
280
     0
281
     0
  0
ENDSEC
  0
SECTION
  2
TABLES
  0
TABLE
  2
VPORT
  5
1D
330
0
100
AcDbSymbolTable
 70
     2
  0
VPORT
  5
166
330
1D
100
AcDbSymbolTableRecord
100
AcDbViewportTableRecord
  2
*Active
 70
     0
 10
0.0
 20
0.0
 11
1.0
 21
1.0
 12
18.02870719867857
 22
7.395876983057359
 13
0.0
 23
0.0
 14
0.0625
 24
0.0625
 15
0.5
 25
0.5
 16
0.0
 26
0.0
 36
1.0
 17
0.0
 27
0.0
 37
0.0
 40
45.325692402403
 41
1.814583333333334
 42
50.0
 43
0.0
 44
0.0
 50
0.0
 51
0.0
 71
     0
 72
  5000
 73
     1
 74
     0
 75
     0
 76
     0
 77
     0
 78
     0
281
     0
 65
     1
110
0.0
120
0.0
130
0.0
111
1.0
121
0.0
131
0.0
112
0.0
122
1.0
132
0.0
 79
     0
146
0.0
  0
ENDTAB
  0
TABLE
  2
LTYPE
  5
18
330
0
100
AcDbSymbolTable
 70
     1
  0
LTYPE
  5
19
330
18
100
AcDbSymbolTableRecord
100
AcDbLinetypeTableRecord
  2
BYBLOCK
 70
     0
  3

 72
    65
 73
     0
 40
0.0
  0
LTYPE
  5
1A
330
18
100
AcDbSymbolTableRecord
100
AcDbLinetypeTableRecord
  2
BYLAYER
 70
     0
  3

 72
    65
 73
     0
 40
0.0
  0
LTYPE
  5
A
330
18
100
AcDbSymbolTableRecord
100
AcDbLinetypeTableRecord
  2
CONTINUOUS
 70
     0
  3
Solid line
 72
    65
 73
     0
 40
0.0
  0
ENDTAB
  0
TABLE
  2
LAYER
  5
14
330
0
100
AcDbSymbolTable
 70
     2
  0
LAYER
  5
6
330
14
100
AcDbSymbolTableRecord
100
AcDbLayerTableRecord
  2
0
 70
     0
 62
     7
  6
CONTINUOUS
370
    -3
390
7
  0
ENDTAB
  0
TABLE
  2
STYLE
  5
15
330
0
100
AcDbSymbolTable
 70
     1
  0
STYLE
  5
16
330
15
100
AcDbSymbolTableRecord
100
AcDbTextStyleTableRecord
  2
STANDARD
 70
     0
 40
0.0
 41
1.0
 50
0.0
 71
     0
 42
0.27
  3
txt
  4

  0
ENDTAB
  0
TABLE
  2
VIEW
  5
1B
330
0
100
AcDbSymbolTable
 70
     0
  0
ENDTAB
  0
TABLE
  2
UCS
  5
1C
330
0
100
AcDbSymbolTable
 70
     0
  0
ENDTAB
  0
TABLE
  2
APPID
  5
1F
330
0
100
AcDbSymbolTable
 70
     1
  0
APPID
  5
20
330
1F
100
AcDbSymbolTableRecord
100
AcDbRegAppTableRecord
  2
ACAD
 70
     0
  0
ENDTAB
  0
TABLE
  2
DIMSTYLE
  5
21
330
0
100
AcDbSymbolTable
 70
     1
100
AcDbDimStyleTable
  0
DIMSTYLE
105
28
330
21
100
AcDbSymbolTableRecord
100
AcDbDimStyleTableRecord
  2
STANDARD
 70
     0
  3

  4

340
16
  0
ENDTAB
  0
TABLE
  2
BLOCK_RECORD
  5
1
330
0
100
AcDbSymbolTable
 70
     0
  0
BLOCK_RECORD
  5
2
102
{ACAD_XDICTIONARY
360
3
102
}
330
1
100
AcDbSymbolTableRecord
100
AcDbBlockTableRecord
  2
*MODEL_SPACE
340
C
  0
BLOCK_RECORD
  5
E
330
1
100
AcDbSymbolTableRecord
100
AcDbBlockTableRecord
  2
*PAPER_SPACE
340
13
  0
ENDTAB
  0
ENDSEC
  0
SECTION
  2
BLOCKS
  0
BLOCK
  5
5
330
2
100
AcDbEntity
  8
0
100
AcDbBlockBegin
  2
*MODEL_SPACE
 70
     0
 10
0.0
 20
0.0
 30
0.0
  3
*MODEL_SPACE
  1

  4

  0
ENDBLK
  5
B
330
2
100
AcDbEntity
  8
0
100
AcDbBlockEnd
  0
BLOCK
  5
11
330
E
100
AcDbEntity
 67
     1
  8
0
100
AcDbBlockBegin
  2
*PAPER_SPACE
 70
     0
 10
0.0
 20
0.0
 30
0.0
  3
*PAPER_SPACE
  1

  4

  0
ENDBLK
  5
12
330
E
100
AcDbEntity
 67
     1
  8
0
100
AcDbBlockEnd
  0
ENDSEC
  0
SECTION
  2
ENTITIES
  0
LINE
  5
CC
330
2
100
AcDbEntity
  8
0
  6
Continuous
100
AcDbLine
 10
16.7570086253412
 20
0.0000000000000018
 30
0.0
 11
16.7570086253412
 21
13.55600000000002
 31
0.0
  0
LINE
  5
CD
330
2
100
AcDbEntity
  8
0
  6
Continuous
100
AcDbLine
 10
16.6870086253412
 20
0.0000000000000018
 30
0.0
 11
16.6870086253412
 21
13.55600000000002
 31
0.0
  0
LINE
  5
CE
330
2
100
AcDbEntity
  8
0
100
AcDbLine
 10
16.6870086253412
 20
0.0000000000000018
 30
0.0
 11
16.7570086253412
 21
0.0000000000000018
 31
0.0
  0
CIRCLE
  5
CF
330
2
100
AcDbEntity
  8
0
100
AcDbCircle
 10
15.49325862534118
 20
12.43475
 30
0.0
 40
0.094
  0
LINE
  5
D0
330
2
100
AcDbEntity
  8
0
100
AcDbLine
 10
15.15575862534118
 20
10.17600000000001
 30
0.0
 11
15.15575862534118
 21
13.30600000000002
 31
0.0
  0
LINE
  5
D1
330
2
100
AcDbEntity
  8
0
  6
Continuous
100
AcDbLine
 10
16.6245086253412
 20
8.260466933412925
 30
0.0
 11
16.6245086253412
 21
10.21620398449446
 31
0.0
  0
ARC
  5
D2
330
2
100
AcDbEntity
  8
0
100
AcDbCircle
 10
16.71850862534119
 20
8.260466933412925
 30
0.0
 40
0.094
100
AcDbArc
 50
180.0
 51
250.4209928337725
  0
LINE
  5
D3
330
2
100
AcDbEntity
  8
0
100
AcDbLine
 10
15.15575862534118
 20
10.17600000000001
 30
0.0
 11
15.40575862534118
 21
9.926000000000006
 31
0.0
  0
ARC
  5
D4
330
2
100
AcDbEntity
  8
0
100
AcDbCircle
 10
16.38700778874574
 20
9.926000000000006
 30
0.0
 40
0.375
100
AcDbArc
 50
36.86968460803183
 51
180.0
  0
LINE
  5
D5
330
2
100
AcDbEntity
  8
0
100
AcDbLine
 10
16.01200778874574
 20
9.926000000000006
 30
0.0
 11
15.40575862534118
 21
9.926000000000006
 31
0.0
  0
CIRCLE
  5
D6
330
2
100
AcDbEntity
  8
0
100
AcDbCircle
 10
15.82763362534118
 20
10.42600000000001
 30
0.0
 40
0.094
  0
CIRCLE
  5
D7
330
2
100
AcDbEntity
  8
0
100
AcDbCircle
 10
15.49325862534118
 20
11.60475
 30
0.0
 40
0.094
  0
CIRCLE
  5
D8
330
2
100
AcDbEntity
  8
0
100
AcDbCircle
 10
16.19325862534118
 20
11.26100000000001
 30
0.0
 40
0.094
  0
CIRCLE
  5
D9
330
2
100
AcDbEntity
  8
0
100
AcDbCircle
 10
15.49325862534118
 20
10.77475
 30
0.0
 40
0.094
  0
CIRCLE
  5
DA
330
2
100
AcDbEntity
  8
0
100
AcDbCircle
 10
16.19325862534118
 20
12.09100000000001
 30
0.0
 40
0.094
  0
LINE
  5
DB
330
2
100
AcDbEntity
  8
0
100
AcDbLine
 10
15.15575862534118
 20
13.30600000000002
 30
0.0
 11
15.40575862534118
 21
13.55600000000002
 31
0.0
  0
CIRCLE
  5
DC
330
2
100
AcDbEntity
  8
0
100
AcDbCircle
 10
16.19325862534118
 20
12.93100000000001
 30
0.0
 40
0.094
  0
CIRCLE
  5
DD
330
2
100
AcDbEntity
  8
0
100
AcDbCircle
 10
15.49325862534118
 20
13.27475
 30
0.0
 40
0.094
  0
ARC
  5
DE
330
2
100
AcDbEntity
  8
0
100
AcDbCircle
 10
16.71850862534119
 20
13.21743505208042
 30
0.0
 40
0.094
100
AcDbArc
 50
109.5790071662274
 51
180.0
  0
LINE
  5
DF
330
2
100
AcDbEntity
  8
0
100
AcDbLine
 10
15.40575862534118
 20
13.55600000000002
 30
0.0
 11
16.7570086253412
 21
13.55600000000002
 31
0.0
  0
LINE
  5
E0
330
2
100
AcDbEntity
  8
0
  6
Continuous
100
AcDbLine
 10
-13.3135257512814
 20
0.1998077222776882
 30
0.0
 11
-13.3135257512814
 21
13.7558077222777
 31
0.0
  0
LINE
  5
E1
330
2
100
AcDbEntity
  8
0
  6
Continuous
100
AcDbLine
 10
-13.2435257512814
 20
0.1998077222776882
 30
0.0
 11
-13.2435257512814
 21
13.7558077222777
 31
0.0
  0
LINE
  5
E2
330
2
100
AcDbEntity
  8
0
100
AcDbLine
 10
-13.2435257512814
 20
0.1998077222776882
 30
0.0
 11
-13.3135257512814
 21
0.1998077222776882
 31
0.0
  0
CIRCLE
  5
E3
330
2
100
AcDbEntity
  8
0
100
AcDbCircle
 10
-12.01554774637735
 20
12.29251604911448
 30
0.0
 40
0.094
  0
LINE
  5
E4
330
2
100
AcDbEntity
  8
0
100
AcDbLine
 10
-11.71227575128139
 20
10.37580772227769
 30
0.0
 11
-11.71227575128139
 21
13.5058077222777
 31
0.0
  0
LINE
  5
E5
330
2
100
AcDbEntity
  8
0
  6
Continuous
100
AcDbLine
 10
-13.18102575128141
 20
8.460274655690611
 30
0.0
 11
-13.1810257512814
 21
10.41601170677214
 31
0.0
  0
ARC
  5
E6
330
2
100
AcDbEntity
  8
0
100
AcDbCircle
 10
-13.2750257512814
 20
8.460274655690611
 30
0.0
 40
0.094
100
AcDbArc
 50
289.5790071662275
 51
0.0000000000000064
  0
LINE
  5
E7
330
2
100
AcDbEntity
  8
0
100
AcDbLine
 10
-11.71227575128139
 20
10.37580772227769
 30
0.0
 11
-11.96227575128139
 21
10.12580772227769
 31
0.0
  0
ARC
  5
E8
330
2
100
AcDbEntity
  8
0
100
AcDbCircle
 10
-12.94352491468594
 20
10.12580772227769
 30
0.0
 40
0.375
100
AcDbArc
 50
0.0000000000000064
 51
143.1303153919682
  0
LINE
  5
E9
330
2
100
AcDbEntity
  8
0
100
AcDbLine
 10
-12.56852491468594
 20
10.12580772227769
 30
0.0
 11
-11.96227575128139
 21
10.12580772227769
 31
0.0
  0
CIRCLE
  5
EB
330
2
100
AcDbEntity
  8
0
100
AcDbCircle
 10
-12.01554774637735
 20
11.46251604911448
 30
0.0
 40
0.094
  0
CIRCLE
  5
EC
330
2
100
AcDbEntity
  8
0
100
AcDbCircle
 10
-12.79244220857563
 20
11.80189955144099
 30
0.0
 40
0.094
  0
CIRCLE
  5
ED
330
2
100
AcDbEntity
  8
0
100
AcDbCircle
 10
-12.01554774637735
 20
10.63251604911448
 30
0.0
 40
0.094
  0
CIRCLE
  5
EE
330
2
100
AcDbEntity
  8
0
100
AcDbCircle
 10
-12.79244220857563
 20
12.63189955144098
 30
0.0
 40
0.094
  0
LINE
  5
EF
330
2
100
AcDbEntity
  8
0
100
AcDbLine
 10
-11.71227575128139
 20
13.5058077222777
 30
0.0
 11
-11.96227575128139
 21
13.7558077222777
 31
0.0
  0
CIRCLE
  5
F0
330
2
100
AcDbEntity
  8
0
100
AcDbCircle
 10
-12.79244220857563
 20
13.47189955144099
 30
0.0
 40
0.094
  0
CIRCLE
  5
F1
330
2
100
AcDbEntity
  8
0
100
AcDbCircle
 10
-12.01554774637735
 20
13.13251604911448
 30
0.0
 40
0.094
  0
LINE
  5
F3
330
2
100
AcDbEntity
  8
0
100
AcDbLine
 10
-11.96227575128139
 20
13.7558077222777
 30
0.0
 11
-13.3135257512814
 21
13.7558077222777
 31
0.0
  0
LINE
  5
F5
330
2
100
AcDbEntity
  8
0
100
AcDbLine
 10
1.499999999999989
 20
0.25
 30
0.0
 11
1.500000000000011
 21
5.702685123634343
 31
0.0
  0
LINE
  5
F6
330
2
100
AcDbEntity
  8
0
100
AcDbLine
 10
-1.500000000000011
 20
5.702685123634343
 30
0.0
 11
-1.499999999999989
 21
0.25
 31
0.0
  0
LINE
  5
F7
330
2
100
AcDbEntity
  8
0
100
AcDbLine
 10
1.249999999999989
 20
0.0
 30
0.0
 11
-1.249999999999989
 21
0.0
 31
0.0
  0
LWPOLYLINE
  5
F8
330
2
100
AcDbEntity
  8
0
100
AcDbPolyline
 90
        6
 70
   129
 43
0.0
 10
-0.0449951740593306
 20
0.2852232035650584
 10
-0.1779951740593297
 20
0.2084356177628397
 10
-0.3109951740593289
 20
0.2852232035650584
 10
-0.3109951740593289
 20
0.4387983751694975
 10
-0.1779951740593297
 20
0.5155859609717179
 10
-0.0449951740593306
 20
0.4387983751694993
  0
LINE
  5
F9
330
2
100
AcDbEntity
  8
0
100
AcDbLine
 10
-1.499999999999989
 20
0.25
 30
0.0
 11
-1.249999999999989
 21
0.0
 31
0.0
  0
CIRCLE
  5
FA
330
2
100
AcDbEntity
  8
0
100
AcDbCircle
 10
-0.5625000000000036
 20
0.5360000000000049
 30
0.0
 40
0.094
  0
LINE
  5
FB
330
2
100
AcDbEntity
  8
0
100
AcDbLine
 10
1.249999999999989
 20
0.0
 30
0.0
 11
1.499999999999989
 21
0.25
 31
0.0
  0
CIRCLE
  5
FC
330
2
100
AcDbEntity
  8
0
100
AcDbCircle
 10
0.9374999999999965
 20
0.5360000000000049
 30
0.0
 40
0.094
  0
CIRCLE
  5
FD
330
2
100
AcDbEntity
  8
0
100
AcDbCircle
 10
-0.5625000000000036
 20
2.166
 30
0.0
 40
0.094
  0
CIRCLE
  5
FE
330
2
100
AcDbEntity
  8
0
100
AcDbCircle
 10
-0.9375000000000036
 20
1.351000000000003
 30
0.0
 40
0.094
  0
CIRCLE
  5
FF
330
2
100
AcDbEntity
  8
0
100
AcDbCircle
 10
-0.9375000000000036
 20
2.980999999999998
 30
0.0
 40
0.094
  0
CIRCLE
  5
100
330
2
100
AcDbEntity
  8
0
100
AcDbCircle
 10
0.9374999999999965
 20
2.166
 30
0.0
 40
0.094
  0
CIRCLE
  5
101
330
2
100
AcDbEntity
  8
0
100
AcDbCircle
 10
0.5624999999999965
 20
1.351000000000003
 30
0.0
 40
0.094
  0
LWPOLYLINE
  5
102
330
2
100
AcDbEntity
  8
0
100
AcDbPolyline
 90
        6
 70
   129
 43
0.0
 10
0.6436428773640941
 20
2.314593888981937
 10
0.510642877364095
 20
2.237806303179719
 10
0.3776428773640959
 20
2.314593888981937
 10
0.3776428773640959
 20
2.468169060586376
 10
0.510642877364095
 20
2.544956646388597
 10
0.6436428773640941
 20
2.468169060586378
  0
CIRCLE
  5
103
330
2
100
AcDbEntity
  8
0
100
AcDbCircle
 10
0.5624999999999965
 20
2.980999999999998
 30
0.0
 40
0.094
  0
LWPOLYLINE
  5
104
330
2
100
AcDbEntity
  8
0
100
AcDbPolyline
 90
        6
 70
   129
 43
0.0
 10
-0.9686065180939423
 20
3.612188981970283
 10
-1.101606518093941
 20
3.535401396168064
 10
-1.234606518093941
 20
3.612188981970283
 10
-1.234606518093941
 20
3.765764153574722
 10
-1.101606518093941
 20
3.842551739376942
 10
-0.9686065180939423
 20
3.765764153574724
  0
CIRCLE
  5
105
330
2
100
AcDbEntity
  8
0
100
AcDbCircle
 10
-0.5625000000000036
 20
3.79600000000001
 30
0.0
 40
0.094
  0
CIRCLE
  5
106
330
2
100
AcDbEntity
  8
0
100
AcDbCircle
 10
-0.9375000000000036
 20
4.611000000000008
 30
0.0
 40
0.094
  0
CIRCLE
  5
107
330
2
100
AcDbEntity
  8
0
100
AcDbCircle
 10
0.9374999999999965
 20
3.79600000000001
 30
0.0
 40
0.094
  0
CIRCLE
  5
108
330
2
100
AcDbEntity
  8
0
100
AcDbCircle
 10
0.5624999999999965
 20
4.611000000000008
 30
0.0
 40
0.094
  0
LWPOLYLINE
  5
109
330
2
100
AcDbEntity
  8
0
100
AcDbPolyline
 90
        6
 70
   129
 43
0.0
 10
1.222027038656329
 20
4.746292272190372
 10
1.089027038656329
 20
4.669504686388153
 10
0.9560270386563303
 20
4.746292272190372
 10
0.9560270386563303
 20
4.899867443794811
 10
1.089027038656329
 20
4.976655029597032
 10
1.222027038656329
 20
4.899867443794813
  0
ARC
  5
10A
330
2
100
AcDbEntity
  8
0
100
AcDbCircle
 10
-1.604204221577357
 20
7.321186510404072
 30
0.0
 40
0.03125
100
AcDbArc
 50
150.0000000000007
 51
270.0000000000025
  0
LINE
  5
10B
330
2
100
AcDbEntity
  8
0
100
AcDbLine
 10
-1.631267515446387
 20
7.336811510371323
 30
0.0
 11
-1.537303759379549
 21
7.499561510404089
 31
0.0
  0
LINE
  5
10C
330
2
100
AcDbEntity
  8
0
100
AcDbLine
 10
-1.54030530491324
 20
8.037651347620646
 30
0.0
 11
-2.633159131723932
 21
8.672313886025865
 31
0.0
  0
LINE
  5
10D
330
2
100
AcDbEntity
  8
0
100
AcDbLine
 10
-1.41455088088944
 20
8.251234817825262
 30
0.0
 11
-2.446517481614675
 21
8.851185775768965
 31
0.0
  0
ARC
  5
10E
330
2
100
AcDbEntity
  8
0
100
AcDbCircle
 10
-1.545934110758184
 20
9.924309654923714
 30
0.0
 40
0.5560894224482381
100
AcDbArc
 50
130.0957703674169
 51
280.2276294138919
  0
ARC
  5
10F
330
2
100
AcDbEntity
  8
0
100
AcDbCircle
 10
-1.552591344970288
 20
9.927246985972051
 30
0.0
 40
0.7963400817516647
100
AcDbArc
 50
131.7116424785744
 51
274.2972347794027
  0
LINE
  5
110
330
2
100
AcDbEntity
  8
0
100
AcDbLine
 10
-1.624999999999996
 20
10.21620398449447
 30
0.0
 11
-1.554999999999998
 21
10.21620398449447
 31
0.0
  0
LINE
  5
111
330
2
100
AcDbEntity
  8
0
100
AcDbLine
 10
-3.375000000000018
 20
13.55600000000002
 30
0.0
 11
-1.554999999999989
 21
13.556
 31
0.0
  0
ARC
  5
112
330
2
100
AcDbEntity
  8
0
100
AcDbCircle
 10
-1.324999163404554
 20
9.926000000000009
 30
0.0
 40
0.3749999999999953
100
AcDbArc
 50
129.2966454103572
 51
270.0000000000002
  0
ARC
  5
113
330
2
100
AcDbEntity
  8
0
100
AcDbCircle
 10
-2.300000000000008
 20
5.702685123634343
 30
0.0
 40
0.7999999999999961
100
AcDbArc
 50
0.000000000000007
 51
59.99999999999996
  0
LINE
  5
114
330
2
100
AcDbEntity
  8
0
100
AcDbLine
 10
-3.000000000000011
 20
13.18192000000001
 30
0.0
 11
-2.99917696079917
 21
9.243500000000012
 31
0.0
  0
LINE
  5
115
330
2
100
AcDbEntity
  8
0
100
AcDbLine
 10
-2.751840000000012
 20
13.18192000000001
 30
0.0
 11
-2.749127504622601
 21
9.37644041208836
 31
0.0
  0
LINE
  5
116
330
2
100
AcDbEntity
  8
0
100
AcDbLine
 10
-3.624999999999989
 20
7.853314876365676
 30
0.0
 11
-3.625000000000018
 21
13.30600000000002
 31
0.0
  0
LINE
  5
117
330
2
100
AcDbEntity
  8
0
  6
Continuous
100
AcDbLine
 10
-1.624999999999996
 20
10.21620398449447
 30
0.0
 11
-1.624999999999989
 21
13.556
 31
0.0
  0
ARC
  5
118
330
2
100
AcDbEntity
  8
0
100
AcDbCircle
 10
-2.166379491482068
 20
9.374293459350916
 30
0.0
 40
0.8430056665942077
100
AcDbArc
 50
188.9255736170672
 51
236.3781751799676
  0
LINE
  5
119
330
2
100
AcDbEntity
  8
0
100
AcDbLine
 10
-1.900000000000009
 20
6.395505446661904
 30
0.0
 11
-3.224999999999977
 21
7.160494553338129
 31
0.0
  0
ARC
  5
11A
330
2
100
AcDbEntity
  8
0
100
AcDbCircle
 10
-2.824999999999985
 20
7.853314876365676
 30
0.0
 40
0.7999999999999996
100
AcDbArc
 50
180.0
 51
239.9999999999995
  0
LWPOLYLINE
  5
11B
330
2
100
AcDbEntity
  8
0
100
AcDbPolyline
 90
        6
 70
   129
 43
0.0
 10
-2.533000000387184
 20
8.099212414090069
 10
-2.400000000387185
 20
8.02242482828785
 10
-2.267000000387186
 20
8.099212414090069
 10
-2.267000000387186
 20
8.252787585694508
 10
-2.400000000387185
 20
8.329575171496728
 10
-2.533000000387184
 20
8.252787585694509
  0
LINE
  5
11C
330
2
100
AcDbEntity
  8
0
100
AcDbLine
 10
-2.333375412898374
 20
8.646450877945387
 30
0.0
 11
-2.331493087202414
 21
8.6483318074464
 31
0.0
  0
ARC
  5
11D
330
2
100
AcDbEntity
  8
0
100
AcDbCircle
 10
-2.137418147332337
 20
9.378551855087839
 30
0.0
 40
0.6117130013233391
100
AcDbArc
 50
178.7178788089256
 51
239.6216401000817
  0
ARC
  5
11E
330
2
100
AcDbEntity
  8
0
100
AcDbCircle
 10
-1.988642326020614
 20
10.44051525323174
 30
0.0
 40
0.1240800000000003
100
AcDbArc
 50
312.9538778771886
 51
139.1233656285803
  0
LINE
  5
11F
330
2
100
AcDbEntity
  8
0
100
AcDbLine
 10
-3.625000000000018
 20
13.30600000000002
 30
0.0
 11
-3.375000000000018
 21
13.55600000000002
 31
0.0
  0
ARC
  5
120
330
2
100
AcDbEntity
  8
0
100
AcDbCircle
 10
-2.875920000000011
 20
13.18192000000001
 30
0.0
 40
0.12408
100
AcDbArc
 50
0.000000000000007
 51
180.0
  0
LINE
  5
121
330
2
100
AcDbEntity
  8
0
100
AcDbLine
 10
2.751840000000026
 20
13.18192000000001
 30
0.0
 11
2.749127504622615
 21
9.37644041208836
 31
0.0
  0
LINE
  5
122
330
2
100
AcDbEntity
  8
0
100
AcDbLine
 10
3.000000000000025
 20
13.18192000000001
 30
0.0
 11
2.999176960799185
 21
9.243500000000012
 31
0.0
  0
LINE
  5
123
330
2
100
AcDbEntity
  8
0
  6
Continuous
100
AcDbLine
 10
1.555000000000007
 20
10.21620398449446
 30
0.0
 11
1.554999999999996
 21
13.556
 31
0.0
  0
LINE
  5
124
330
2
100
AcDbEntity
  8
0
  6
Continuous
100
AcDbLine
 10
-1.554999999999998
 20
10.21620398449447
 30
0.0
 11
-1.554999999999989
 21
13.556
 31
0.0
  0
LINE
  5
125
330
2
100
AcDbEntity
  8
0
  6
Continuous
100
AcDbLine
 10
1.625000000000004
 20
10.21620398449447
 30
0.0
 11
1.624999999999996
 21
13.556
 31
0.0
  0
LINE
  5
126
330
2
100
AcDbEntity
  8
0
100
AcDbLine
 10
3.624999999999996
 20
7.853314876365676
 30
0.0
 11
3.625000000000032
 21
13.30600000000001
 31
0.0
  0
LINE
  5
127
330
2
100
AcDbEntity
  8
0
100
AcDbLine
 10
-0.9247404653604949
 20
8.673927386187167
 30
0.0
 11
-0.9247404653604807
 21
8.861854898790229
 31
0.0
  0
ARC
  5
128
330
2
100
AcDbEntity
  8
0
100
AcDbCircle
 10
-1.118740465360498
 20
8.767891142235088
 30
0.0
 40
0.03125
100
AcDbArc
 50
119.9999999999972
 51
240.0
  0
LINE
  5
129
330
2
100
AcDbEntity
  8
0
100
AcDbLine
 10
1.095740465347395
 20
8.673927386187167
 30
0.0
 11
1.09574046534741
 21
8.861854898790229
 31
0.0
  0
ARC
  5
12A
330
2
100
AcDbEntity
  8
0
100
AcDbCircle
 10
0.9017404653473928
 20
8.767891142235088
 30
0.0
 40
0.03125
100
AcDbArc
 50
119.9999999999972
 51
240.0
  0
LINE
  5
12B
330
2
100
AcDbEntity
  8
0
100
AcDbLine
 10
1.414550880889454
 20
8.251234817825262
 30
0.0
 11
2.44651748161469
 21
8.851185775768965
 31
0.0
  0
ARC
  5
12C
330
2
100
AcDbEntity
  8
0
100
AcDbCircle
 10
2.166379491482083
 20
9.374293459350916
 30
0.0
 40
0.8430056665942077
100
AcDbArc
 50
303.6218248200324
 51
351.0744263829329
  0
LINE
  5
12D
330
2
100
AcDbEntity
  8
0
100
AcDbLine
 10
1.540305304913254
 20
8.037651347620646
 30
0.0
 11
2.633159131723946
 21
8.672313886025865
 31
0.0
  0
ARC
  5
12E
330
2
100
AcDbEntity
  8
0
100
AcDbCircle
 10
2.300000000000015
 20
5.702685123634343
 30
0.0
 40
0.7999999999999961
100
AcDbArc
 50
120.0
 51
180.0
  0
LWPOLYLINE
  5
12F
330
2
100
AcDbEntity
  8
0
100
AcDbPolyline
 90
        6
 70
   129
 43
0.0
 10
-0.1587098498080408
 20
6.638373544417531
 10
-0.0257098498080417
 20
6.561585958615313
 10
0.1072901501919574
 20
6.638373544417531
 10
0.1072901501919574
 20
6.79194871602197
 10
-0.0257098498080417
 20
6.868736301824191
 10
-0.1587098498080408
 20
6.791948716021972
  0
CIRCLE
  5
130
330
2
100
AcDbEntity
  8
0
100
AcDbCircle
 10
-0.5625000000000036
 20
5.426000000000006
 30
0.0
 40
0.094
  0
CIRCLE
  5
131
330
2
100
AcDbEntity
  8
0
100
AcDbCircle
 10
0.9374999999999965
 20
5.426000000000006
 30
0.0
 40
0.094
  0
LINE
  5
132
330
2
100
AcDbEntity
  8
0
100
AcDbLine
 10
-1.389213415087879
 20
7.336811510404072
 30
0.0
 11
-1.483177171643019
 21
7.499561510404089
 31
0.0
  0
LINE
  5
133
330
2
100
AcDbEntity
  8
0
100
AcDbLine
 10
-1.604204221559206
 20
7.289936510404086
 30
0.0
 11
-1.416276708956145
 21
7.289936510404072
 31
0.0
  0
ARC
  5
134
330
2
100
AcDbEntity
  8
0
100
AcDbCircle
 10
-1.416276708956142
 20
7.321186510404072
 30
0.0
 40
0.03125
100
AcDbArc
 50
269.9999999999975
 51
29.99999999999924
  0
ARC
  5
135
330
2
100
AcDbEntity
  8
0
100
AcDbCircle
 10
-1.510240465511286
 20
7.483936510404089
 30
0.0
 40
0.03125
100
AcDbArc
 50
29.99999999999718
 51
150.0
  0
ARC
  5
136
330
2
100
AcDbEntity
  8
0
100
AcDbCircle
 10
-1.472128087640753
 20
8.141322527053408
 30
0.0
 40
0.1240800000000003
100
AcDbArc
 50
236.6699035541805
 51
62.35234670513621
  0
ARC
  5
137
330
2
100
AcDbEntity
  8
0
100
AcDbCircle
 10
-0.9559904653604807
 20
8.673927386169019
 30
0.0
 40
0.03125
100
AcDbArc
 50
240.0000000000007
 51
0.0000000000025076
  0
LINE
  5
138
330
2
100
AcDbEntity
  8
0
100
AcDbLine
 10
-0.9716154653277318
 20
8.646864092299989
 30
0.0
 11
-1.134365465360498
 21
8.740827848366825
 31
0.0
  0
LINE
  5
139
330
2
100
AcDbEntity
  8
0
100
AcDbLine
 10
1.389213415261503
 20
7.336811510371323
 30
0.0
 11
1.483177171328341
 21
7.499561510404089
 31
0.0
  0
LINE
  5
13A
330
2
100
AcDbEntity
  8
0
100
AcDbLine
 10
1.631267515620012
 20
7.336811510404072
 30
0.0
 11
1.537303759064871
 21
7.499561510404089
 31
0.0
  0
LINE
  5
13B
330
2
100
AcDbEntity
  8
0
100
AcDbLine
 10
1.416276709148685
 20
7.289936510404086
 30
0.0
 11
1.604204221751745
 21
7.289936510404072
 31
0.0
  0
ARC
  5
13C
330
2
100
AcDbEntity
  8
0
100
AcDbCircle
 10
1.604204221751749
 20
7.321186510404072
 30
0.0
 40
0.03125
100
AcDbArc
 50
269.9999999999975
 51
29.99999999999924
  0
ARC
  5
13D
330
2
100
AcDbEntity
  8
0
100
AcDbCircle
 10
1.416276709130534
 20
7.321186510404072
 30
0.0
 40
0.03125
100
AcDbArc
 50
150.0000000000007
 51
270.0000000000025
  0
ARC
  5
13E
330
2
100
AcDbEntity
  8
0
100
AcDbCircle
 10
1.510240465196604
 20
7.483936510404089
 30
0.0
 40
0.03125
100
AcDbArc
 50
29.99999999999718
 51
150.0
  0
LINE
  5
13F
330
2
100
AcDbEntity
  8
0
100
AcDbLine
 10
1.048865465380159
 20
8.646864092299989
 30
0.0
 11
0.8861154653473928
 21
8.740827848366825
 31
0.0
  0
ARC
  5
140
330
2
100
AcDbEntity
  8
0
100
AcDbCircle
 10
1.472128087640767
 20
8.141322527053408
 30
0.0
 40
0.1240800000000003
100
AcDbArc
 50
117.6476532948638
 51
303.3300964458195
  0
ARC
  5
141
330
2
100
AcDbEntity
  8
0
100
AcDbCircle
 10
1.06449046534741
 20
8.673927386169019
 30
0.0
 40
0.03125
100
AcDbArc
 50
240.0000000000007
 51
0.0000000000025076
  0
LINE
  5
142
330
2
100
AcDbEntity
  8
0
100
AcDbLine
 10
1.900000000000016
 20
6.395505446661904
 30
0.0
 11
3.224999999999984
 21
7.160494553338129
 31
0.0
  0
ARC
  5
143
330
2
100
AcDbEntity
  8
0
100
AcDbCircle
 10
2.824999999999992
 20
7.853314876365676
 30
0.0
 40
0.7999999999999996
100
AcDbArc
 50
300.0000000000005
 51
0.0
  0
LWPOLYLINE
  5
144
330
2
100
AcDbEntity
  8
0
100
AcDbPolyline
 90
        6
 70
   129
 43
0.0
 10
2.267000000000003
 20
8.099212414197789
 10
2.400000000000002
 20
8.02242482839557
 10
2.533000000000001
 20
8.099212414197789
 10
2.533000000000001
 20
8.252787585802228
 10
2.400000000000002
 20
8.329575171604448
 10
2.267000000000003
 20
8.25278758580223
  0
ARC
  5
145
330
2
100
AcDbEntity
  8
0
100
AcDbCircle
 10
1.545934110758198
 20
9.924309654923714
 30
0.0
 40
0.5560894224482381
100
AcDbArc
 50
259.7723705861081
 51
49.90422963258308
  0
ARC
  5
146
330
2
100
AcDbEntity
  8
0
100
AcDbCircle
 10
1.552591344970303
 20
9.927246985972051
 30
0.0
 40
0.7963400817516647
100
AcDbArc
 50
265.7027652205973
 51
48.28835752142557
  0
ARC
  5
147
330
2
100
AcDbEntity
  8
0
100
AcDbCircle
 10
1.324999163404565
 20
9.926000000000006
 30
0.0
 40
0.375
100
AcDbArc
 50
269.9999999999992
 51
50.70335458964075
  0
LINE
  5
148
330
2
100
AcDbEntity
  8
0
100
AcDbLine
 10
-1.324999163404552
 20
9.551000000000006
 30
0.0
 11
1.324999163404559
 21
9.551000000000006
 31
0.0
  0
ARC
  5
149
330
2
100
AcDbEntity
  8
0
100
AcDbCircle
 10
-1.469957723680466
 20
9.255082194467722
 30
0.0
 40
0.1240800000000003
100
AcDbArc
 50
259.3348356427648
 51
79.42922345646919
  0
ARC
  5
14A
330
2
100
AcDbEntity
  8
0
100
AcDbCircle
 10
-0.9559904653604807
 20
8.861854898790231
 30
0.0
 40
0.03125
100
AcDbArc
 50
359.9999999999975
 51
119.9999999999993
  0
LINE
  5
14B
330
2
100
AcDbEntity
  8
0
100
AcDbLine
 10
-0.9716154653604807
 20
8.888918192658494
 30
0.0
 11
-1.134365465360498
 21
8.794954436103353
 31
0.0
  0
LINE
  5
14C
330
2
100
AcDbEntity
  8
0
100
AcDbLine
 10
1.04886546534741
 20
8.888918192658494
 30
0.0
 11
0.8861154653473928
 21
8.794954436103353
 31
0.0
  0
ARC
  5
14D
330
2
100
AcDbEntity
  8
0
100
AcDbCircle
 10
1.46995772368048
 20
9.255082194467722
 30
0.0
 40
0.1240800000000003
100
AcDbArc
 50
100.5707765435308
 51
280.6651643572352
  0
ARC
  5
14E
330
2
100
AcDbEntity
  8
0
100
AcDbCircle
 10
1.06449046534741
 20
8.861854898790231
 30
0.0
 40
0.03125
100
AcDbArc
 50
359.9999999999975
 51
119.9999999999993
  0
LINE
  5
14F
330
2
100
AcDbEntity
  8
0
100
AcDbLine
 10
1.625000000000018
 20
10.21620398449446
 30
0.0
 11
1.555000000000007
 21
10.21620398449446
 31
0.0
  0
ARC
  5
150
330
2
100
AcDbEntity
  8
0
100
AcDbCircle
 10
2.137418147332351
 20
9.378551855087839
 30
0.0
 40
0.6117130013233391
100
AcDbArc
 50
300.3783598999183
 51
1.28212119107436
  0
ARC
  5
151
330
2
100
AcDbEntity
  8
0
100
AcDbCircle
 10
1.988642326020628
 20
10.44051525323174
 30
0.0
 40
0.1240800000000003
100
AcDbArc
 50
40.87663437141971
 51
227.0461221228113
  0
LINE
  5
152
330
2
100
AcDbEntity
  8
0
100
AcDbLine
 10
3.375000000000025
 20
13.55600000000002
 30
0.0
 11
1.554999999999996
 21
13.556
 31
0.0
  0
LINE
  5
153
330
2
100
AcDbEntity
  8
0
100
AcDbLine
 10
3.375000000000032
 20
13.55600000000001
 30
0.0
 11
3.625000000000032
 21
13.30600000000001
 31
0.0
  0
ARC
  5
154
330
2
100
AcDbEntity
  8
0
100
AcDbCircle
 10
2.875920000000026
 20
13.18192000000001
 30
0.0
 40
0.12408
100
AcDbArc
 50
0.000000000000007
 51
180.0
  0
CIRCLE
  5
161
330
2
100
AcDbEntity
  8
0
100
AcDbCircle
 10
-12.79244220857563
 20
10.97189955144099
 30
0.0
 40
0.094
  0
ENDSEC
  0
SECTION
  2
OBJECTS
  0
DICTIONARY
  5
9
330
0
100
AcDbDictionary
281
     1
  3
ACAD_COLOR
350
C0
  3
ACAD_GROUP
350
23
  3
ACAD_LAYOUT
350
D
  3
ACAD_MATERIAL
350
BF
  3
ACAD_MLINESTYLE
350
24
  3
ACAD_PLOTSETTINGS
350
25
  3
ACAD_PLOTSTYLENAME
350
8
  3
ACAD_TABLESTYLE
350
C1
  3
ACDBHEADERROUNDTRIPXREC
350
16D
  3
AcDbVariableDictionary
350
BB
  0
DICTIONARY
  5
3
330
2
100
AcDbDictionary
280
     1
281
     1
  3
ACAD_SORTENTS
360
C8
  0
DICTIONARY
  5
C0
102
{ACAD_REACTORS
330
9
102
}
330
9
100
AcDbDictionary
281
     1
  0
DICTIONARY
  5
23
102
{ACAD_REACTORS
330
9
102
}
330
9
100
AcDbDictionary
281
     1
  0
DICTIONARY
  5
D
102
{ACAD_REACTORS
330
9
102
}
330
9
100
AcDbDictionary
281
     1
  3
Layout1
350
13
  3
Model
350
C
  0
DICTIONARY
  5
BF
102
{ACAD_REACTORS
330
9
102
}
330
9
100
AcDbDictionary
281
     1
  0
DICTIONARY
  5
24
102
{ACAD_REACTORS
330
9
102
}
330
9
100
AcDbDictionary
281
     1
  3
STANDARD
350
27
  0
DICTIONARY
  5
25
102
{ACAD_REACTORS
330
9
102
}
330
9
100
AcDbDictionary
281
     1
  0
ACDBDICTIONARYWDFLT
  5
8
102
{ACAD_REACTORS
330
9
102
}
330
9
100
AcDbDictionary
281
     1
  3
Normal
350
7
100
AcDbDictionaryWithDefault
340
7
  0
DICTIONARY
  5
C1
102
{ACAD_REACTORS
330
9
102
}
330
9
100
AcDbDictionary
281
     1
  3
Standard
350
C2
  0
DICTIONARY
  5
16D
102
{ACAD_REACTORS
330
9
102
}
330
9
100
AcDbDictionary
281
     1
  3
COLORDICT
350
16E
  3
MATERIALDICT
350
16F
  0
DICTIONARY
  5
BB
102
{ACAD_REACTORS
330
9
102
}
330
9
100
AcDbDictionary
281
     1
  3
CTABLESTYLE
350
15C
  3
HIDETEXT
350
16C
  0
SORTENTSTABLE
  5
C8
102
{ACAD_REACTORS
330
3
102
}
330
3
100
AcDbSortentsTable
330
2
331
CD
  5
142
331
133
  5
10B
331
D5
  5
14A
331
DF
  5
154
331
131
  5
109
331
10D
  5
E5
331
130
  5
108
331
11B
  5
F3
331
11A
  5
F2
331
141
  5
119
331
DB
  5
150
331
F8
  5
D0
331
10A
  5
E2
331
123
  5
FB
331
13B
  5
113
331
139
  5
111
331
135
  5
10D
331
DA
  5
14F
331
14C
  5
124
331
140
  5
118
331
13C
  5
114
331
F9
  5
D1
331
128
  5
100
331
FD
  5
D5
331
122
  5
FA
331
142
  5
11A
331
D3
  5
148
331
12D
  5
105
331
125
  5
FD
331
E9
  5
136
331
120
  5
F8
331
DD
  5
152
331
101
  5
D9
331
E6
  5
133
331
136
  5
10E
331
13F
  5
117
331
CF
  5
144
331
149
  5
121
331
ED
  5
13A
331
14F
  5
127
331
EB
  5
138
331
145
  5
11D
331
12C
  5
104
331
11D
  5
F5
331
D7
  5
14C
331
126
  5
FE
331
152
  5
12A
331
12B
  5
103
331
FE
  5
D6
331
12E
  5
106
331
11F
  5
F7
331
112
  5
EA
331
E1
  5
12E
331
F3
  5
140
331
110
  5
E8
331
CE
  5
143
331
DC
  5
151
331
146
  5
11E
331
E2
  5
12F
331
EE
  5
13B
331
114
  5
EC
331
107
  5
DF
331
14A
  5
122
331
153
  5
12B
331
151
  5
129
331
121
  5
F9
331
D2
  5
147
331
14B
  5
123
331
148
  5
120
331
D4
  5
149
331
E5
  5
132
331
106
  5
DE
331
119
  5
F1
331
105
  5
DD
331
E4
  5
131
331
F5
  5
CD
331
EF
  5
13C
331
D6
  5
14B
331
11E
  5
F6
331
154
  5
12C
331
144
  5
11C
331
13E
  5
116
331
108
  5
E0
331
124
  5
FC
331
FC
  5
D4
331
143
  5
11B
331
F7
  5
CF
331
137
  5
10F
331
D8
  5
14D
331
13A
  5
112
331
F1
  5
13E
331
10F
  5
E7
331
117
  5
EF
331
12F
  5
107
331
EC
  5
139
331
100
  5
D8
331
10B
  5
E3
331
138
  5
110
331
127
  5
FF
331
103
  5
DB
331
F0
  5
13D
331
10E
  5
E6
331
CC
  5
141
331
FB
  5
D3
331
129
  5
101
331
118
  5
F0
331
113
  5
EB
331
109
  5
E1
331
E7
  5
134
331
14D
  5
125
331
115
  5
ED
331
D0
  5
145
331
13D
  5
115
331
134
  5
10C
331
147
  5
11F
331
132
  5
10A
331
FF
  5
D7
331
D9
  5
14E
331
E0
  5
12D
331
104
  5
DC
331
FA
  5
D2
331
111
  5
E9
331
E3
  5
130
331
F6
  5
CE
331
116
  5
EE
331
DE
  5
153
331
11C
  5
F4
331
102
  5
DA
331
E8
  5
135
331
12A
  5
102
331
10C
  5
E4
331
14E
  5
126
331
150
  5
128
331
D1
  5
146
  0
LAYOUT
  5
13
102
{ACAD_REACTORS
330
D
102
}
102
{ACAD_XDICTIONARY
360
170
102
}
330
D
100
AcDbPlotSettings
  1

  2
HP LaserJet 2100 Series PCL 6
  4

  6

 40
0.0
 41
0.0
 42
0.0
 43
0.0
 44
0.0
 45
0.0
 46
0.0
 47
0.0
 48
0.0
 49
0.0
140
0.0
141
0.0
142
1.0
143
1.0
 70
   688
 72
     0
 73
     0
 74
     5
  7

 75
    16
147
1.0
148
0.0
149
0.0
100
AcDbLayout
  1
Layout1
 70
     0
 71
     1
 10
0.0
 20
0.0
 11
12.0
 21
9.0
 12
0.0
 22
0.0
 32
0.0
 14
1.000000000000000E+20
 24
1.000000000000000E+20
 34
1.000000000000000E+20
 15
-1.000000000000000E+20
 25
-1.000000000000000E+20
 35
-1.000000000000000E+20
146
0.0
 13
0.0
 23
0.0
 33
0.0
 16
1.0
 26
0.0
 36
0.0
 17
0.0
 27
1.0
 37
0.0
 76
     0
330
E
  0
LAYOUT
  5
C
102
{ACAD_REACTORS
330
D
102
}
102
{ACAD_XDICTIONARY
360
172
102
}
330
D
100
AcDbPlotSettings
  1

  2
HP LaserJet 4.pc3
  4
Letter
  6

 40
7.143749713897705
 41
6.127734661102295
 42
7.14373779296875
 43
7.14373779296875
 44
215.8999938964844
 45
279.3999938964844
 46
0.0
 47
0.0
 48
0.0
 49
0.0
140
0.0
141
0.0
142
1.0
143
3.023621951417749
 70
 11952
 72
     0
 73
     1
 74
     2
  7

 75
     0
147
0.3307291771483233
148
0.0
149
0.0
100
AcDbLayout
  1
Model
 70
     1
 71
     0
 10
0.0
 20
0.0
 11
12.0
 21
9.0
 12
0.0
 22
0.0
 32
0.0
 14
0.0
 24
0.0
 34
0.0
 15
0.0
 25
0.0
 35
0.0
146
0.0
 13
0.0
 23
0.0
 33
0.0
 16
1.0
 26
0.0
 36
0.0
 17
0.0
 27
1.0
 37
0.0
 76
     0
330
2
  0
MLINESTYLE
  5
27
102
{ACAD_REACTORS
330
24
102
}
330
24
100
AcDbMlineStyle
  2
STANDARD
 70
     0
  3

 62
   256
 51
90.0
 52
90.0
 71
     2
 49
0.5
 62
   256
  6
BYLAYER
 49
-0.5
 62
   256
  6
BYLAYER
  0
ACDBPLACEHOLDER
  5
7
102
{ACAD_REACTORS
330
8
102
}
330
8
  0
ACAD_PROXY_OBJECT
  5
C2
102
{ACAD_REACTORS
330
C1
102
}
330
C1
100
AcDbProxyObject
 90
      499
 91
      525
 95
   983063
 70
     0
 93
     1841
310
4214DD185B99185C9928B81E85EB51B8AE3F2E07A17AD46E2B8FC02B5E8DC0F42B1CFD028000000C1008070000C3001FDFF8000000C1003FBFF000000182007F7FE00000030400FEFFC00000060801FDFF8000000C1003FBFF00000018200000000000000681FA0B0000001820100E000186003FBFF000000182007F7FE000
310
00030400FEFFC00000060801FDFF8000000C1003FBFF000000182007F7FE000000304000AD7A3703D0AC73F4160000003040201C00030C007F7FE00000030400FEFFC00000060801FDFF8000000C1003FBFF000000182007F7FE00000030400FEFFC000000608000
340
16
340
16
340
16
 94
        0
  0
XRECORD
  5
16E
102
{ACAD_REACTORS
330
16D
102
}
330
16D
100
AcDbXrecord
340
C0
  0
XRECORD
  5
16F
102
{ACAD_REACTORS
330
16D
102
}
330
16D
100
AcDbXrecord
340
BF
  0
DICTIONARYVAR
  5
15C
102
{ACAD_REACTORS
330
BB
102
}
330
BB
100
DictionaryVariables
280
     0
  1
STANDARD
  0
DICTIONARYVAR
  5
16C
102
{ACAD_REACTORS
330
BB
102
}
330
BB
100
DictionaryVariables
280
     0
  1
0
  0
DICTIONARY
  5
170
330
13
100
AcDbDictionary
280
     1
281
     1
  3
ACAD_XREC_ROUNDTRIP
360
171
  0
DICTIONARY
  5
172
330
C
100
AcDbDictionary
280
     1
281
     1
  3
ACAD_XREC_ROUNDTRIP
360
173
  0
XRECORD
  5
171
102
{ACAD_REACTORS
330
170
102
}
330
170
100
AcDbXrecord
102
SHADEPLOT
 70
     0
102
SHADEPLOTRESLEVEL
 70
     2
102
SHADEPLOTCUSTOMDPI
 70
   300
  0
XRECORD
  5
173
102
{ACAD_REACTORS
330
172
102
}
330
172
100
AcDbXrecord
102
SHADEPLOT
 70
     0
102
SHADEPLOTRESLEVEL
 70
     2
102
SHADEPLOTCUSTOMDPI
 70
   300
  0
ENDSEC
  0
EOF
