  0
SECTION
  2
HEADER
  9
$ACADVER
  1
AC1015
  9
$ACADMAINTVER
 70
     6
  9
$DWGCODEPAGE
  3
ANSI_1252
  9
$INSBASE
 10
0.0
 20
0.0
 30
0.0
  9
$EXTMIN
 10
-5.056260913534415
 20
0.0
 30
0.0
  9
$EXTMAX
 10
5.056260913534425
 20
14.82301165490696
 30
0.0
  9
$LIMMIN
 10
0.0
 20
0.0
  9
$LIMMAX
 10
31.5
 20
24.0
  9
$ORTHOMODE
 70
     0
  9
$REGENMODE
 70
     1
  9
$FILLMODE
 70
     1
  9
$QTEXTMODE
 70
     0
  9
$MIRRTEXT
 70
     1
  9
$LTSCALE
 40
1.0
  9
$ATTMODE
 70
     1
  9
$TEXTSIZE
 40
0.27
  9
$TRACEWID
 40
0.05
  9
$TEXTSTYLE
  7
STANDARD
  9
$CLAYER
  8
0
  9
$CELTYPE
  6
BYLAYER
  9
$CECOLOR
 62
   256
  9
$CELTSCALE
 40
1.0
  9
$DISPSILH
 70
     0
  9
$DIMSCALE
 40
1.0
  9
$DIMASZ
 40
0.375
  9
$DIMEXO
 40
0.0625
  9
$DIMDLI
 40
0.75
  9
$DIMRND
 40
0.0
  9
$DIMDLE
 40
0.0
  9
$DIMEXE
 40
0.18
  9
$DIMTP
 40
0.0
  9
$DIMTM
 40
0.0
  9
$DIMTXT
 40
0.27
  9
$DIMCEN
 40
-0.06
  9
$DIMTSZ
 40
0.0
  9
$DIMTOL
 70
     0
  9
$DIMLIM
 70
     0
  9
$DIMTIH
 70
     1
  9
$DIMTOH
 70
     1
  9
$DIMSE1
 70
     0
  9
$DIMSE2
 70
     0
  9
$DIMTAD
 70
     0
  9
$DIMZIN
 70
     0
  9
$DIMBLK
  1

  9
$DIMASO
 70
     0
  9
$DIMSHO
 70
     0
  9
$DIMPOST
  1

  9
$DIMAPOST
  1

  9
$DIMALT
 70
     0
  9
$DIMALTD
 70
     2
  9
$DIMALTF
 40
25.4
  9
$DIMLFAC
 40
1.0
  9
$DIMTOFL
 70
     0
  9
$DIMTVP
 40
0.0
  9
$DIMTIX
 70
     0
  9
$DIMSOXD
 70
     0
  9
$DIMSAH
 70
     0
  9
$DIMBLK1
  1

  9
$DIMBLK2
  1

  9
$DIMSTYLE
  2
STANDARD
  9
$DIMCLRD
 70
     0
  9
$DIMCLRE
 70
     0
  9
$DIMCLRT
 70
     0
  9
$DIMTFAC
 40
1.0
  9
$DIMGAP
 40
0.09375
  9
$DIMJUST
 70
     0
  9
$DIMSD1
 70
     0
  9
$DIMSD2
 70
     0
  9
$DIMTOLJ
 70
     1
  9
$DIMTZIN
 70
     0
  9
$DIMALTZ
 70
     0
  9
$DIMALTTZ
 70
     0
  9
$DIMUPT
 70
     0
  9
$DIMDEC
 70
     5
  9
$DIMTDEC
 70
     5
  9
$DIMALTU
 70
     5
  9
$DIMALTTD
 70
     2
  9
$DIMTXSTY
  7
STANDARD
  9
$DIMAUNIT
 70
     0
  9
$DIMADEC
 70
     0
  9
$DIMALTRND
 40
0.0
  9
$DIMAZIN
 70
     0
  9
$DIMDSEP
 70
    46
  9
$DIMATFIT
 70
     3
  9
$DIMFRAC
 70
     2
  9
$DIMLDRBLK
  1

  9
$DIMLUNIT
 70
     5
  9
$DIMLWD
 70
    -2
  9
$DIMLWE
 70
    -2
  9
$DIMTMOVE
 70
     2
  9
$LUNITS
 70
     5
  9
$LUPREC
 70
     5
  9
$SKETCHINC
 40
0.1
  9
$FILLETRAD
 40
0.046
  9
$AUNITS
 70
     0
  9
$AUPREC
 70
     0
  9
$MENU
  1
ACAD
  9
$ELEVATION
 40
0.0
  9
$PELEVATION
 40
0.0
  9
$THICKNESS
 40
0.0
  9
$LIMCHECK
 70
     0
  9
$CHAMFERA
 40
0.0
  9
$CHAMFERB
 40
0.0
  9
$CHAMFERC
 40
0.0
  9
$CHAMFERD
 40
0.0
  9
$SKPOLY
 70
     0
  9
$TDCREATE
 40
2450361.983267361
  9
$TDUCREATE
 40
2450362.316600694
  9
$TDUPDATE
 40
2454181.831194583
  9
$TDUUPDATE
 40
2454182.164527917
  9
$TDINDWG
 40
0.9953864583
  9
$TDUSRTIMER
 40
0.0
  9
$USRTIMER
 70
     0
  9
$ANGBASE
 50
0.0
  9
$ANGDIR
 70
     0
  9
$PDMODE
 70
     0
  9
$PDSIZE
 40
0.0
  9
$PLINEWID
 40
0.0
  9
$SPLFRAME
 70
     0
  9
$SPLINETYPE
 70
     6
  9
$SPLINESEGS
 70
     8
  9
$HANDSEED
  5
A3
  9
$SURFTAB1
 70
     6
  9
$SURFTAB2
 70
     6
  9
$SURFTYPE
 70
     6
  9
$SURFU
 70
     6
  9
$SURFV
 70
     6
  9
$UCSBASE
  2

  9
$UCSNAME
  2

  9
$UCSORG
 10
0.0
 20
0.0
 30
0.0
  9
$UCSXDIR
 10
1.0
 20
0.0
 30
0.0
  9
$UCSYDIR
 10
0.0
 20
1.0
 30
0.0
  9
$UCSORTHOREF
  2

  9
$UCSORTHOVIEW
 70
     0
  9
$UCSORGTOP
 10
0.0
 20
0.0
 30
0.0
  9
$UCSORGBOTTOM
 10
0.0
 20
0.0
 30
0.0
  9
$UCSORGLEFT
 10
0.0
 20
0.0
 30
0.0
  9
$UCSORGRIGHT
 10
0.0
 20
0.0
 30
0.0
  9
$UCSORGFRONT
 10
0.0
 20
0.0
 30
0.0
  9
$UCSORGBACK
 10
0.0
 20
0.0
 30
0.0
  9
$PUCSBASE
  2

  9
$PUCSNAME
  2

  9
$PUCSORG
 10
0.0
 20
0.0
 30
0.0
  9
$PUCSXDIR
 10
1.0
 20
0.0
 30
0.0
  9
$PUCSYDIR
 10
0.0
 20
1.0
 30
0.0
  9
$PUCSORTHOREF
  2

  9
$PUCSORTHOVIEW
 70
     0
  9
$PUCSORGTOP
 10
0.0
 20
0.0
 30
0.0
  9
$PUCSORGBOTTOM
 10
0.0
 20
0.0
 30
0.0
  9
$PUCSORGLEFT
 10
0.0
 20
0.0
 30
0.0
  9
$PUCSORGRIGHT
 10
0.0
 20
0.0
 30
0.0
  9
$PUCSORGFRONT
 10
0.0
 20
0.0
 30
0.0
  9
$PUCSORGBACK
 10
0.0
 20
0.0
 30
0.0
  9
$USERI1
 70
     0
  9
$USERI2
 70
     0
  9
$USERI3
 70
     0
  9
$USERI4
 70
     0
  9
$USERI5
 70
     0
  9
$USERR1
 40
0.0
  9
$USERR2
 40
0.0
  9
$USERR3
 40
0.0
  9
$USERR4
 40
0.0
  9
$USERR5
 40
0.0
  9
$WORLDVIEW
 70
     1
  9
$SHADEDGE
 70
     3
  9
$SHADEDIF
 70
    70
  9
$TILEMODE
 70
     1
  9
$MAXACTVP
 70
    16
  9
$PINSBASE
 10
0.0
 20
0.0
 30
0.0
  9
$PLIMCHECK
 70
     0
  9
$PEXTMIN
 10
1.000000000000000E+20
 20
1.000000000000000E+20
 30
1.000000000000000E+20
  9
$PEXTMAX
 10
-1.000000000000000E+20
 20
-1.000000000000000E+20
 30
-1.000000000000000E+20
  9
$PLIMMIN
 10
0.0
 20
0.0
  9
$PLIMMAX
 10
12.0
 20
9.0
  9
$UNITMODE
 70
     0
  9
$VISRETAIN
 70
     1
  9
$PLINEGEN
 70
     1
  9
$PSLTSCALE
 70
     0
  9
$TREEDEPTH
 70
  3020
  9
$CMLSTYLE
  2
STANDARD
  9
$CMLJUST
 70
     0
  9
$CMLSCALE
 40
1.0
  9
$PROXYGRAPHICS
 70
     1
  9
$MEASUREMENT
 70
     0
  9
$CELWEIGHT
370
    -1
  9
$ENDCAPS
280
     0
  9
$JOINSTYLE
280
     0
  9
$LWDISPLAY
290
     0
  9
$INSUNITS
 70
     0
  9
$HYPERLINKBASE
  1

  9
$STYLESHEET
  1

  9
$XEDIT
290
     1
  9
$CEPSNTYPE
380
     0
  9
$PSTYLEMODE
290
     1
  9
$FINGERPRINTGUID
  2
{B4B5AE23-2B15-11D4-AFE6-00805F15063D}
  9
$VERSIONGUID
  2
{569CF12D-1575-4F01-93BD-F1DB642DB010}
  9
$EXTNAMES
290
     1
  9
$PSVPSCALE
 40
0.0
  9
$OLESTARTUP
290
     0
  0
ENDSEC
  0
SECTION
  2
CLASSES
  0
CLASS
  1
DICTIONARYVAR
  2
AcDbDictionaryVar
  3
AutoCAD 2000
 90
        0
280
     0
281
     0
  0
CLASS
  1
LWPOLYLINE
  2
AcDbPolyline
  3
AutoCAD 2000
 90
        0
280
     0
281
     1
  0
CLASS
  1
ACDBDICTIONARYWDFLT
  2
AcDbDictionaryWithDefault
  3
AutoCAD 2000
 90
        0
280
     0
281
     0
  0
CLASS
  1
ACDBPLACEHOLDER
  2
AcDbPlaceHolder
  3
ObjectDBX Classes
 90
        0
280
     0
281
     0
  0
CLASS
  1
LAYOUT
  2
AcDbLayout
  3
ObjectDBX Classes
 90
        0
280
     0
281
     0
  0
CLASS
  1
LONG_TRANSACTION
  2
AcDbLongTransaction
  3
ObjectDBX Classes
 90
   -65536
280
     1
281
     0
  0
CLASS
  1
LWPOLYLINE
  2
AcDbPolyline
  3
AutoCAD 2000
 90
        0
280
     0
281
     1
  0
CLASS
  1
HATCH
  2
AcDbHatch
  3
AutoCAD 2000
 90
        0
280
     0
281
     1
  0
CLASS
  1
XRECORD
  2
AcDbXrecord
  3
AutoCAD 2000
 90
        0
280
     0
281
     0
  0
CLASS
  1
LONG_TRANSACTION
  2
AcDbLongTransaction
  3
ObjectDBX Classes
 90
   -65536
280
     1
281
     0
  0
CLASS
  1
LWPOLYLINE
  2
AcDbPolyline
  3
AutoCAD 2000
 90
        0
280
     0
281
     1
  0
CLASS
  1
HATCH
  2
AcDbHatch
  3
AutoCAD 2000
 90
        0
280
     0
281
     1
  0
CLASS
  1
XRECORD
  2
AcDbXrecord
  3
AutoCAD 2000
 90
        0
280
     0
281
     0
  0
CLASS
  1
LONG_TRANSACTION
  2
AcDbLongTransaction
  3
ObjectDBX Classes
 90
   -65536
280
     1
281
     0
  0
CLASS
  1
LWPOLYLINE
  2
AcDbPolyline
  3
AutoCAD 2000
 90
        0
280
     0
281
     1
  0
CLASS
  1
HATCH
  2
AcDbHatch
  3
AutoCAD 2000
 90
        0
280
     0
281
     1
  0
CLASS
  1
XRECORD
  2
AcDbXrecord
  3
AutoCAD 2000
 90
        0
280
     0
281
     0
  0
CLASS
  1
LONG_TRANSACTION
  2
AcDbLongTransaction
  3
ObjectDBX Classes
 90
   -65536
280
     1
281
     0
  0
CLASS
  1
LWPOLYLINE
  2
AcDbPolyline
  3
AutoCAD 2000
 90
        0
280
     0
281
     1
  0
CLASS
  1
HATCH
  2
AcDbHatch
  3
AutoCAD 2000
 90
        0
280
     0
281
     1
  0
CLASS
  1
XRECORD
  2
AcDbXrecord
  3
AutoCAD 2000
 90
        0
280
     0
281
     0
  0
CLASS
  1
LONG_TRANSACTION
  2
AcDbLongTransaction
  3
ObjectDBX Classes
 90
   -65536
280
     1
281
     0
  0
CLASS
  1
LWPOLYLINE
  2
AcDbPolyline
  3
AutoCAD 2000
 90
        0
280
     0
281
     1
  0
CLASS
  1
HATCH
  2
AcDbHatch
  3
AutoCAD 2000
 90
        0
280
     0
281
     1
  0
CLASS
  1
XRECORD
  2
AcDbXrecord
  3
AutoCAD 2000
 90
        0
280
     0
281
     0
  0
CLASS
  1
TABLESTYLE
  2
AcDbTableStyle
  3
ObjectDBX Classes
 90
     2047
280
     1
281
     0
  0
ENDSEC
  0
SECTION
  2
TABLES
  0
TABLE
  2
VPORT
  5
1D
330
0
100
AcDbSymbolTable
 70
     2
  0
VPORT
  5
95
330
1D
100
AcDbSymbolTableRecord
100
AcDbViewportTableRecord
  2
*Active
 70
     0
 10
0.0
 20
0.0
 11
1.0
 21
1.0
 12
16.41928833915717
 22
11.99963381700175
 13
0.0
 23
0.0
 14
0.0625
 24
0.0625
 15
0.5
 25
0.5
 16
0.0
 26
0.0
 36
1.0
 17
0.0
 27
0.0
 37
0.0
 40
24.18559038165244
 41
1.814583333333333
 42
50.0
 43
0.0
 44
0.0
 50
0.0
 51
0.0
 71
     0
 72
  5000
 73
     1
 74
     0
 75
     0
 76
     0
 77
     0
 78
     0
281
     0
 65
     1
110
0.0
120
0.0
130
0.0
111
1.0
121
0.0
131
0.0
112
0.0
122
1.0
132
0.0
 79
     0
146
0.0
  0
ENDTAB
  0
TABLE
  2
LTYPE
  5
18
330
0
100
AcDbSymbolTable
 70
     1
  0
LTYPE
  5
19
330
18
100
AcDbSymbolTableRecord
100
AcDbLinetypeTableRecord
  2
BYBLOCK
 70
     0
  3

 72
    65
 73
     0
 40
0.0
  0
LTYPE
  5
1A
330
18
100
AcDbSymbolTableRecord
100
AcDbLinetypeTableRecord
  2
BYLAYER
 70
     0
  3

 72
    65
 73
     0
 40
0.0
  0
LTYPE
  5
A
330
18
100
AcDbSymbolTableRecord
100
AcDbLinetypeTableRecord
  2
CONTINUOUS
 70
     0
  3
Solid line
 72
    65
 73
     0
 40
0.0
  0
ENDTAB
  0
TABLE
  2
LAYER
  5
14
330
0
100
AcDbSymbolTable
 70
     2
  0
LAYER
  5
6
330
14
100
AcDbSymbolTableRecord
100
AcDbLayerTableRecord
  2
0
 70
     0
 62
     7
  6
CONTINUOUS
370
    -3
390
7
  0
ENDTAB
  0
TABLE
  2
STYLE
  5
15
330
0
100
AcDbSymbolTable
 70
     1
  0
STYLE
  5
16
330
15
100
AcDbSymbolTableRecord
100
AcDbTextStyleTableRecord
  2
STANDARD
 70
     0
 40
0.0
 41
1.0
 50
0.0
 71
     0
 42
0.27
  3
txt
  4

  0
ENDTAB
  0
TABLE
  2
VIEW
  5
1B
330
0
100
AcDbSymbolTable
 70
     0
  0
ENDTAB
  0
TABLE
  2
UCS
  5
1C
330
0
100
AcDbSymbolTable
 70
     0
  0
ENDTAB
  0
TABLE
  2
APPID
  5
1F
330
0
100
AcDbSymbolTable
 70
     1
  0
APPID
  5
20
330
1F
100
AcDbSymbolTableRecord
100
AcDbRegAppTableRecord
  2
ACAD
 70
     0
  0
ENDTAB
  0
TABLE
  2
DIMSTYLE
  5
21
330
0
100
AcDbSymbolTable
 70
     1
100
AcDbDimStyleTable
  0
DIMSTYLE
105
22
330
21
100
AcDbSymbolTableRecord
100
AcDbDimStyleTableRecord
  2
STANDARD
 70
     0
  3

  4

340
16
  0
ENDTAB
  0
TABLE
  2
BLOCK_RECORD
  5
1
330
0
100
AcDbSymbolTable
 70
     0
  0
BLOCK_RECORD
  5
2
330
1
100
AcDbSymbolTableRecord
100
AcDbBlockTableRecord
  2
*MODEL_SPACE
340
C
  0
BLOCK_RECORD
  5
E
330
1
100
AcDbSymbolTableRecord
100
AcDbBlockTableRecord
  2
*PAPER_SPACE
340
13
  0
ENDTAB
  0
ENDSEC
  0
SECTION
  2
BLOCKS
  0
BLOCK
  5
5
330
2
100
AcDbEntity
  8
0
100
AcDbBlockBegin
  2
*MODEL_SPACE
 70
     0
 10
0.0
 20
0.0
 30
0.0
  3
*MODEL_SPACE
  1

  4

  0
ENDBLK
  5
B
330
2
100
AcDbEntity
  8
0
100
AcDbBlockEnd
  0
BLOCK
  5
11
330
E
100
AcDbEntity
 67
     1
  8
0
100
AcDbBlockBegin
  2
*PAPER_SPACE
 70
     0
 10
0.0
 20
0.0
 30
0.0
  3
*PAPER_SPACE
  1

  4

  0
ENDBLK
  5
12
330
E
100
AcDbEntity
 67
     1
  8
0
100
AcDbBlockEnd
  0
ENDSEC
  0
SECTION
  2
ENTITIES
  0
LINE
  5
29
330
2
100
AcDbEntity
  8
0
100
AcDbLine
 10
2.3125
 20
0.2500000000001137
 30
0.0
 11
2.312499999999886
 21
5.745000988367337
 31
0.0
  0
CIRCLE
  5
2A
330
2
100
AcDbEntity
  8
0
 62
     7
100
AcDbCircle
 10
-0.1875
 20
4.543750000000046
 30
0.0
 40
0.0855
  0
CIRCLE
  5
2B
330
2
100
AcDbEntity
  8
0
 62
     7
100
AcDbCircle
 10
1.375
 20
4.543750000000046
 30
0.0
 40
0.0855
  0
CIRCLE
  5
2C
330
2
100
AcDbEntity
  8
0
 62
     7
100
AcDbCircle
 10
-1.75
 20
4.543750000000046
 30
0.0
 40
0.0855
  0
LINE
  5
2D
330
2
100
AcDbEntity
  8
0
100
AcDbLine
 10
-2.3125
 20
5.745000988367337
 30
0.0
 11
-2.3125
 21
0.25
 31
0.0
  0
LINE
  5
2E
330
2
100
AcDbEntity
  8
0
100
AcDbLine
 10
-2.0625
 20
0.0
 30
0.0
 11
2.0625
 21
0.0
 31
0.0
  0
CIRCLE
  5
2F
330
2
100
AcDbEntity
  8
0
 62
     7
100
AcDbCircle
 10
-1.375
 20
2.098750000000109
 30
0.0
 40
0.0855
  0
LINE
  5
30
330
2
100
AcDbEntity
  8
0
100
AcDbLine
 10
-2.3125
 20
0.25
 30
0.0
 11
-2.0625
 21
0.0
 31
0.0
  0
CIRCLE
  5
31
330
2
100
AcDbEntity
  8
0
 62
     7
100
AcDbCircle
 10
-1.375
 20
0.4687500000001137
 30
0.0
 40
0.0855
  0
CIRCLE
  5
32
330
2
100
AcDbEntity
  8
0
 62
     7
100
AcDbCircle
 10
-1.75
 20
1.283750000000055
 30
0.0
 40
0.0855
  0
CIRCLE
  5
33
330
2
100
AcDbEntity
  8
0
 62
     7
100
AcDbCircle
 10
-1.75
 20
2.91375000000005
 30
0.0
 40
0.0855
  0
CIRCLE
  5
34
330
2
100
AcDbEntity
  8
0
 62
     7
100
AcDbCircle
 10
-1.375
 20
3.728750000000105
 30
0.0
 40
0.0855
  0
LINE
  5
35
330
2
100
AcDbEntity
  8
0
100
AcDbLine
 10
2.0625
 20
0.0
 30
0.0
 11
2.3125
 21
0.25
 31
0.0
  0
CIRCLE
  5
36
330
2
100
AcDbEntity
  8
0
 62
     7
100
AcDbCircle
 10
0.1875
 20
2.098750000000109
 30
0.0
 40
0.0855
  0
CIRCLE
  5
37
330
2
100
AcDbEntity
  8
0
 62
     7
100
AcDbCircle
 10
1.75
 20
2.098750000000109
 30
0.0
 40
0.0855
  0
CIRCLE
  5
38
330
2
100
AcDbEntity
  8
0
 62
     7
100
AcDbCircle
 10
0.1875
 20
0.4687500000001137
 30
0.0
 40
0.0855
  0
CIRCLE
  5
39
330
2
100
AcDbEntity
  8
0
100
AcDbCircle
 10
-0.5591585948286024
 20
1.328999999999951
 30
0.0
 40
0.25
  0
CIRCLE
  5
3A
330
2
100
AcDbEntity
  8
0
 62
     7
100
AcDbCircle
 10
1.75
 20
0.4687500000001137
 30
0.0
 40
0.0855
  0
CIRCLE
  5
3B
330
2
100
AcDbEntity
  8
0
 62
     7
100
AcDbCircle
 10
1.375
 20
1.283750000000055
 30
0.0
 40
0.0855
  0
CIRCLE
  5
3C
330
2
100
AcDbEntity
  8
0
 62
     7
100
AcDbCircle
 10
-0.1875
 20
2.91375000000005
 30
0.0
 40
0.0855
  0
CIRCLE
  5
3D
330
2
100
AcDbEntity
  8
0
 62
     7
100
AcDbCircle
 10
0.1875
 20
3.728750000000105
 30
0.0
 40
0.0855
  0
CIRCLE
  5
3E
330
2
100
AcDbEntity
  8
0
 62
     7
100
AcDbCircle
 10
1.375
 20
2.91375000000005
 30
0.0
 40
0.0855
  0
CIRCLE
  5
3F
330
2
100
AcDbEntity
  8
0
100
AcDbCircle
 10
1.363545172145791
 20
3.815126260176044
 30
0.0
 40
0.25
  0
LINE
  5
40
330
2
100
AcDbEntity
  8
0
  6
Continuous
100
AcDbLine
 10
2.568750000001614
 20
11.33660567565294
 30
0.0
 11
2.568750000001614
 21
14.82301165490696
 31
0.0
  0
LINE
  5
41
330
2
100
AcDbEntity
  8
0
  6
Continuous
100
AcDbLine
 10
2.506250000001614
 20
11.40961205568094
 30
0.0
 11
2.506250000001614
 21
14.82301165490696
 31
0.0
  0
LINE
  5
42
330
2
100
AcDbEntity
  8
0
  6
Continuous
100
AcDbLine
 10
-2.506250000000023
 20
11.40961205568094
 30
0.0
 11
-2.506250000000023
 21
14.82301165490696
 31
0.0
  0
LINE
  5
43
330
2
100
AcDbEntity
  8
0
  6
Continuous
100
AcDbLine
 10
-2.568750000000023
 20
11.33660567565294
 30
0.0
 11
-2.568750000000023
 21
14.82301165490696
 31
0.0
  0
LINE
  5
44
330
2
100
AcDbEntity
  8
0
100
AcDbLine
 10
5.0
 20
9.095242688164376
 30
0.0
 11
5.0
 21
14.57301165490696
 31
0.0
  0
LINE
  5
45
330
2
100
AcDbEntity
  8
0
100
AcDbLine
 10
-5.0
 20
14.57301165490696
 30
0.0
 11
-5.0
 21
9.095242688164149
 31
0.0
  0
LINE
  5
46
330
2
100
AcDbEntity
  8
0
100
AcDbLine
 10
2.223749163407888
 20
10.70500000000004
 30
0.0
 11
-2.223749163406296
 21
10.70499999999993
 31
0.0
  0
LINE
  5
47
330
2
100
AcDbEntity
  8
0
100
AcDbLine
 10
-4.765685424949197
 20
8.529557263214883
 30
0.0
 11
-2.546814575050803
 21
6.310686413316603
 31
0.0
  0
ARC
  5
48
330
2
100
AcDbEntity
  8
0
100
AcDbCircle
 10
-4.199999999999932
 20
9.095242688164149
 30
0.0
 40
0.8000000000000682
100
AcDbArc
 50
180.0
 51
225.0000000000001
  0
CIRCLE
  5
49
330
2
100
AcDbEntity
  8
0
100
AcDbCircle
 10
-1.832093533594843
 20
7.186011727874302
 30
0.0
 40
0.25
  0
ARC
  5
4A
330
2
100
AcDbEntity
  8
0
100
AcDbCircle
 10
-3.112499999999955
 20
5.745000988367337
 30
0.0
 40
0.7999999999999582
100
AcDbArc
 50
0.0
 51
45.00000000000927
  0
CIRCLE
  5
4B
330
2
100
AcDbEntity
  8
0
 62
     7
100
AcDbCircle
 10
-1.375
 20
5.3587500000001
 30
0.0
 40
0.0855
  0
CIRCLE
  5
4C
330
2
100
AcDbEntity
  8
0
 62
     7
100
AcDbCircle
 10
-1.75
 20
6.173750000000041
 30
0.0
 40
0.0855
  0
CIRCLE
  5
4D
330
2
100
AcDbEntity
  8
0
 62
     7
100
AcDbCircle
 10
-3.011454827772127
 20
8.560250000006704
 30
0.0
 40
0.0855
  0
CIRCLE
  5
4E
330
2
100
AcDbEntity
  8
0
 62
     7
100
AcDbCircle
 10
-4.511454827772127
 20
10.0602500000067
 30
0.0
 40
0.0855
  0
LINE
  5
4F
330
2
100
AcDbEntity
  8
0
100
AcDbLine
 10
-3.519469606349617
 20
11.73822074641589
 30
0.0
 11
-3.519469606349617
 21
13.98822074641578
 31
0.0
  0
LINE
  5
50
330
2
100
AcDbEntity
  8
0
100
AcDbLine
 10
-3.644469606349617
 20
13.98822074641578
 30
0.0
 11
-3.64446273445591
 21
11.73729395653118
 31
0.0
  0
LINE
  5
51
330
2
100
AcDbEntity
  8
0
 62
     7
100
AcDbLine
 10
-3.706962733284144
 20
11.73690993783725
 30
0.0
 11
-3.706969606349162
 21
13.98822036480112
 31
0.0
  0
LINE
  5
52
330
2
100
AcDbEntity
  8
0
 62
     7
100
AcDbLine
 10
-3.456969606350199
 20
11.73822112803046
 30
0.0
 11
-3.456969606350299
 21
13.98822112803043
 31
0.0
  0
ARC
  5
53
330
2
100
AcDbEntity
  8
0
 62
     7
100
AcDbCircle
 10
-2.541510492719077
 20
9.680917282332686
 30
0.0
 40
0.125000000000001
100
AcDbArc
 50
225.0001749192859
 51
45.00017491928588
  0
LINE
  5
54
330
2
100
AcDbEntity
  8
0
 62
     7
100
AcDbLine
 10
-2.453122414913501
 20
9.769305899822925
 30
0.0
 11
-4.044112672583196
 21
11.36029615749271
 31
0.0
  0
LINE
  5
55
330
2
100
AcDbEntity
  8
0
 62
     7
100
AcDbLine
 10
-2.628967098735188
 20
9.591606913034699
 30
0.0
 11
-4.220888828194347
 21
11.18351892251224
 31
0.0
  0
LINE
  5
56
330
2
100
AcDbEntity
  8
0
100
AcDbLine
 10
-4.176694924212889
 20
11.22771336617834
 30
0.0
 11
-2.585044467962891
 21
9.636072628253626
 31
0.0
  0
LINE
  5
57
330
2
100
AcDbEntity
  8
0
100
AcDbLine
 10
-2.497316318894995
 20
9.725111456156924
 30
0.0
 11
-4.08830657656457
 21
11.31610171382665
 31
0.0
  0
ARC
  5
58
330
2
100
AcDbEntity
  8
0
100
AcDbCircle
 10
-2.231249163404641
 20
11.11093072069014
 30
0.0
 40
0.4060000000000573
100
AcDbArc
 50
132.6362821350099
 51
271.0584797786048
  0
ARC
  5
59
330
2
100
AcDbEntity
  8
0
 62
     7
100
AcDbCircle
 10
-3.581969606349617
 20
11.73822074641578
 30
0.0
 40
0.125000000000001
100
AcDbArc
 50
180.0001749192859
 51
0.0001749192858799
  0
ARC
  5
5A
330
2
100
AcDbEntity
  8
0
100
AcDbCircle
 10
-4.132500750388729
 20
11.2719075400025
 30
0.0
 40
0.0625
100
AcDbArc
 50
45.00000000000001
 51
225.0000000000001
  0
ARC
  5
5B
330
2
100
AcDbEntity
  8
0
 62
     7
100
AcDbCircle
 10
-4.132500750388658
 20
11.27190754000253
 30
0.0
 40
0.1250000000001198
100
AcDbArc
 50
45.00017491928695
 51
225.000174919287
  0
ARC
  5
5C
330
2
100
AcDbEntity
  8
0
100
AcDbCircle
 10
-3.581969606349617
 20
11.73822074641589
 30
0.0
 40
0.0625
100
AcDbArc
 50
180.0
 51
0.000000000000007
  0
ARC
  5
5D
330
2
100
AcDbEntity
  8
0
100
AcDbCircle
 10
-2.541510492719155
 20
9.680917282332764
 30
0.0
 40
0.0625
100
AcDbArc
 50
225.0000000000001
 51
45.00000000000001
  0
ARC
  5
5E
330
2
100
AcDbEntity
  8
0
 62
     7
100
AcDbCircle
 10
-3.581969606349503
 20
13.98822074641578
 30
0.0
 40
0.1250000000001198
100
AcDbArc
 50
0.0001749192858799
 51
180.0001749192859
  0
ARC
  5
5F
330
2
100
AcDbEntity
  8
0
100
AcDbCircle
 10
-3.581969606349617
 20
13.98822074641578
 30
0.0
 40
0.0625
100
AcDbArc
 50
0.000000000000007
 51
180.0
  0
ARC
  5
60
330
2
100
AcDbEntity
  8
0
100
AcDbCircle
 10
3.112499999999955
 20
5.745000988367224
 30
0.0
 40
0.8000000000000114
100
AcDbArc
 50
134.9999999999976
 51
179.9999999999935
  0
CIRCLE
  5
61
330
2
100
AcDbEntity
  8
0
100
AcDbCircle
 10
1.934183877888131
 20
7.186011727874302
 30
0.0
 40
0.25
  0
CIRCLE
  5
62
330
2
100
AcDbEntity
  8
0
 62
     7
100
AcDbCircle
 10
0.1875
 20
5.3587500000001
 30
0.0
 40
0.0855
  0
CIRCLE
  5
63
330
2
100
AcDbEntity
  8
0
 62
     7
100
AcDbCircle
 10
1.75
 20
5.3587500000001
 30
0.0
 40
0.0855
  0
CIRCLE
  5
64
330
2
100
AcDbEntity
  8
0
 62
     7
100
AcDbCircle
 10
1.375
 20
6.173750000000041
 30
0.0
 40
0.0855
  0
LINE
  5
65
330
2
100
AcDbEntity
  8
0
100
AcDbLine
 10
2.546814575050689
 20
6.310686413316489
 30
0.0
 11
4.765685424949311
 21
8.529557263214997
 31
0.0
  0
CIRCLE
  5
66
330
2
100
AcDbEntity
  8
0
 62
     7
100
AcDbCircle
 10
2.988545172227873
 20
8.560250000006704
 30
0.0
 40
0.0855
  0
ARC
  5
67
330
2
100
AcDbEntity
  8
0
100
AcDbCircle
 10
4.199999999999932
 20
9.095242688164149
 30
0.0
 40
0.8000000000000788
100
AcDbArc
 50
315.000000000016
 51
0.0000000000130276
  0
ARC
  5
68
330
2
100
AcDbEntity
  8
0
100
AcDbCircle
 10
2.231249163406346
 20
11.11093072069014
 30
0.0
 40
0.4059999999999798
100
AcDbArc
 50
268.9415202213854
 51
47.3637178650019
  0
CIRCLE
  5
69
330
2
100
AcDbEntity
  8
0
 62
     7
100
AcDbCircle
 10
0.0510451722278731
 20
9.872750000006704
 30
0.0
 40
0.0855
  0
LINE
  5
6A
330
2
100
AcDbEntity
  8
0
 62
     7
100
AcDbLine
 10
3.456969606351791
 20
11.73822112803046
 30
0.0
 11
3.45696960635189
 21
13.98822112803043
 31
0.0
  0
LINE
  5
6B
330
2
100
AcDbEntity
  8
0
100
AcDbLine
 10
3.644469606351208
 20
13.98822074641578
 30
0.0
 11
3.644462734457502
 21
11.73729395653118
 31
0.0
  0
LINE
  5
6C
330
2
100
AcDbEntity
  8
0
100
AcDbLine
 10
3.519469606351208
 20
11.73822074641589
 30
0.0
 11
3.519469606351208
 21
13.98822074641578
 31
0.0
  0
LINE
  5
6D
330
2
100
AcDbEntity
  8
0
 62
     7
100
AcDbLine
 10
3.706962733285735
 20
11.73690993783725
 30
0.0
 11
3.706969606350754
 21
13.98822036480112
 31
0.0
  0
LINE
  5
6E
330
2
100
AcDbEntity
  8
0
 62
     7
100
AcDbLine
 10
2.453122414915093
 20
9.769305899822925
 30
0.0
 11
4.044112672584788
 21
11.36029615749271
 31
0.0
  0
LINE
  5
6F
330
2
100
AcDbEntity
  8
0
 62
     7
100
AcDbLine
 10
2.62896709873678
 20
9.591606913034699
 30
0.0
 11
4.220888828195939
 21
11.18351892251224
 31
0.0
  0
LINE
  5
70
330
2
100
AcDbEntity
  8
0
100
AcDbLine
 10
2.497316318896587
 20
9.725111456156924
 30
0.0
 11
4.088306576566161
 21
11.31610171382665
 31
0.0
  0
LINE
  5
71
330
2
100
AcDbEntity
  8
0
100
AcDbLine
 10
4.17669492421448
 20
11.22771336617834
 30
0.0
 11
2.585044467964483
 21
9.636072628253626
 31
0.0
  0
ARC
  5
72
330
2
100
AcDbEntity
  8
0
100
AcDbCircle
 10
2.541510492720747
 20
9.680917282332764
 30
0.0
 40
0.0625
100
AcDbArc
 50
135.0
 51
315.0
  0
ARC
  5
73
330
2
100
AcDbEntity
  8
0
 62
     7
100
AcDbCircle
 10
2.541510492720668
 20
9.680917282332686
 30
0.0
 40
0.125000000000001
100
AcDbArc
 50
134.9998250807141
 51
314.9998250807142
  0
ARC
  5
74
330
2
100
AcDbEntity
  8
0
 62
     7
100
AcDbCircle
 10
3.581969606351208
 20
11.73822074641578
 30
0.0
 40
0.125000000000001
100
AcDbArc
 50
179.9998250807141
 51
359.9998250807142
  0
ARC
  5
75
330
2
100
AcDbEntity
  8
0
100
AcDbCircle
 10
3.581969606351208
 20
11.73822074641589
 30
0.0
 40
0.0625
100
AcDbArc
 50
180.0
 51
0.000000000000007
  0
CIRCLE
  5
76
330
2
100
AcDbEntity
  8
0
 62
     7
100
AcDbCircle
 10
4.488545172227873
 20
10.0602500000067
 30
0.0
 40
0.0855
  0
ARC
  5
77
330
2
100
AcDbEntity
  8
0
 62
     7
100
AcDbCircle
 10
4.13250075039025
 20
11.27190754000253
 30
0.0
 40
0.1250000000001198
100
AcDbArc
 50
314.999825080713
 51
134.9998250807131
  0
ARC
  5
78
330
2
100
AcDbEntity
  8
0
100
AcDbCircle
 10
4.132500750390321
 20
11.2719075400025
 30
0.0
 40
0.0625
100
AcDbArc
 50
315.0
 51
135.0
  0
ARC
  5
79
330
2
100
AcDbEntity
  8
0
 62
     7
100
AcDbCircle
 10
3.581969606351095
 20
13.98822074641578
 30
0.0
 40
0.1250000000001198
100
AcDbArc
 50
359.9998250807142
 51
179.9998250807141
  0
ARC
  5
7A
330
2
100
AcDbEntity
  8
0
100
AcDbCircle
 10
3.581969606351208
 20
13.98822074641578
 30
0.0
 40
0.0625
100
AcDbArc
 50
0.000000000000007
 51
180.0
  0
LINE
  5
7B
330
2
100
AcDbEntity
  8
0
100
AcDbLine
 10
-2.506250000000023
 20
14.82301165490685
 30
0.0
 11
-4.75
 21
14.82301165490696
 31
0.0
  0
LINE
  5
7C
330
2
100
AcDbEntity
  8
0
100
AcDbLine
 10
-4.75
 20
14.82301165490696
 30
0.0
 11
-5.0
 21
14.57301165490696
 31
0.0
  0
LINE
  5
7D
330
2
100
AcDbEntity
  8
0
100
AcDbLine
 10
4.75
 20
14.82301165490696
 30
0.0
 11
2.506250000001618
 21
14.82301165490696
 31
0.0
  0
LINE
  5
7E
330
2
100
AcDbEntity
  8
0
100
AcDbLine
 10
5.0
 20
14.57301165490696
 30
0.0
 11
4.75
 21
14.82301165490696
 31
0.0
  0
ENDSEC
  0
SECTION
  2
OBJECTS
  0
DICTIONARY
  5
9
330
0
100
AcDbDictionary
281
     1
  3
ACAD_COLOR
350
84
  3
ACAD_GROUP
350
24
  3
ACAD_LAYOUT
350
D
  3
ACAD_MATERIAL
350
83
  3
ACAD_MLINESTYLE
350
25
  3
ACAD_PLOTSETTINGS
350
26
  3
ACAD_PLOTSTYLENAME
350
8
  3
ACAD_TABLESTYLE
350
85
  3
ACDBHEADERROUNDTRIPXREC
350
9C
  3
AcDbVariableDictionary
350
7F
  0
DICTIONARY
  5
84
102
{ACAD_REACTORS
330
9
102
}
330
9
100
AcDbDictionary
281
     1
  0
DICTIONARY
  5
24
102
{ACAD_REACTORS
330
9
102
}
330
9
100
AcDbDictionary
281
     1
  0
DICTIONARY
  5
D
102
{ACAD_REACTORS
330
9
102
}
330
9
100
AcDbDictionary
281
     1
  3
Layout1
350
13
  3
Model
350
C
  0
DICTIONARY
  5
83
102
{ACAD_REACTORS
330
9
102
}
330
9
100
AcDbDictionary
281
     1
  0
DICTIONARY
  5
25
102
{ACAD_REACTORS
330
9
102
}
330
9
100
AcDbDictionary
281
     1
  3
STANDARD
350
28
  0
DICTIONARY
  5
26
102
{ACAD_REACTORS
330
9
102
}
330
9
100
AcDbDictionary
281
     1
  0
ACDBDICTIONARYWDFLT
  5
8
102
{ACAD_REACTORS
330
9
102
}
330
9
100
AcDbDictionary
281
     1
  3
Normal
350
7
100
AcDbDictionaryWithDefault
340
7
  0
DICTIONARY
  5
85
102
{ACAD_REACTORS
330
9
102
}
330
9
100
AcDbDictionary
281
     1
  3
Standard
350
86
  0
DICTIONARY
  5
9C
102
{ACAD_REACTORS
330
9
102
}
330
9
100
AcDbDictionary
281
     1
  3
COLORDICT
350
9D
  3
MATERIALDICT
350
9E
  0
DICTIONARY
  5
7F
102
{ACAD_REACTORS
330
9
102
}
330
9
100
AcDbDictionary
281
     1
  3
CTABLESTYLE
350
90
  3
HIDETEXT
350
9B
  0
LAYOUT
  5
13
102
{ACAD_REACTORS
330
D
102
}
102
{ACAD_XDICTIONARY
360
9F
102
}
330
D
100
AcDbPlotSettings
  1

  2
HP LaserJet 2100 Series PCL 6
  4

  6

 40
0.0
 41
0.0
 42
0.0
 43
0.0
 44
0.0
 45
0.0
 46
0.0
 47
0.0
 48
0.0
 49
0.0
140
0.0
141
0.0
142
1.0
143
1.0
 70
   688
 72
     0
 73
     0
 74
     5
  7

 75
    16
147
1.0
148
0.0
149
0.0
100
AcDbLayout
  1
Layout1
 70
     0
 71
     1
 10
0.0
 20
0.0
 11
12.0
 21
9.0
 12
0.0
 22
0.0
 32
0.0
 14
1.000000000000000E+20
 24
1.000000000000000E+20
 34
1.000000000000000E+20
 15
-1.000000000000000E+20
 25
-1.000000000000000E+20
 35
-1.000000000000000E+20
146
0.0
 13
0.0
 23
0.0
 33
0.0
 16
1.0
 26
0.0
 36
0.0
 17
0.0
 27
1.0
 37
0.0
 76
     0
330
E
  0
LAYOUT
  5
C
102
{ACAD_REACTORS
330
D
102
}
102
{ACAD_XDICTIONARY
360
A1
102
}
330
D
100
AcDbPlotSettings
  1

  2
HP LaserJet 4.pc3
  4
Letter
  6

 40
7.143749713897705
 41
6.127734661102295
 42
7.14373779296875
 43
7.14373779296875
 44
215.8999938964844
 45
279.3999938964844
 46
0.0
 47
0.0
 48
0.0
 49
0.0
140
0.0
141
0.0
142
1.0
143
3.023621951417749
 70
 11952
 72
     0
 73
     1
 74
     2
  7

 75
     0
147
0.3307291771483233
148
0.0
149
0.0
100
AcDbLayout
  1
Model
 70
     1
 71
     0
 10
0.0
 20
0.0
 11
12.0
 21
9.0
 12
0.0
 22
0.0
 32
0.0
 14
0.0
 24
0.0
 34
0.0
 15
0.0
 25
0.0
 35
0.0
146
0.0
 13
0.0
 23
0.0
 33
0.0
 16
1.0
 26
0.0
 36
0.0
 17
0.0
 27
1.0
 37
0.0
 76
     0
330
2
  0
MLINESTYLE
  5
28
102
{ACAD_REACTORS
330
25
102
}
330
25
100
AcDbMlineStyle
  2
STANDARD
 70
     0
  3

 62
   256
 51
90.0
 52
90.0
 71
     2
 49
0.5
 62
   256
  6
BYLAYER
 49
-0.5
 62
   256
  6
BYLAYER
  0
ACDBPLACEHOLDER
  5
7
102
{ACAD_REACTORS
330
8
102
}
330
8
  0
ACAD_PROXY_OBJECT
  5
86
102
{ACAD_REACTORS
330
85
102
}
330
85
100
AcDbProxyObject
 90
      499
 91
      525
 95
   983063
 70
     0
 93
     1841
310
4214DD185B99185C9928B81E85EB51B8AE3F2E07A17AD46E2B8FC02B5E8DC0F42B1CFD028000000C1008070000C3001FDFF8000000C1003FBFF000000182007F7FE00000030400FEFFC00000060801FDFF8000000C1003FBFF00000018200000000000000681FA0B0000001820100E000186003FBFF000000182007F7FE000
310
00030400FEFFC00000060801FDFF8000000C1003FBFF000000182007F7FE000000304000AD7A3703D0AC73F4160000003040201C00030C007F7FE00000030400FEFFC00000060801FDFF8000000C1003FBFF000000182007F7FE00000030400FEFFC000000608000
340
16
340
16
340
16
 94
        0
  0
XRECORD
  5
9D
102
{ACAD_REACTORS
330
9C
102
}
330
9C
100
AcDbXrecord
340
84
  0
XRECORD
  5
9E
102
{ACAD_REACTORS
330
9C
102
}
330
9C
100
AcDbXrecord
340
83
  0
DICTIONARYVAR
  5
90
102
{ACAD_REACTORS
330
7F
102
}
330
7F
100
DictionaryVariables
280
     0
  1
STANDARD
  0
DICTIONARYVAR
  5
9B
102
{ACAD_REACTORS
330
7F
102
}
330
7F
100
DictionaryVariables
280
     0
  1
0
  0
DICTIONARY
  5
9F
330
13
100
AcDbDictionary
280
     1
281
     1
  3
ACAD_XREC_ROUNDTRIP
360
A0
  0
DICTIONARY
  5
A1
330
C
100
AcDbDictionary
280
     1
281
     1
  3
ACAD_XREC_ROUNDTRIP
360
A2
  0
XRECORD
  5
A0
102
{ACAD_REACTORS
330
9F
102
}
330
9F
100
AcDbXrecord
102
SHADEPLOT
 70
     0
102
SHADEPLOTRESLEVEL
 70
     2
102
SHADEPLOTCUSTOMDPI
 70
   300
  0
XRECORD
  5
A2
102
{ACAD_REACTORS
330
A1
102
}
330
A1
100
AcDbXrecord
102
SHADEPLOT
 70
     0
102
SHADEPLOTRESLEVEL
 70
     2
102
SHADEPLOTCUSTOMDPI
 70
   300
  0
ENDSEC
  0
EOF
