  0
SECTION
  2
HEADER
  9
$ACADVER
  1
AC1018
  9
$ACADMAINTVER
 70
     6
  9
$DWGCODEPAGE
  3
ANSI_1252
  9
$INSBASE
 10
0.0
 20
0.0
 30
0.0
  9
$EXTMIN
 10
-29.99566263769588
 20
-0.0009559218591306
 30
-0.000000000000013
  9
$EXTMAX
 10
42.00088730526599
 20
45.81348074610548
 30
0.0000000000000023
  9
$LIMMIN
 10
0.0
 20
0.0
  9
$LIMMAX
 10
31.5
 20
24.0
  9
$ORTHOMODE
 70
     1
  9
$REGENMODE
 70
     1
  9
$FILLMODE
 70
     1
  9
$QTEXTMODE
 70
     0
  9
$MIRRTEXT
 70
     1
  9
$LTSCALE
 40
1.0
  9
$ATTMODE
 70
     1
  9
$TEXTSIZE
 40
0.27
  9
$TRACEWID
 40
0.05
  9
$TEXTSTYLE
  7
STANDARD
  9
$CLAYER
  8
0
  9
$CELTYPE
  6
BYLAYER
  9
$CECOLOR
 62
   256
  9
$CELTSCALE
 40
1.0
  9
$DISPSILH
 70
     0
  9
$DIMSCALE
 40
1.0
  9
$DIMASZ
 40
0.375
  9
$DIMEXO
 40
0.0625
  9
$DIMDLI
 40
0.75
  9
$DIMRND
 40
0.0
  9
$DIMDLE
 40
0.0
  9
$DIMEXE
 40
0.18
  9
$DIMTP
 40
0.0
  9
$DIMTM
 40
0.0
  9
$DIMTXT
 40
0.27
  9
$DIMCEN
 40
0.06
  9
$DIMTSZ
 40
0.0
  9
$DIMTOL
 70
     0
  9
$DIMLIM
 70
     0
  9
$DIMTIH
 70
     1
  9
$DIMTOH
 70
     1
  9
$DIMSE1
 70
     0
  9
$DIMSE2
 70
     0
  9
$DIMTAD
 70
     0
  9
$DIMZIN
 70
     0
  9
$DIMBLK
  1

  9
$DIMASO
 70
     0
  9
$DIMSHO
 70
     0
  9
$DIMPOST
  1

  9
$DIMAPOST
  1

  9
$DIMALT
 70
     0
  9
$DIMALTD
 70
     2
  9
$DIMALTF
 40
25.4
  9
$DIMLFAC
 40
1.0
  9
$DIMTOFL
 70
     0
  9
$DIMTVP
 40
0.0
  9
$DIMTIX
 70
     0
  9
$DIMSOXD
 70
     0
  9
$DIMSAH
 70
     0
  9
$DIMBLK1
  1

  9
$DIMBLK2
  1

  9
$DIMSTYLE
  2
STANDARD
  9
$DIMCLRD
 70
     0
  9
$DIMCLRE
 70
     0
  9
$DIMCLRT
 70
     0
  9
$DIMTFAC
 40
1.0
  9
$DIMGAP
 40
0.09375
  9
$DIMJUST
 70
     0
  9
$DIMSD1
 70
     0
  9
$DIMSD2
 70
     0
  9
$DIMTOLJ
 70
     1
  9
$DIMTZIN
 70
     0
  9
$DIMALTZ
 70
     0
  9
$DIMALTTZ
 70
     0
  9
$DIMUPT
 70
     0
  9
$DIMDEC
 70
     5
  9
$DIMTDEC
 70
     5
  9
$DIMALTU
 70
     5
  9
$DIMALTTD
 70
     2
  9
$DIMTXSTY
  7
STANDARD
  9
$DIMAUNIT
 70
     0
  9
$DIMADEC
 70
     0
  9
$DIMALTRND
 40
0.0
  9
$DIMAZIN
 70
     0
  9
$DIMDSEP
 70
    46
  9
$DIMATFIT
 70
     3
  9
$DIMFRAC
 70
     2
  9
$DIMLDRBLK
  1

  9
$DIMLUNIT
 70
     5
  9
$DIMLWD
 70
    -2
  9
$DIMLWE
 70
    -2
  9
$DIMTMOVE
 70
     2
  9
$LUNITS
 70
     5
  9
$LUPREC
 70
     5
  9
$SKETCHINC
 40
0.1
  9
$FILLETRAD
 40
0.046
  9
$AUNITS
 70
     0
  9
$AUPREC
 70
     0
  9
$MENU
  1
ACAD
  9
$ELEVATION
 40
0.0
  9
$PELEVATION
 40
0.0
  9
$THICKNESS
 40
0.0
  9
$LIMCHECK
 70
     0
  9
$CHAMFERA
 40
0.0
  9
$CHAMFERB
 40
0.0
  9
$CHAMFERC
 40
0.0
  9
$CHAMFERD
 40
0.0
  9
$SKPOLY
 70
     0
  9
$TDCREATE
 40
2450361.983267361
  9
$TDUCREATE
 40
2450362.316600694
  9
$TDUPDATE
 40
2454417.971325197
  9
$TDUUPDATE
 40
2454418.30465853
  9
$TDINDWG
 40
1.2777325926
  9
$TDUSRTIMER
 40
0.0
  9
$USRTIMER
 70
     0
  9
$ANGBASE
 50
0.0
  9
$ANGDIR
 70
     0
  9
$PDMODE
 70
     0
  9
$PDSIZE
 40
0.0
  9
$PLINEWID
 40
0.0
  9
$SPLFRAME
 70
     0
  9
$SPLINETYPE
 70
     6
  9
$SPLINESEGS
 70
     8
  9
$HANDSEED
  5
4225
  9
$SURFTAB1
 70
     6
  9
$SURFTAB2
 70
     6
  9
$SURFTYPE
 70
     6
  9
$SURFU
 70
     6
  9
$SURFV
 70
     6
  9
$UCSBASE
  2

  9
$UCSNAME
  2

  9
$UCSORG
 10
0.0
 20
0.0
 30
0.0
  9
$UCSXDIR
 10
1.0
 20
0.0
 30
0.0
  9
$UCSYDIR
 10
0.0
 20
1.0
 30
0.0
  9
$UCSORTHOREF
  2

  9
$UCSORTHOVIEW
 70
     0
  9
$UCSORGTOP
 10
0.0
 20
0.0
 30
0.0
  9
$UCSORGBOTTOM
 10
0.0
 20
0.0
 30
0.0
  9
$UCSORGLEFT
 10
0.0
 20
0.0
 30
0.0
  9
$UCSORGRIGHT
 10
0.0
 20
0.0
 30
0.0
  9
$UCSORGFRONT
 10
0.0
 20
0.0
 30
0.0
  9
$UCSORGBACK
 10
0.0
 20
0.0
 30
0.0
  9
$PUCSBASE
  2

  9
$PUCSNAME
  2

  9
$PUCSORG
 10
0.0
 20
0.0
 30
0.0
  9
$PUCSXDIR
 10
1.0
 20
0.0
 30
0.0
  9
$PUCSYDIR
 10
0.0
 20
1.0
 30
0.0
  9
$PUCSORTHOREF
  2

  9
$PUCSORTHOVIEW
 70
     0
  9
$PUCSORGTOP
 10
0.0
 20
0.0
 30
0.0
  9
$PUCSORGBOTTOM
 10
0.0
 20
0.0
 30
0.0
  9
$PUCSORGLEFT
 10
0.0
 20
0.0
 30
0.0
  9
$PUCSORGRIGHT
 10
0.0
 20
0.0
 30
0.0
  9
$PUCSORGFRONT
 10
0.0
 20
0.0
 30
0.0
  9
$PUCSORGBACK
 10
0.0
 20
0.0
 30
0.0
  9
$USERI1
 70
     0
  9
$USERI2
 70
     0
  9
$USERI3
 70
     0
  9
$USERI4
 70
     0
  9
$USERI5
 70
     0
  9
$USERR1
 40
0.0
  9
$USERR2
 40
0.0
  9
$USERR3
 40
0.0
  9
$USERR4
 40
0.0
  9
$USERR5
 40
0.0
  9
$WORLDVIEW
 70
     1
  9
$SHADEDGE
 70
     3
  9
$SHADEDIF
 70
    70
  9
$TILEMODE
 70
     1
  9
$MAXACTVP
 70
    16
  9
$PINSBASE
 10
0.0
 20
0.0
 30
0.0
  9
$PLIMCHECK
 70
     0
  9
$PEXTMIN
 10
1.000000000000000E+20
 20
1.000000000000000E+20
 30
1.000000000000000E+20
  9
$PEXTMAX
 10
-1.000000000000000E+20
 20
-1.000000000000000E+20
 30
-1.000000000000000E+20
  9
$PLIMMIN
 10
0.0
 20
0.0
  9
$PLIMMAX
 10
12.0
 20
9.0
  9
$UNITMODE
 70
     0
  9
$VISRETAIN
 70
     1
  9
$PLINEGEN
 70
     1
  9
$PSLTSCALE
 70
     0
  9
$TREEDEPTH
 70
  3020
  9
$CMLSTYLE
  2
STANDARD
  9
$CMLJUST
 70
     0
  9
$CMLSCALE
 40
1.0
  9
$PROXYGRAPHICS
 70
     1
  9
$MEASUREMENT
 70
     0
  9
$CELWEIGHT
370
    -1
  9
$ENDCAPS
280
     0
  9
$JOINSTYLE
280
     0
  9
$LWDISPLAY
290
     0
  9
$INSUNITS
 70
     0
  9
$HYPERLINKBASE
  1

  9
$STYLESHEET
  1
monochrome.ctb
  9
$XEDIT
290
     1
  9
$CEPSNTYPE
380
     0
  9
$PSTYLEMODE
290
     1
  9
$FINGERPRINTGUID
  2
{B4B5AE23-2B15-11D4-AFE6-00805F15063D}
  9
$VERSIONGUID
  2
{4F793B44-F871-4972-AE29-E3307B2CA316}
  9
$EXTNAMES
290
     1
  9
$PSVPSCALE
 40
0.0
  9
$OLESTARTUP
290
     0
  9
$SORTENTS
280
   127
  9
$INDEXCTL
280
     0
  9
$HIDETEXT
280
     1
  9
$XCLIPFRAME
290
     0
  9
$HALOGAP
280
     0
  9
$OBSCOLOR
 70
   257
  9
$OBSLTYPE
280
     0
  9
$INTERSECTIONDISPLAY
280
     0
  9
$INTERSECTIONCOLOR
 70
   257
  9
$DIMASSOC
280
     0
  9
$PROJECTNAME
  1

  0
ENDSEC
  0
SECTION
  2
CLASSES
  0
CLASS
  1
DICTIONARYVAR
  2
AcDbDictionaryVar
  3
AutoCAD 2000
 90
        0
 91
        1
280
     0
281
     0
  0
CLASS
  1
LWPOLYLINE
  2
AcDbPolyline
  3
AutoCAD 2000
 90
        0
 91
        8
280
     0
281
     1
  0
CLASS
  1
ACDBDICTIONARYWDFLT
  2
AcDbDictionaryWithDefault
  3
AutoCAD 2000
 90
        0
 91
        1
280
     0
281
     0
  0
CLASS
  1
ACDBPLACEHOLDER
  2
AcDbPlaceHolder
  3
ObjectDBX Classes
 90
        0
 91
        3
280
     0
281
     0
  0
CLASS
  1
LAYOUT
  2
AcDbLayout
  3
ObjectDBX Classes
 90
        0
 91
        3
280
     0
281
     0
  0
CLASS
  1
LONG_TRANSACTION
  2
AcDbLongTransaction
  3
ObjectDBX Classes
 90
   -65536
 91
        5
280
     1
281
     0
  0
CLASS
  1
LWPOLYLINE
  2
AcDbPolyline
  3
AutoCAD 2000
 90
        0
 91
        8
280
     0
281
     1
  0
CLASS
  1
HATCH
  2
AcDbHatch
  3
AutoCAD 2000
 90
        0
 91
        7
280
     0
281
     1
  0
CLASS
  1
XRECORD
  2
AcDbXrecord
  3
AutoCAD 2000
 90
        0
 91
        7
280
     0
281
     0
  0
CLASS
  1
LONG_TRANSACTION
  2
AcDbLongTransaction
  3
ObjectDBX Classes
 90
   -65536
 91
        5
280
     1
281
     0
  0
CLASS
  1
LWPOLYLINE
  2
AcDbPolyline
  3
AutoCAD 2000
 90
        0
 91
        8
280
     0
281
     1
  0
CLASS
  1
HATCH
  2
AcDbHatch
  3
AutoCAD 2000
 90
        0
 91
        7
280
     0
281
     1
  0
CLASS
  1
XRECORD
  2
AcDbXrecord
  3
AutoCAD 2000
 90
        0
 91
        7
280
     0
281
     0
  0
CLASS
  1
LONG_TRANSACTION
  2
AcDbLongTransaction
  3
ObjectDBX Classes
 90
   -65536
 91
        5
280
     1
281
     0
  0
CLASS
  1
LWPOLYLINE
  2
AcDbPolyline
  3
AutoCAD 2000
 90
        0
 91
        8
280
     0
281
     1
  0
CLASS
  1
HATCH
  2
AcDbHatch
  3
AutoCAD 2000
 90
        0
 91
        7
280
     0
281
     1
  0
CLASS
  1
XRECORD
  2
AcDbXrecord
  3
AutoCAD 2000
 90
        0
 91
        7
280
     0
281
     0
  0
CLASS
  1
LONG_TRANSACTION
  2
AcDbLongTransaction
  3
ObjectDBX Classes
 90
   -65536
 91
        5
280
     1
281
     0
  0
CLASS
  1
LWPOLYLINE
  2
AcDbPolyline
  3
AutoCAD 2000
 90
        0
 91
        8
280
     0
281
     1
  0
CLASS
  1
HATCH
  2
AcDbHatch
  3
AutoCAD 2000
 90
        0
 91
        7
280
     0
281
     1
  0
CLASS
  1
XRECORD
  2
AcDbXrecord
  3
AutoCAD 2000
 90
        0
 91
        7
280
     0
281
     0
  0
CLASS
  1
LONG_TRANSACTION
  2
AcDbLongTransaction
  3
ObjectDBX Classes
 90
   -65536
 91
        5
280
     1
281
     0
  0
CLASS
  1
LWPOLYLINE
  2
AcDbPolyline
  3
AutoCAD 2000
 90
        0
 91
        8
280
     0
281
     1
  0
CLASS
  1
HATCH
  2
AcDbHatch
  3
AutoCAD 2000
 90
        0
 91
        7
280
     0
281
     1
  0
CLASS
  1
XRECORD
  2
AcDbXrecord
  3
AutoCAD 2000
 90
        0
 91
        7
280
     0
281
     0
  0
CLASS
  1
TABLESTYLE
  2
AcDbTableStyle
  3
ObjectDBX Classes
 90
     2047
 91
        2
280
     1
281
     0
  0
CLASS
  1
SORTENTSTABLE
  2
AcDbSortentsTable
  3
AutoCAD 2000
 90
        0
 91
        1
280
     0
281
     0
  0
CLASS
  1
MATERIAL
  2
AcDbMaterial
  3
ObjectDBX Classes
 90
        0
 91
        2
280
     1
281
     0
  0
ENDSEC
  0
SECTION
  2
TABLES
  0
TABLE
  2
VPORT
  5
8
330
0
100
AcDbSymbolTable
 70
     6
  0
VPORT
  5
421B
330
8
100
AcDbSymbolTableRecord
100
AcDbViewportTableRecord
  2
*Active
 70
     0
 10
0.0
 20
0.0
 11
1.0
 21
1.0
 12
3.148257352568976
 22
11.98137837399749
 13
0.0
 23
0.0
 14
0.0625
 24
0.0625
 15
0.5
 25
0.5
 16
0.0
 26
0.0
 36
1.0
 17
0.0
 27
0.0
 37
0.0
 40
34.44421991856626
 41
1.78118609406953
 42
50.0
 43
0.0
 44
0.0
 50
0.0
 51
0.0
 71
     0
 72
  5000
 73
     1
 74
     0
 75
     0
 76
     0
 77
     0
 78
     0
281
     0
 65
     1
110
0.0
120
0.0
130
0.0
111
1.0
121
0.0
131
0.0
112
0.0
122
1.0
132
0.0
 79
     0
146
0.0
  0
ENDTAB
  0
TABLE
  2
LTYPE
  5
5
330
0
100
AcDbSymbolTable
 70
     3
  0
LTYPE
  5
11
330
5
100
AcDbSymbolTableRecord
100
AcDbLinetypeTableRecord
  2
BYBLOCK
 70
     0
  3

 72
    65
 73
     0
 40
0.0
  0
LTYPE
  5
12
330
5
100
AcDbSymbolTableRecord
100
AcDbLinetypeTableRecord
  2
BYLAYER
 70
     0
  3

 72
    65
 73
     0
 40
0.0
  0
LTYPE
  5
13
330
5
100
AcDbSymbolTableRecord
100
AcDbLinetypeTableRecord
  2
CONTINUOUS
 70
     0
  3
Solid line
 72
    65
 73
     0
 40
0.0
  0
LTYPE
  5
2FA9
330
5
100
AcDbSymbolTableRecord
100
AcDbLinetypeTableRecord
  2
HIDDENX2
 70
     0
  3
Hidden (2x) ____ ____ ____ ____ ____ ____ ____
 72
    65
 73
     2
 40
0.75
 49
0.5
 74
     0
 49
-0.25
 74
     0
  0
ENDTAB
  0
TABLE
  2
LAYER
  5
2
102
{ACAD_XDICTIONARY
360
25C9
102
}
330
0
100
AcDbSymbolTable
 70
    13
  0
LAYER
  5
E
330
2
100
AcDbSymbolTableRecord
100
AcDbLayerTableRecord
  2
0
 70
     0
 62
     7
  6
CONTINUOUS
370
    -3
390
1AB0
  0
LAYER
  5
2334
330
2
100
AcDbSymbolTableRecord
100
AcDbLayerTableRecord
  2
DEFPOINTS
 70
     0
 62
     7
  6
CONTINUOUS
290
     0
370
    -3
390
1AB0
  0
ENDTAB
  0
TABLE
  2
STYLE
  5
3
330
0
100
AcDbSymbolTable
 70
     4
  0
STYLE
  5
F
330
3
100
AcDbSymbolTableRecord
100
AcDbTextStyleTableRecord
  2
STANDARD
 70
     0
 40
0.0
 41
1.0
 50
0.0
 71
     0
 42
0.27
  3
txt
  4

  0
ENDTAB
  0
TABLE
  2
VIEW
  5
6
330
0
100
AcDbSymbolTable
 70
     2
  0
VIEW
  5
31
330
6
100
AcDbSymbolTableRecord
100
AcDbViewTableRecord
  2
UPLEFT
 70
     0
 40
7.267558989926865
 10
11.14952248225718
 20
17.744997930178
 41
1.0
 11
0.0
 21
0.0
 31
1.0
 12
0.0
 22
0.0
 32
0.0
 42
50.0
 43
0.0
 44
0.0
 50
0.0
 71
     0
281
     0
 72
     0
  0
VIEW
  5
32
330
6
100
AcDbSymbolTableRecord
100
AcDbViewTableRecord
  2
PRINTER
 70
     0
 40
23.6875
 10
15.90625
 20
11.84375
 41
31.8125
 11
0.0
 21
0.0
 31
1.0
 12
0.0
 22
0.0
 32
0.0
 42
50.0
 43
0.0
 44
0.0
 50
0.0
 71
     0
281
     0
 72
     0
  0
ENDTAB
  0
TABLE
  2
UCS
  5
7
330
0
100
AcDbSymbolTable
 70
     0
  0
ENDTAB
  0
TABLE
  2
APPID
  5
9
330
0
100
AcDbSymbolTable
 70
     7
  0
APPID
  5
10
330
9
100
AcDbSymbolTableRecord
100
AcDbRegAppTableRecord
  2
ACAD
 70
     0
  0
APPID
  5
25BF
330
9
100
AcDbSymbolTableRecord
100
AcDbRegAppTableRecord
  2
ACAD_PSEXT
 70
     0
  0
APPID
  5
2CC9
330
9
100
AcDbSymbolTableRecord
100
AcDbRegAppTableRecord
  2
DCO15
 70
     0
  0
APPID
  5
2FC0
330
9
100
AcDbSymbolTableRecord
100
AcDbRegAppTableRecord
  2
ACAD_DSTYLE_DIMRADIAL_EXTENSION
 70
     0
  0
APPID
  5
3837
330
9
100
AcDbSymbolTableRecord
100
AcDbRegAppTableRecord
  2
ACAD_DSTYLE_DIMJAG
 70
     0
  0
APPID
  5
3838
330
9
100
AcDbSymbolTableRecord
100
AcDbRegAppTableRecord
  2
ACAD_DSTYLE_DIMTALN
 70
     0
  0
APPID
  5
3A55
330
9
100
AcDbSymbolTableRecord
100
AcDbRegAppTableRecord
  2
ACAD_DSTYLE_DIMTEXT_FILL
 70
     0
  0
ENDTAB
  0
TABLE
  2
DIMSTYLE
  5
A
330
0
100
AcDbSymbolTable
 70
     1
100
AcDbDimStyleTable
  0
DIMSTYLE
105
474
330
A
100
AcDbSymbolTableRecord
100
AcDbDimStyleTableRecord
  2
STANDARD
 70
     0
  3

  4

340
F
  0
ENDTAB
  0
TABLE
  2
BLOCK_RECORD
  5
1
330
0
100
AcDbSymbolTable
 70
    11
  0
BLOCK_RECORD
  5
17
102
{ACAD_XDICTIONARY
360
1B10
102
}
330
1
100
AcDbSymbolTableRecord
100
AcDbBlockTableRecord
  2
*MODEL_SPACE
340
1AB3
  0
BLOCK_RECORD
  5
14
330
1
100
AcDbSymbolTableRecord
100
AcDbBlockTableRecord
  2
*PAPER_SPACE
340
1AB4
  0
ENDTAB
  0
ENDSEC
  0
SECTION
  2
BLOCKS
  0
BLOCK
  5
45
330
17
100
AcDbEntity
  8
0
100
AcDbBlockBegin
  2
*MODEL_SPACE
 70
     0
 10
0.0
 20
0.0
 30
0.0
  3
*MODEL_SPACE
  1

  4

  0
ENDBLK
  5
46
330
17
100
AcDbEntity
  8
0
100
AcDbBlockEnd
  0
BLOCK
  5
43
330
14
100
AcDbEntity
 67
     1
  8
0
100
AcDbBlockBegin
  2
*PAPER_SPACE
 70
     0
 10
0.0
 20
0.0
 30
0.0
  3
*PAPER_SPACE
  1

  4

  0
ENDBLK
  5
44
330
14
100
AcDbEntity
 67
     1
  8
0
100
AcDbBlockEnd
  0
ENDSEC
  0
SECTION
  2
ENTITIES
  0
LINE
  5
30BB
330
17
100
AcDbEntity
  8
0
100
AcDbLine
 10
3.125
 20
0.2500000000001137
 30
0.0
 11
3.124999999999886
 21
5.245000988367337
 31
0.0
  0
LINE
  5
30BC
330
17
100
AcDbEntity
  8
0
100
AcDbLine
 10
-3.125
 20
5.245000988367337
 30
0.0
 11
-3.125
 21
0.25
 31
0.0
  0
LINE
  5
30BD
330
17
100
AcDbEntity
  8
0
100
AcDbLine
 10
-2.875
 20
0.0
 30
0.0
 11
2.875
 21
0.0
 31
0.0
  0
CIRCLE
  5
30BE
330
17
100
AcDbEntity
  8
0
100
AcDbCircle
 10
1.000000000000028
 20
0.5000000000001137
 30
0.0
 40
0.0855
  0
LINE
  5
30BF
330
17
100
AcDbEntity
  8
0
100
AcDbLine
 10
-3.125
 20
0.25
 30
0.0
 11
-2.875
 21
0.0
 31
0.0
  0
CIRCLE
  5
30C0
330
17
100
AcDbEntity
  8
0
100
AcDbCircle
 10
0.6250000000000284
 20
1.315000000000055
 30
0.0
 40
0.0855
  0
CIRCLE
  5
30C1
330
17
100
AcDbEntity
  8
0
100
AcDbCircle
 10
2.5625
 20
0.5000000000001137
 30
0.0
 40
0.0855
  0
LINE
  5
30C2
330
17
100
AcDbEntity
  8
0
100
AcDbLine
 10
2.875
 20
0.0
 30
0.0
 11
3.125
 21
0.25
 31
0.0
  0
ARC
  5
30C3
330
17
100
AcDbEntity
  8
0
100
AcDbCircle
 10
5.638047891746055
 20
11.70287670241567
 30
0.0
 40
0.225
100
AcDbArc
 50
315.0000000000005
 51
135.0000000000005
  0
LINE
  5
30C4
330
17
100
AcDbEntity
  8
0
  6
HIDDENX2
100
AcDbLine
 10
5.10771780585614
 20
12.23320678830558
 30
0.0
 11
1.840703916153586
 21
8.966192898603005
 31
0.0
  0
LINE
  5
30C5
330
17
100
AcDbEntity
  8
0
  6
HIDDENX2
100
AcDbLine
 10
5.284494501152778
 20
12.05643009300895
 30
0.0
 11
2.017480611450225
 21
8.78941620330637
 31
0.0
  0
LINE
  5
30C6
330
17
100
AcDbEntity
  8
0
100
AcDbLine
 10
5.355205179271451
 20
11.98571941489029
 30
0.0
 11
2.088191289568869
 21
8.718705525187719
 31
0.0
  0
LINE
  5
30C7
330
17
100
AcDbEntity
  8
0
100
AcDbLine
 10
5.037007127737525
 20
12.30391746642422
 30
0.0
 11
1.769993238034914
 21
9.036903576721681
 31
0.0
  0
ARC
  5
30C8
330
17
100
AcDbEntity
  8
0
100
AcDbCircle
 10
4.387499999999164
 20
12.91676165490691
 30
0.0
 40
0.225
100
AcDbArc
 50
180.0000000000004
 51
0.0000000000004071
  0
ARC
  5
30C9
330
17
100
AcDbEntity
  8
0
100
AcDbCircle
 10
-4.387499999999164
 20
12.9167616549069
 30
0.0
 40
0.225
100
AcDbArc
 50
180.0000000000006
 51
0.0000000000006107
  0
LINE
  5
30CB
330
17
100
AcDbEntity
  8
0
100
AcDbLine
 10
6.3125
 20
9.095242688164376
 30
0.0
 11
6.3125
 21
15.07301165490696
 31
0.0
  0
ARC
  5
30CE
330
17
100
AcDbEntity
  8
0
100
AcDbCircle
 10
-5.638047891746055
 20
11.70287670241567
 30
0.0
 40
0.225
100
AcDbArc
 50
44.99999999999954
 51
224.9999999999996
  0
LINE
  5
30CF
330
17
100
AcDbEntity
  8
0
100
AcDbLine
 10
-5.037007127737525
 20
12.30391746642422
 30
0.0
 11
-1.769993238034914
 21
9.036903576721681
 31
0.0
  0
LINE
  5
30D0
330
17
100
AcDbEntity
  8
0
  6
HIDDENX2
100
AcDbLine
 10
-5.284494501152778
 20
12.05643009300895
 30
0.0
 11
-2.017480611450225
 21
8.78941620330637
 31
0.0
  0
LINE
  5
30D1
330
17
100
AcDbEntity
  8
0
  6
HIDDENX2
100
AcDbLine
 10
-5.10771780585614
 20
12.23320678830558
 30
0.0
 11
-1.840703916153586
 21
8.966192898603005
 31
0.0
  0
LINE
  5
30D2
330
17
100
AcDbEntity
  8
0
100
AcDbLine
 10
-5.355205179271451
 20
11.98571941489029
 30
0.0
 11
-2.088191289568869
 21
8.718705525187719
 31
0.0
  0
LINE
  5
30D4
330
17
100
AcDbEntity
  8
0
100
AcDbLine
 10
-6.3125
 20
15.07301165490696
 30
0.0
 11
-6.3125
 21
9.095242688164149
 31
0.0
  0
ARC
  5
30D5
330
17
100
AcDbEntity
  8
0
100
AcDbCircle
 10
1.929092263801891
 20
8.877804550954707
 30
0.0
 40
0.225
100
AcDbArc
 50
135.0000000000005
 51
315.0000000000005
  0
ARC
  5
30D6
330
17
100
AcDbEntity
  8
0
  6
HIDDENX2
100
AcDbCircle
 10
1.929092263801891
 20
8.877804550954707
 30
0.0
 40
0.125
100
AcDbArc
 50
135.0000000000005
 51
315.0000000000005
  0
ARC
  5
30D8
330
17
100
AcDbEntity
  8
0
100
AcDbCircle
 10
1.929092263801891
 20
8.877804550954707
 30
0.0
 40
0.225
100
AcDbArc
 50
134.9999999999993
 51
314.9999999999993
  0
LINE
  5
30D9
330
17
100
AcDbEntity
  8
0
100
AcDbLine
 10
-6.078185424949197
 20
8.529557263214883
 30
0.0
 11
-3.359314575050803
 21
5.810686413316603
 31
0.0
  0
CIRCLE
  5
30DA
330
17
100
AcDbEntity
  8
0
100
AcDbCircle
 10
1.000000000000028
 20
2.130000000000109
 30
0.0
 40
0.0855
  0
CIRCLE
  5
30DB
330
17
100
AcDbEntity
  8
0
100
AcDbCircle
 10
0.6250000000000284
 20
2.94500000000005
 30
0.0
 40
0.0855
  0
CIRCLE
  5
30DC
330
17
100
AcDbEntity
  8
0
100
AcDbCircle
 10
1.000000000000028
 20
3.760000000000105
 30
0.0
 40
0.0855
  0
ARC
  5
30DD
330
17
100
AcDbEntity
  8
0
100
AcDbCircle
 10
-3.924999999999955
 20
5.245000988367337
 30
0.0
 40
0.7999999999999582
100
AcDbArc
 50
0.0
 51
45.00000000000874
  0
CIRCLE
  5
30DE
330
17
100
AcDbEntity
  8
0
100
AcDbCircle
 10
0.6250000000000284
 20
4.575000000000046
 30
0.0
 40
0.0855
  0
CIRCLE
  5
30DF
330
17
100
AcDbEntity
  8
0
100
AcDbCircle
 10
1.000000000000028
 20
5.3900000000001
 30
0.0
 40
0.0855
  0
CIRCLE
  5
30E0
330
17
100
AcDbEntity
  8
0
100
AcDbCircle
 10
0.6875
 20
6.205000000000041
 30
0.0
 40
0.0855
  0
LINE
  5
30E1
330
17
100
AcDbEntity
  8
0
100
AcDbLine
 10
-5.478948865979078
 20
11.86197572818264
 30
0.0
 11
-2.211934976276524
 21
8.594961838480071
 31
0.0
  0
LINE
  5
30E2
330
17
100
AcDbEntity
  8
0
  6
HIDDENX2
100
AcDbLine
 10
-5.726436239394388
 20
11.61448835476734
 30
0.0
 11
-2.459422349691806
 21
8.347474465064785
 31
0.0
  0
LINE
  5
30E3
330
17
100
AcDbEntity
  8
0
  6
HIDDENX2
100
AcDbLine
 10
-5.549659544097722
 20
11.79126505006398
 30
0.0
 11
-2.282645654395168
 21
8.524251160361416
 31
0.0
  0
LINE
  5
30E4
330
17
100
AcDbEntity
  8
0
100
AcDbLine
 10
-5.797146917513032
 20
11.54377767664869
 30
0.0
 11
-2.53013302781045
 21
8.276763786946127
 31
0.0
  0
ARC
  5
30E5
330
17
100
AcDbEntity
  8
0
100
AcDbCircle
 10
-5.512499999999932
 20
9.095242688164149
 30
0.0
 40
0.8000000000000682
100
AcDbArc
 50
180.0
 51
224.9999999999949
  0
ARC
  5
30E6
330
17
100
AcDbEntity
  8
0
100
AcDbCircle
 10
-2.371034002043473
 20
8.435862812713104
 30
0.0
 40
0.225
100
AcDbArc
 50
225.0000000000007
 51
44.99999999999954
  0
ARC
  5
30E7
330
17
100
AcDbEntity
  8
0
100
AcDbCircle
 10
-1.929092263801891
 20
8.877804550954707
 30
0.0
 40
0.225
100
AcDbArc
 50
224.9999999999996
 51
44.99999999999954
  0
ARC
  5
30E8
330
17
100
AcDbEntity
  8
0
  6
HIDDENX2
100
AcDbCircle
 10
-1.929092263801891
 20
8.877804550954707
 30
0.0
 40
0.125
100
AcDbArc
 50
224.9999999999996
 51
44.99999999999954
  0
ARC
  5
30E9
330
17
100
AcDbEntity
  8
0
100
AcDbCircle
 10
-1.929092263801891
 20
8.877804550954707
 30
0.0
 40
0.225
100
AcDbArc
 50
225.0000000000007
 51
45.00000000000068
  0
ARC
  5
30EA
330
17
100
AcDbEntity
  8
0
  6
HIDDENX2
100
AcDbCircle
 10
-1.929092263801891
 20
8.877804550954707
 30
0.0
 40
0.125
100
AcDbArc
 50
224.9999999999996
 51
44.99999999999954
  0
ARC
  5
30EB
330
17
100
AcDbEntity
  8
0
  6
HIDDENX2
100
AcDbCircle
 10
-2.371034002043473
 20
8.435862812713104
 30
0.0
 40
0.125
100
AcDbArc
 50
224.9999999999996
 51
44.99999999999954
  0
ARC
  5
30EC
330
17
100
AcDbEntity
  8
0
  6
HIDDENX2
100
AcDbCircle
 10
-5.638047891746055
 20
11.70287670241567
 30
0.0
 40
0.125
100
AcDbArc
 50
45.00000000000068
 51
225.0000000000007
  0
LINE
  5
30ED
330
17
100
AcDbEntity
  8
0
100
AcDbLine
 10
3.359314575050689
 20
5.810686413316489
 30
0.0
 11
6.078185424949311
 21
8.529557263214997
 31
0.0
  0
CIRCLE
  5
30EE
330
17
100
AcDbEntity
  8
0
100
AcDbCircle
 10
2.5625
 20
2.130000000000109
 30
0.0
 40
0.0855
  0
CIRCLE
  5
30EF
330
17
100
AcDbEntity
  8
0
100
AcDbCircle
 10
2.1875
 20
2.94500000000005
 30
0.0
 40
0.0855
  0
CIRCLE
  5
30F0
330
17
100
AcDbEntity
  8
0
100
AcDbCircle
 10
2.5625
 20
3.760000000000105
 30
0.0
 40
0.0855
  0
ARC
  5
30F1
330
17
100
AcDbEntity
  8
0
100
AcDbCircle
 10
3.924999999999898
 20
5.245000988367224
 30
0.0
 40
0.8000000000000114
100
AcDbArc
 50
134.9999999999959
 51
179.999999999987
  0
CIRCLE
  5
30F2
330
17
100
AcDbEntity
  8
0
100
AcDbCircle
 10
2.1875
 20
4.575000000000046
 30
0.0
 40
0.0855
  0
CIRCLE
  5
30F3
330
17
100
AcDbEntity
  8
0
100
AcDbCircle
 10
2.5625
 20
5.3900000000001
 30
0.0
 40
0.0855
  0
CIRCLE
  5
30F4
330
17
100
AcDbEntity
  8
0
100
AcDbCircle
 10
2.1875
 20
6.205000000000041
 30
0.0
 40
0.0855
  0
LINE
  5
30F5
330
17
100
AcDbEntity
  8
0
  6
HIDDENX2
100
AcDbLine
 10
5.726436239394388
 20
11.61448835476734
 30
0.0
 11
2.459422349691806
 21
8.347474465064785
 31
0.0
  0
LINE
  5
30F6
330
17
100
AcDbEntity
  8
0
100
AcDbLine
 10
5.797146917513032
 20
11.54377767664869
 30
0.0
 11
2.53013302781045
 21
8.276763786946127
 31
0.0
  0
LINE
  5
30F7
330
17
100
AcDbEntity
  8
0
  6
HIDDENX2
100
AcDbLine
 10
5.549659544097722
 20
11.79126505006398
 30
0.0
 11
2.282645654395168
 21
8.524251160361416
 31
0.0
  0
LINE
  5
30F8
330
17
100
AcDbEntity
  8
0
100
AcDbLine
 10
5.478948865979078
 20
11.86197572818264
 30
0.0
 11
2.211934976276524
 21
8.594961838480071
 31
0.0
  0
ARC
  5
30F9
330
17
100
AcDbEntity
  8
0
100
AcDbCircle
 10
2.371034002043473
 20
8.435862812713104
 30
0.0
 40
0.225
100
AcDbArc
 50
135.0000000000005
 51
314.9999999999993
  0
ARC
  5
30FA
330
17
100
AcDbEntity
  8
0
  6
HIDDENX2
100
AcDbCircle
 10
2.371034002043473
 20
8.435862812713104
 30
0.0
 40
0.125
100
AcDbArc
 50
135.0000000000005
 51
315.0000000000005
  0
ARC
  5
30FB
330
17
100
AcDbEntity
  8
0
100
AcDbCircle
 10
5.512499999999875
 20
9.095242688164149
 30
0.0
 40
0.8000000000000788
100
AcDbArc
 50
315.0000000000131
 51
0.0000000000130276
  0
ARC
  5
30FC
330
17
100
AcDbEntity
  8
0
  6
HIDDENX2
100
AcDbCircle
 10
5.638047891746055
 20
11.70287670241567
 30
0.0
 40
0.125
100
AcDbArc
 50
314.9999999999993
 51
134.9999999999993
  0
LINE
  5
30FD
330
17
100
AcDbEntity
  8
0
  6
HIDDENX2
100
AcDbLine
 10
-4.262499999999193
 20
15.3230116549069
 30
0.0
 11
-4.262499999999193
 21
12.9167616549069
 31
0.0
  0
LINE
  5
30FE
330
17
100
AcDbEntity
  8
0
  6
HIDDENX2
100
AcDbLine
 10
-4.512499999999193
 20
15.32301165490691
 30
0.0
 11
-4.512499999999193
 21
12.9167616549069
 31
0.0
  0
LINE
  5
30FF
330
17
100
AcDbEntity
  8
0
100
AcDbLine
 10
-4.162499999999199
 20
15.3230116549069
 30
0.0
 11
-4.162499999999184
 21
12.9167616549069
 31
0.0
  0
LINE
  5
3100
330
17
100
AcDbEntity
  8
0
100
AcDbLine
 10
-4.612499999999187
 20
15.32301165490691
 30
0.0
 11
-4.612499999999187
 21
12.9167616549069
 31
0.0
  0
ARC
  5
3102
330
17
100
AcDbEntity
  8
0
100
AcDbCircle
 10
-5.196106153504474
 20
12.14481844065725
 30
0.0
 40
0.225
100
AcDbArc
 50
45.00000000000068
 51
225.0000000000007
  0
ARC
  5
3103
330
17
100
AcDbEntity
  8
0
  6
HIDDENX2
100
AcDbCircle
 10
-5.196106153504474
 20
12.14481844065725
 30
0.0
 40
0.125
100
AcDbArc
 50
44.99999999999954
 51
224.9999999999996
  0
ARC
  5
3104
330
17
100
AcDbEntity
  8
0
  6
HIDDENX2
100
AcDbCircle
 10
-4.387499999999164
 20
12.9167616549069
 30
0.0
 40
0.125
100
AcDbArc
 50
179.9999999999994
 51
359.9999999999994
  0
LINE
  5
310F
330
17
100
AcDbEntity
  8
0
100
AcDbLine
 10
-6.0625
 20
15.32301165490696
 30
0.0
 11
-6.3125
 21
15.07301165490696
 31
0.0
  0
LINE
  5
3111
330
17
100
AcDbEntity
  8
0
  6
HIDDENX2
100
AcDbLine
 10
4.262499999999196
 20
15.32301165490697
 30
0.0
 11
4.262499999999193
 21
12.9167616549069
 31
0.0
  0
LINE
  5
3112
330
17
100
AcDbEntity
  8
0
100
AcDbLine
 10
4.162499999999195
 20
15.32301165490696
 30
0.0
 11
4.16249999999917
 21
12.91676165490691
 31
0.0
  0
LINE
  5
3113
330
17
100
AcDbEntity
  8
0
  6
HIDDENX2
100
AcDbLine
 10
4.512499999999196
 20
15.32301165490697
 30
0.0
 11
4.512499999999193
 21
12.9167616549069
 31
0.0
  0
LINE
  5
3114
330
17
100
AcDbEntity
  8
0
100
AcDbLine
 10
4.612499999999187
 20
15.32301165490696
 30
0.0
 11
4.612499999999187
 21
12.91676165490691
 31
0.0
  0
ARC
  5
3116
330
17
100
AcDbEntity
  8
0
  6
HIDDENX2
100
AcDbCircle
 10
4.387499999999164
 20
12.9167616549069
 30
0.0
 40
0.125
100
AcDbArc
 50
180.0000000000006
 51
0.0000000000006107
  0
ARC
  5
3118
330
17
100
AcDbEntity
  8
0
  6
HIDDENX2
100
AcDbCircle
 10
5.196106153504474
 20
12.14481844065725
 30
0.0
 40
0.125
100
AcDbArc
 50
315.0000000000005
 51
135.0000000000005
  0
ARC
  5
3119
330
17
100
AcDbEntity
  8
0
100
AcDbCircle
 10
5.196106153504474
 20
12.14481844065725
 30
0.0
 40
0.225
100
AcDbArc
 50
314.9999999999993
 51
134.9999999999993
  0
LINE
  5
311C
330
17
100
AcDbEntity
  8
0
100
AcDbLine
 10
6.3125
 20
15.07301165490696
 30
0.0
 11
6.0625
 21
15.32301165490696
 31
0.0
  0
LINE
  5
313E
330
17
100
AcDbEntity
  8
0
100
AcDbLine
 10
6.0625
 20
15.32301165490696
 30
0.0
 11
3.240625000000833
 21
15.32301165490696
 31
0.0
  0
ARC
  5
3144
330
17
100
AcDbEntity
  8
0
100
AcDbCircle
 10
3.193999999999051
 20
11.29843072069019
 30
0.0
 40
0.3435000000000006
100
AcDbArc
 50
270.0000000000008
 51
82.19887185590135
  0
LINE
  5
3145
330
17
100
AcDbEntity
  8
0
100
AcDbLine
 10
3.193999999999051
 20
10.95493072069018
 30
0.0
 11
-3.193999999999051
 21
10.95493072069019
 31
0.0
  0
ARC
  5
3146
330
17
100
AcDbEntity
  8
0
100
AcDbCircle
 10
-3.193999999999051
 20
11.29843072069018
 30
0.0
 40
0.3434999999999935
100
AcDbArc
 50
97.8011281438273
 51
270.0
  0
LINE
  5
314C
330
17
100
AcDbEntity
  8
0
100
AcDbLine
 10
-3.240624999999199
 20
15.32301165490685
 30
0.0
 11
-6.0625
 21
15.32301165490696
 31
0.0
  0
CIRCLE
  5
314D
330
17
100
AcDbEntity
  8
0
100
AcDbCircle
 10
-2.5625
 20
0.5000000000001137
 30
0.0
 40
0.0855
  0
CIRCLE
  5
314E
330
17
100
AcDbEntity
  8
0
100
AcDbCircle
 10
-2.5625
 20
2.130000000000109
 30
0.0
 40
0.0855
  0
CIRCLE
  5
314F
330
17
100
AcDbEntity
  8
0
100
AcDbCircle
 10
-2.1875
 20
2.94500000000005
 30
0.0
 40
0.0855
  0
CIRCLE
  5
3150
330
17
100
AcDbEntity
  8
0
100
AcDbCircle
 10
-2.5625
 20
3.760000000000105
 30
0.0
 40
0.0855
  0
CIRCLE
  5
3151
330
17
100
AcDbEntity
  8
0
100
AcDbCircle
 10
-2.1875
 20
4.575000000000046
 30
0.0
 40
0.0855
  0
CIRCLE
  5
3152
330
17
100
AcDbEntity
  8
0
100
AcDbCircle
 10
-2.5625
 20
5.3900000000001
 30
0.0
 40
0.0855
  0
CIRCLE
  5
3153
330
17
100
AcDbEntity
  8
0
100
AcDbCircle
 10
-2.1875
 20
6.205000000000041
 30
0.0
 40
0.0855
  0
CIRCLE
  5
3154
330
17
100
AcDbEntity
  8
0
100
AcDbCircle
 10
-1.000000000000014
 20
0.5000000000001137
 30
0.0
 40
0.0855
  0
CIRCLE
  5
3155
330
17
100
AcDbEntity
  8
0
100
AcDbCircle
 10
-0.6250000000000142
 20
1.315000000000055
 30
0.0
 40
0.0855
  0
CIRCLE
  5
3156
330
17
100
AcDbEntity
  8
0
100
AcDbCircle
 10
-1.000000000000014
 20
2.130000000000109
 30
0.0
 40
0.0855
  0
CIRCLE
  5
3157
330
17
100
AcDbEntity
  8
0
100
AcDbCircle
 10
-0.6250000000000142
 20
2.94500000000005
 30
0.0
 40
0.0855
  0
CIRCLE
  5
3158
330
17
100
AcDbEntity
  8
0
100
AcDbCircle
 10
-1.000000000000014
 20
3.760000000000105
 30
0.0
 40
0.0855
  0
CIRCLE
  5
3159
330
17
100
AcDbEntity
  8
0
100
AcDbCircle
 10
-0.6250000000000142
 20
4.575000000000046
 30
0.0
 40
0.0855
  0
CIRCLE
  5
315A
330
17
100
AcDbEntity
  8
0
100
AcDbCircle
 10
-1.000000000000014
 20
5.3900000000001
 30
0.0
 40
0.0855
  0
CIRCLE
  5
315B
330
17
100
AcDbEntity
  8
0
100
AcDbCircle
 10
-0.6874999999999858
 20
6.205000000000041
 30
0.0
 40
0.0855
  0
LWPOLYLINE
  5
319E
330
17
100
AcDbEntity
  8
0
100
AcDbPolyline
 90
       12
 70
     1
 43
0.0
 10
-1.701145199207502
 20
1.096500000000106
 10
-1.638069682298664
 20
1.205749999999853
 10
-1.574994165389768
 20
1.314999999999827
 10
-1.638069682298777
 20
1.424249999999802
 10
-1.701145199207844
 20
1.533500000000004
 10
-1.827296233025464
 20
1.533500000000004
 10
-1.953447266843369
 20
1.533500000000004
 10
-2.016522783752322
 20
1.424250000000029
 10
-2.079598300661274
 20
1.315000000000055
 10
-2.016522783752265
 20
1.205749999999966
 10
-1.953447266843426
 20
1.096499999999992
 10
-1.827296233025464
 20
1.096500000000106
  0
LWPOLYLINE
  5
31A0
330
17
100
AcDbEntity
  8
0
100
AcDbPolyline
 90
       12
 70
     1
 43
0.0
 10
1.953447266843654
 20
1.096500000000106
 10
2.016522783752492
 20
1.205749999999853
 10
2.079598300661388
 20
1.314999999999827
 10
2.016522783752379
 20
1.424249999999802
 10
1.953447266843313
 20
1.533500000000004
 10
1.827296233025692
 20
1.533500000000004
 10
1.701145199207787
 20
1.533500000000004
 10
1.638069682298834
 20
1.424250000000029
 10
1.574994165389882
 20
1.315000000000055
 10
1.638069682298891
 20
1.205749999999966
 10
1.70114519920773
 20
1.096499999999992
 10
1.827296233025692
 20
1.096500000000106
  0
LWPOLYLINE
  5
31A2
330
17
100
AcDbEntity
  8
0
100
AcDbPolyline
 90
       12
 70
     1
 43
0.0
 10
-2.569487671922616
 20
6.736430720690237
 10
-2.506412155013777
 20
6.845680720689984
 10
-2.443336638104881
 20
6.954930720689958
 10
-2.506412155013891
 20
7.064180720689933
 10
-2.569487671922957
 20
7.173430720690135
 10
-2.695638705740578
 20
7.173430720690135
 10
-2.821789739558483
 20
7.173430720690135
 10
-2.884865256467435
 20
7.06418072069016
 10
-2.947940773376388
 20
6.954930720690186
 10
-2.884865256467379
 20
6.845680720690098
 10
-2.82178973955854
 20
6.736430720690123
 10
-2.695638705740578
 20
6.736430720690237
  0
LWPOLYLINE
  5
31A4
330
17
100
AcDbEntity
  8
0
100
AcDbPolyline
 90
       12
 70
     1
 43
0.0
 10
2.821789739560416
 20
6.736430720690237
 10
2.884865256469254
 20
6.845680720689984
 10
2.94794077337815
 20
6.954930720689958
 10
2.884865256469141
 20
7.064180720689933
 10
2.821789739560074
 20
7.173430720690135
 10
2.695638705742454
 20
7.173430720690135
 10
2.569487671924549
 20
7.173430720690135
 10
2.506412155015596
 20
7.06418072069016
 10
2.443336638106644
 20
6.954930720690186
 10
2.506412155015653
 20
6.845680720690098
 10
2.569487671924492
 20
6.736430720690123
 10
2.695638705742454
 20
6.736430720690237
  0
LINE
  5
35BA
330
17
100
AcDbEntity
  8
0
100
AcDbLine
 10
-3.334374999999149
 20
11.61193847079369
 30
0.0
 11
-3.334374999999199
 21
15.32301165490685
 31
0.0
  0
LINE
  5
35BB
330
17
100
AcDbEntity
  8
0
100
AcDbLine
 10
-3.240624999999248
 20
11.63875168592003
 30
0.0
 11
-3.240624999999199
 21
15.32301165490685
 31
0.0
  0
LINE
  5
35BD
330
17
100
AcDbEntity
  8
0
100
AcDbLine
 10
3.240625000000868
 20
11.63875168591982
 30
0.0
 11
3.240625000000819
 21
15.32301165490707
 31
0.0
  0
LINE
  5
35BE
330
17
100
AcDbEntity
  8
0
100
AcDbLine
 10
3.334375000000769
 20
11.61193847079298
 30
0.0
 11
3.334375000000819
 21
15.32301165490707
 31
0.0
  0
LWPOLYLINE
  5
4169
330
17
100
AcDbEntity
  8
0
100
AcDbPolyline
 90
        7
 70
     1
 43
0.0
 10
-5.440930970071602
 20
10.08501571057759
 10
-5.304984289347136
 20
9.949069029853124
 42
0.5773502691896258
 10
-5.254793311122867
 20
9.962517661935646
 10
-5.229913341770203
 20
10.05537097165054
 10
-5.205033372417539
 20
10.14822428136544
 42
0.577350269189628
 10
-5.241775718559287
 20
10.18496662750719
 10
-5.42748233798908
 20
10.13520668880186
 42
0.5773502691896255
  0
LWPOLYLINE
  5
416B
330
17
100
AcDbEntity
  8
0
100
AcDbPolyline
 90
        7
 70
     1
 43
0.0
 10
-3.923291002963236
 20
8.576026857865884
 10
-3.78734432223877
 20
8.440080177141418
 42
0.5773502691896258
 10
-3.737153344014502
 20
8.45352880922394
 10
-3.712273374661837
 20
8.546382118938837
 10
-3.687393405309173
 20
8.639235428653731
 42
0.577350269189628
 10
-3.724135751450922
 20
8.675977774795481
 10
-3.909842370880714
 20
8.626217836090156
 42
0.5773502691896255
  0
LWPOLYLINE
  5
416D
330
17
100
AcDbEntity
  8
0
100
AcDbPolyline
 90
        7
 70
     1
 43
0.0
 10
-1.753430970071602
 20
9.83501571057759
 10
-1.617484289347136
 20
9.699069029853124
 42
0.5773502691896258
 10
-1.567293311122867
 20
9.712517661935646
 10
-1.542413341770203
 20
9.805370971650543
 10
-1.517533372417539
 20
9.898224281365437
 42
0.577350269189628
 10
-1.554275718559287
 20
9.934966627507187
 10
-1.73998233798908
 20
9.885206688801862
 42
0.5773502691896255
  0
LWPOLYLINE
  5
416F
330
17
100
AcDbEntity
  8
0
100
AcDbPolyline
 90
        7
 70
     1
 43
0.0
 10
-0.1284309700716015
 20
8.33501571057759
 10
0.0075157106528643
 20
8.199069029853124
 42
0.5773502691896258
 10
0.0577066888771327
 20
8.212517661935646
 10
0.0825866582297969
 20
8.305370971650543
 10
0.1074666275824612
 20
8.398224281365437
 42
0.577350269189628
 10
0.0707242814407127
 20
8.434966627507187
 10
-0.1149823379890798
 20
8.385206688801862
 42
0.5773502691896255
  0
LWPOLYLINE
  5
4171
330
17
100
AcDbEntity
  8
0
100
AcDbPolyline
 90
        7
 70
     1
 43
0.0
 10
1.496569029928399
 20
9.83501571057759
 10
1.632515710652864
 20
9.699069029853124
 42
0.5773502691896258
 10
1.682706688877133
 20
9.712517661935646
 10
1.707586658229797
 20
9.805370971650543
 10
1.732466627582461
 20
9.898224281365437
 42
0.577350269189628
 10
1.695724281440713
 20
9.934966627507187
 10
1.51001766201092
 20
9.885206688801862
 42
0.5773502691896255
  0
LWPOLYLINE
  5
4173
330
17
100
AcDbEntity
  8
0
100
AcDbPolyline
 90
        7
 70
     1
 43
0.0
 10
3.684069029928399
 20
8.71001571057759
 10
3.820015710652864
 20
8.574069029853124
 42
0.5773502691896258
 10
3.870206688877133
 20
8.587517661935646
 10
3.895086658229797
 20
8.680370971650543
 10
3.919966627582461
 20
8.773224281365437
 42
0.577350269189628
 10
3.883224281440715
 20
8.809966627507187
 10
3.69751766201092
 20
8.760206688801862
 42
0.5773502691896255
  0
LWPOLYLINE
  5
4175
330
17
100
AcDbEntity
  8
0
100
AcDbPolyline
 90
        7
 70
     1
 43
0.0
 10
5.184069029764235
 20
10.08501571057759
 10
5.320015710488701
 20
9.949069029853124
 42
0.5773502691896258
 10
5.370206688712969
 20
9.962517661935646
 10
5.395086658065633
 20
10.05537097165054
 10
5.419966627418297
 20
10.14822428136544
 42
0.577350269189628
 10
5.383224281276551
 20
10.18496662750719
 10
5.197517661846757
 20
10.13520668880186
 42
0.5773502691896255
  0
VIEWPORT
  5
FA8
330
14
100
AcDbEntity
 67
     1
  8
0
100
AcDbViewport
 10
6.599999953899539
 20
4.499999968567867
 30
0.0
 40
35.57762997558133
 41
24.25747498335091
 68
     1
 69
     1
 12
6.599999953899539
 22
4.499999968567867
 13
0.0
 23
0.0
 14
0.0625
 24
0.0625
 15
0.5
 25
0.5
 16
0.0
 26
0.0
 36
1.0
 17
0.0
 27
0.0
 37
0.0
 42
50.0
 43
0.0
 44
0.0
 45
24.25747498335091
 50
0.0
 51
0.0
 72
  5000
 90
    32800
  1

281
     0
 71
     1
 74
     0
110
0.0
120
0.0
130
0.0
111
1.0
121
0.0
131
0.0
112
0.0
122
1.0
132
0.0
 79
     0
146
0.0
170
     0
  0
ENDSEC
  0
SECTION
  2
OBJECTS
  0
DICTIONARY
  5
C
330
0
100
AcDbDictionary
281
     1
  3
ACAD_COLOR
350
25AE
  3
ACAD_GROUP
350
D
  3
ACAD_LAYOUT
350
1AB1
  3
ACAD_MATERIAL
350
25AD
  3
ACAD_MLINESTYLE
350
1A
  3
ACAD_PLOTSETTINGS
350
1AB2
  3
ACAD_PLOTSTYLENAME
350
1AAF
  3
ACAD_TABLESTYLE
350
25AF
  3
ACDBVARIABLEDICTIONARY
350
47
  3
ASE_INDEX_DICTIONARY
350
2CC8
  0
DICTIONARY
  5
25C9
330
2
100
AcDbDictionary
280
     1
281
     1
  3
ACAD_LAYERFILTERS
360
3D17
  3
ACAD_LAYERSTATES
360
25CA
  3
ACLYDICTIONARY
360
3D16
  0
DICTIONARY
  5
1B10
330
17
100
AcDbDictionary
280
     1
281
     1
  3
ACAD_SORTENTS
360
3C0E
  0
DICTIONARY
  5
25AE
102
{ACAD_REACTORS
330
C
102
}
330
C
100
AcDbDictionary
281
     1
  0
DICTIONARY
  5
D
102
{ACAD_REACTORS
330
C
102
}
330
C
100
AcDbDictionary
281
     1
  0
DICTIONARY
  5
1AB1
102
{ACAD_REACTORS
330
C
102
}
330
C
100
AcDbDictionary
281
     1
  3
Layout1
350
1AB4
  3
Model
350
1AB3
  0
DICTIONARY
  5
25AD
102
{ACAD_REACTORS
330
C
102
}
330
C
100
AcDbDictionary
281
     1
  3
Global
350
2FC1
  0
DICTIONARY
  5
1A
102
{ACAD_REACTORS
330
C
102
}
330
C
100
AcDbDictionary
281
     1
  3
STANDARD
350
1B
  0
DICTIONARY
  5
1AB2
102
{ACAD_REACTORS
330
C
102
}
330
C
100
AcDbDictionary
281
     1
  0
ACDBDICTIONARYWDFLT
  5
1AAF
102
{ACAD_REACTORS
330
C
102
}
330
C
100
AcDbDictionary
281
     1
  3
Normal
350
1AB0
100
AcDbDictionaryWithDefault
340
1AB0
  0
DICTIONARY
  5
25AF
102
{ACAD_REACTORS
330
C
102
}
330
C
100
AcDbDictionary
281
     1
  3
Standard
350
25B0
  0
DICTIONARY
  5
47
102
{ACAD_REACTORS
330
C
102
}
330
C
100
AcDbDictionary
281
     1
  3
CTABLESTYLE
350
25E5
  3
DIMADEC
350
48
  3
DIMASSOC
350
25E6
  0
DICTIONARY
  5
2CC8
102
{ACAD_REACTORS
330
C
102
}
330
C
100
AcDbDictionary
281
     1
  3
ASEBlockHierarchyIndexRecord
350
2CCA
1001
DCO15
1040
1605351226.782
  0
DICTIONARY
  5
3D17
102
{ACAD_REACTORS
330
25C9
102
}
330
25C9
100
AcDbDictionary
281
     1
  0
DICTIONARY
  5
25CA
102
{ACAD_REACTORS
330
25C9
102
}
330
25C9
100
AcDbDictionary
281
     1
  0
DICTIONARY
  5
3D16
102
{ACAD_REACTORS
330
25C9
102
}
330
25C9
100
AcDbDictionary
281
     1
1001
ACAD
1000
<All
  0
SORTENTSTABLE
  5
3C0E
102
{ACAD_REACTORS
330
1B10
102
}
330
1B10
100
AcDbSortentsTable
330
17
331
0
  5
35D2
331
30BB
  5
30BC
331
30F9
  5
30FA
331
315B
  5
319D
331
319E
  5
319F
331
3119
  5
311C
331
311C
  5
312E
331
314F
  5
3150
331
30C0
  5
30C1
331
30DC
  5
30DD
331
30F6
  5
30F7
331
30FA
  5
30FB
331
4169
  5
4149
331
416B
  5
414B
331
35BD
  5
35BE
331
35BE
  5
35BF
331
30BE
  5
30BF
331
30C1
  5
30C2
331
30C6
  5
30C7
331
30D0
  5
30D1
331
30D1
  5
30D2
331
30D2
  5
30D4
331
30D4
  5
30D5
331
30D5
  5
30D6
331
30D6
  5
30D7
331
30DE
  5
30DF
331
30DF
  5
30E0
331
30E0
  5
30E1
331
30E1
  5
30E2
331
30E2
  5
30E3
331
30E3
  5
30E4
331
30E4
  5
30E5
331
30E8
  5
30E9
331
30E9
  5
30EA
331
30EC
  5
30ED
331
30EF
  5
30F0
331
30F0
  5
30F1
331
30F4
  5
30F5
331
3102
  5
3103
331
30FF
  5
3100
331
30DD
  5
30DE
331
30FD
  5
30FE
331
30F1
  5
30F2
331
3113
  5
3114
331
3114
  5
3116
331
30EA
  5
30EB
331
30D8
  5
30D9
331
3159
  5
315A
331
315A
  5
315B
331
3152
  5
3153
331
3153
  5
3154
331
30F3
  5
30F4
331
30FC
  5
30FD
331
3118
  5
3119
331
30FE
  5
30FF
331
30C5
  5
30C6
331
313E
  5
3144
331
30D9
  5
30DA
331
310F
  5
3111
331
30C4
  5
30C5
331
3154
  5
3155
331
30CE
  5
30CF
331
30C3
  5
30C4
331
31A0
  5
31A1
331
31A2
  5
31A3
331
30F5
  5
30F6
331
30DA
  5
30DB
331
30F2
  5
30F3
331
30F7
  5
30F8
331
30E6
  5
30E7
331
30FB
  5
30FC
331
30BF
  5
30C0
331
30C9
  5
30CB
331
3104
  5
310F
331
30BD
  5
30BE
331
30C7
  5
30C8
331
30ED
  5
30EE
331
30EB
  5
30EC
331
30DB
  5
30DC
331
30F8
  5
30F9
331
3100
  5
3102
331
31A4
  5
35BA
331
35BA
  5
35BB
331
35BB
  5
35BD
331
30C2
  5
30C3
331
3145
  5
3146
331
3146
  5
314C
331
3155
  5
3156
331
3156
  5
3157
331
416D
  5
4147
331
416F
  5
4145
331
4171
  5
4141
331
4173
  5
4143
331
4175
  5
3FC2
331
3111
  5
3112
331
3157
  5
3158
331
3158
  5
3159
331
30EE
  5
30EF
331
30CF
  5
30D0
331
314D
  5
314E
331
314E
  5
314F
331
30BC
  5
30BD
331
3150
  5
3151
331
3151
  5
3152
331
3103
  5
3104
331
30CB
  5
30CE
331
314C
  5
314D
331
3144
  5
3145
331
3112
  5
3113
331
3116
  5
3118
331
30C8
  5
30C9
331
30E7
  5
30E8
331
30E5
  5
30E6
  0
LAYOUT
  5
1AB4
102
{ACAD_REACTORS
330
1AB1
102
}
330
1AB1
100
AcDbPlotSettings
  1

  2
HP LaserJet 2100 Series PCL 6
  4

  6

 40
0.0
 41
0.0
 42
0.0
 43
0.0
 44
0.0
 45
0.0
 46
0.0
 47
0.0
 48
0.0
 49
0.0
140
0.0
141
0.0
142
1.0
143
1.0
 70
   688
 72
     0
 73
     0
 74
     5
  7
monochrome.ctb
 75
    16
 76
     0
 77
     2
 78
   300
147
1.0
148
0.0
149
0.0
100
AcDbLayout
  1
Layout1
 70
     0
 71
     1
 10
0.0
 20
0.0
 11
12.0
 21
9.0
 12
0.0
 22
0.0
 32
0.0
 14
1.000000000000000E+20
 24
1.000000000000000E+20
 34
1.000000000000000E+20
 15
-1.000000000000000E+20
 25
-1.000000000000000E+20
 35
-1.000000000000000E+20
146
0.0
 13
0.0
 23
0.0
 33
0.0
 16
1.0
 26
0.0
 36
0.0
 17
0.0
 27
1.0
 37
0.0
 76
     0
330
14
331
FA8
  0
LAYOUT
  5
1AB3
102
{ACAD_REACTORS
330
1AB1
102
}
330
1AB1
100
AcDbPlotSettings
  1

  2
HP LaserJet 2100 Series PS
  4
Letter
  6
PRINTER
 40
5.365749835968018
 41
5.408073902130127
 42
5.132904052734375
 43
5.090576171875
 44
215.8999938964844
 45
279.3999938964844
 46
0.0
 47
0.0
 48
0.0
 49
0.0
140
0.0
141
0.0
142
1.0
143
3.967496395291637
 70
 11952
 72
     0
 73
     1
 74
     1
  7
monochrome.ctb
 75
     0
 76
     0
 77
     2
 78
   300
147
0.2520481180995486
148
0.0325536685443438
149
0.0243045246171334
100
AcDbLayout
  1
Model
 70
     1
 71
     0
 10
0.0
 20
0.0
 11
12.0
 21
9.0
 12
0.0
 22
0.0
 32
0.0
 14
0.0
 24
0.0
 34
0.0
 15
0.0
 25
0.0
 35
0.0
146
0.0
 13
0.0
 23
0.0
 33
0.0
 16
1.0
 26
0.0
 36
0.0
 17
0.0
 27
1.0
 37
0.0
 76
     0
330
17
1001
ACAD_PSEXT
1000
HP LaserJet 2100 Series PS
1000
HP LaserJet 2100 Series PS
1000
LPT1:
1000

1070
     0
  0
ACAD_PROXY_OBJECT
  5
2FC1
102
{ACAD_REACTORS
330
25AD
102
}
102
{ACAD_XDICTIONARY
360
2FC2
102
}
330
25AD
100
AcDbProxyObject
 90
      499
 91
      527
 95
   983063
 70
     0
 93
     1324
310
4191DB1BD8985B2004014080404555555555555953FAA155555555555654FEA9AA400014080404555555555555953FAA155555555555654FEA9AA400000000000000E03F4080404555555555555953FAA155555555555654FEA9AA4014080404555555555555953FAA155555555555654FEA9AA40102010115555555555565
310
4FEA8555555555555953FAA6A9005020101155555555555654FEA8555555555555953FAA6A9000
 94
        0
  0
MLINESTYLE
  5
1B
102
{ACAD_REACTORS
330
1A
102
}
330
1A
100
AcDbMlineStyle
  2
STANDARD
 70
     0
  3

 62
   256
 51
90.0
 52
90.0
 71
     2
 49
0.5
 62
   256
  6
BYLAYER
 49
-0.5
 62
   256
  6
BYLAYER
  0
ACDBPLACEHOLDER
  5
1AB0
102
{ACAD_REACTORS
330
1AAF
102
}
330
1AAF
  0
ACAD_PROXY_OBJECT
  5
25B0
102
{ACAD_REACTORS
330
25AF
102
}
330
25AF
100
AcDbProxyObject
 90
      499
 91
      525
 95
   983063
 70
     0
 93
     1841
310
4214DD185B99185C9928B81E85EB51B8AE3F2E07A17AD46E2B8FC02B5E8DC0F42B1CFD028000000C1008070000C3001FDFF8000000C1003FBFF000000182007F7FE00000030400FEFFC00000060801FDFF8000000C1003FBFF00000018200000000000000681FA0B0000001820100E000186003FBFF000000182007F7FE000
310
00030400FEFFC00000060801FDFF8000000C1003FBFF000000182007F7FE000000304000AD7A3703D0AC73F4160000003040201C00030C007F7FE00000030400FEFFC00000060801FDFF8000000C1003FBFF000000182007F7FE00000030400FEFFC000000608000
340
F
340
F
340
F
 94
        0
  0
DICTIONARYVAR
  5
25E5
102
{ACAD_REACTORS
330
47
102
}
330
47
100
DictionaryVariables
280
     0
  1
STANDARD
  0
DICTIONARYVAR
  5
48
102
{ACAD_REACTORS
330
47
102
}
330
47
100
DictionaryVariables
280
     0
  1
0
  0
DICTIONARYVAR
  5
25E6
102
{ACAD_REACTORS
330
47
102
}
330
47
100
DictionaryVariables
280
     0
  1
0
  0
XRECORD
  5
2CCA
102
{ACAD_REACTORS
330
2CC8
102
}
330
2CC8
100
AcDbXrecord
280
     1
330
0
330
0
330
0
330
0
330
0
330
0
330
0
330
0
330
0
  0
DICTIONARY
  5
2FC2
330
2FC1
100
AcDbDictionary
280
     1
281
     1
  3
ACAD_XREC_ROUNDTRIP
360
2FC3
  3
BUMPTILE
360
2FC4
  3
DIFFUSETILE
360
2FC5
  3
OPACITYTILE
360
2FC6
  3
REFLECTIONTILE
360
2FC7
  3
REFRACTIONTILE
360
2FC8
  3
SPECULARTILE
360
2FC9
  0
XRECORD
  5
2FC3
102
{ACAD_REACTORS
330
2FC2
102
}
330
2FC2
100
AcDbXrecord
280
     1
102
MATERIAL
148
0.0
149
0.0
149
0.0
 93
        0
 94
      127
282
     0
 72
     0
 77
     0
171
     0
175
     0
179
     0
273
     0
  0
XRECORD
  5
2FC4
102
{ACAD_REACTORS
330
2FC2
102
}
330
2FC2
100
AcDbXrecord
280
     1
270
     1
271
     1
  0
XRECORD
  5
2FC5
102
{ACAD_REACTORS
330
2FC2
102
}
330
2FC2
100
AcDbXrecord
280
     1
270
     1
271
     1
  0
XRECORD
  5
2FC6
102
{ACAD_REACTORS
330
2FC2
102
}
330
2FC2
100
AcDbXrecord
280
     1
270
     1
271
     1
  0
XRECORD
  5
2FC7
102
{ACAD_REACTORS
330
2FC2
102
}
330
2FC2
100
AcDbXrecord
280
     1
270
     1
271
     1
  0
XRECORD
  5
2FC8
102
{ACAD_REACTORS
330
2FC2
102
}
330
2FC2
100
AcDbXrecord
280
     1
270
     1
271
     1
  0
XRECORD
  5
2FC9
102
{ACAD_REACTORS
330
2FC2
102
}
330
2FC2
100
AcDbXrecord
280
     1
270
     1
271
     1
  0
ENDSEC
  0
EOF
