  0
SECTION
  2
HEADER
  9
$ACADVER
  1
AC1015
  9
$ACADMAINTVER
 70
     6
  9
$DWGCODEPAGE
  3
ANSI_1252
  9
$INSBASE
 10
0.0
 20
0.0
 30
0.0
  9
$EXTMIN
 10
-22.54417409834471
 20
-0.071411039763376
 30
-0.0015258207003583
  9
$EXTMAX
 10
21.03492745377
 20
15.88623053381015
 30
0.0000000349246037
  9
$LIMMIN
 10
0.0
 20
0.0
  9
$LIMMAX
 10
52.5
 20
40.0
  9
$ORTHOMODE
 70
     0
  9
$REGENMODE
 70
     1
  9
$FILLMODE
 70
     1
  9
$QTEXTMODE
 70
     0
  9
$MIRRTEXT
 70
     0
  9
$LTSCALE
 40
1.0
  9
$ATTMODE
 70
     1
  9
$TEXTSIZE
 40
0.45
  9
$TRACEWID
 40
0.05
  9
$TEXTSTYLE
  7
STANDARD
  9
$CLAYER
  8
0
  9
$CELTYPE
  6
BYLAYER
  9
$CECOLOR
 62
   256
  9
$CELTSCALE
 40
1.0
  9
$DISPSILH
 70
     0
  9
$DIMSCALE
 40
5.0
  9
$DIMASZ
 40
0.125
  9
$DIMEXO
 40
0.062
  9
$DIMDLI
 40
0.375
  9
$DIMRND
 40
0.0
  9
$DIMDLE
 40
0.0
  9
$DIMEXE
 40
0.08
  9
$DIMTP
 40
0.0
  9
$DIMTM
 40
0.0
  9
$DIMTXT
 40
0.09
  9
$DIMCEN
 40
-0.06
  9
$DIMTSZ
 40
0.0
  9
$DIMTOL
 70
     0
  9
$DIMLIM
 70
     0
  9
$DIMTIH
 70
     1
  9
$DIMTOH
 70
     1
  9
$DIMSE1
 70
     0
  9
$DIMSE2
 70
     0
  9
$DIMTAD
 70
     0
  9
$DIMZIN
 70
     0
  9
$DIMBLK
  1

  9
$DIMASO
 70
     0
  9
$DIMSHO
 70
     0
  9
$DIMPOST
  1

  9
$DIMAPOST
  1

  9
$DIMALT
 70
     0
  9
$DIMALTD
 70
     2
  9
$DIMALTF
 40
25.4
  9
$DIMLFAC
 40
1.0
  9
$DIMTOFL
 70
     0
  9
$DIMTVP
 40
0.0
  9
$DIMTIX
 70
     0
  9
$DIMSOXD
 70
     0
  9
$DIMSAH
 70
     0
  9
$DIMBLK1
  1

  9
$DIMBLK2
  1

  9
$DIMSTYLE
  2
STANDARD
  9
$DIMCLRD
 70
     0
  9
$DIMCLRE
 70
     0
  9
$DIMCLRT
 70
     0
  9
$DIMTFAC
 40
1.0
  9
$DIMGAP
 40
0.09375
  9
$DIMJUST
 70
     0
  9
$DIMSD1
 70
     0
  9
$DIMSD2
 70
     0
  9
$DIMTOLJ
 70
     1
  9
$DIMTZIN
 70
     0
  9
$DIMALTZ
 70
     0
  9
$DIMALTTZ
 70
     0
  9
$DIMUPT
 70
     0
  9
$DIMDEC
 70
     5
  9
$DIMTDEC
 70
     5
  9
$DIMALTU
 70
     5
  9
$DIMALTTD
 70
     2
  9
$DIMTXSTY
  7
STANDARD
  9
$DIMAUNIT
 70
     0
  9
$DIMADEC
 70
     0
  9
$DIMALTRND
 40
0.0
  9
$DIMAZIN
 70
     0
  9
$DIMDSEP
 70
    46
  9
$DIMATFIT
 70
     3
  9
$DIMFRAC
 70
     2
  9
$DIMLDRBLK
  1

  9
$DIMLUNIT
 70
     5
  9
$DIMLWD
 70
    -2
  9
$DIMLWE
 70
    -2
  9
$DIMTMOVE
 70
     2
  9
$LUNITS
 70
     5
  9
$LUPREC
 70
     5
  9
$SKETCHINC
 40
0.1
  9
$FILLETRAD
 40
0.0
  9
$AUNITS
 70
     0
  9
$AUPREC
 70
     0
  9
$MENU
  1
qa
  9
$ELEVATION
 40
0.0
  9
$PELEVATION
 40
0.0
  9
$THICKNESS
 40
0.0
  9
$LIMCHECK
 70
     0
  9
$CHAMFERA
 40
0.0
  9
$CHAMFERB
 40
0.0
  9
$CHAMFERC
 40
0.0
  9
$CHAMFERD
 40
0.0
  9
$SKPOLY
 70
     0
  9
$TDCREATE
 40
2450575.69274919
  9
$TDUCREATE
 40
2450576.026082523
  9
$TDUPDATE
 40
2454167.66412316
  9
$TDUUPDATE
 40
2454167.997456493
  9
$TDINDWG
 40
0.4166890625
  9
$TDUSRTIMER
 40
0.4166890625
  9
$USRTIMER
 70
     1
  9
$ANGBASE
 50
0.0
  9
$ANGDIR
 70
     0
  9
$PDMODE
 70
     0
  9
$PDSIZE
 40
0.0
  9
$PLINEWID
 40
0.0
  9
$SPLFRAME
 70
     0
  9
$SPLINETYPE
 70
     6
  9
$SPLINESEGS
 70
     8
  9
$HANDSEED
  5
1A5A
  9
$SURFTAB1
 70
     6
  9
$SURFTAB2
 70
     6
  9
$SURFTYPE
 70
     6
  9
$SURFU
 70
     6
  9
$SURFV
 70
     6
  9
$UCSBASE
  2

  9
$UCSNAME
  2

  9
$UCSORG
 10
0.0
 20
0.0
 30
0.0
  9
$UCSXDIR
 10
1.0
 20
0.0
 30
0.0
  9
$UCSYDIR
 10
0.0
 20
1.0
 30
0.0
  9
$UCSORTHOREF
  2

  9
$UCSORTHOVIEW
 70
     0
  9
$UCSORGTOP
 10
0.0
 20
0.0
 30
0.0
  9
$UCSORGBOTTOM
 10
0.0
 20
0.0
 30
0.0
  9
$UCSORGLEFT
 10
0.0
 20
0.0
 30
0.0
  9
$UCSORGRIGHT
 10
0.0
 20
0.0
 30
0.0
  9
$UCSORGFRONT
 10
0.0
 20
0.0
 30
0.0
  9
$UCSORGBACK
 10
0.0
 20
0.0
 30
0.0
  9
$PUCSBASE
  2

  9
$PUCSNAME
  2

  9
$PUCSORG
 10
0.0
 20
0.0
 30
0.0
  9
$PUCSXDIR
 10
1.0
 20
0.0
 30
0.0
  9
$PUCSYDIR
 10
0.0
 20
1.0
 30
0.0
  9
$PUCSORTHOREF
  2

  9
$PUCSORTHOVIEW
 70
     0
  9
$PUCSORGTOP
 10
0.0
 20
0.0
 30
0.0
  9
$PUCSORGBOTTOM
 10
0.0
 20
0.0
 30
0.0
  9
$PUCSORGLEFT
 10
0.0
 20
0.0
 30
0.0
  9
$PUCSORGRIGHT
 10
0.0
 20
0.0
 30
0.0
  9
$PUCSORGFRONT
 10
0.0
 20
0.0
 30
0.0
  9
$PUCSORGBACK
 10
0.0
 20
0.0
 30
0.0
  9
$USERI1
 70
     0
  9
$USERI2
 70
     0
  9
$USERI3
 70
     0
  9
$USERI4
 70
     0
  9
$USERI5
 70
     0
  9
$USERR1
 40
0.0
  9
$USERR2
 40
0.0
  9
$USERR3
 40
0.0
  9
$USERR4
 40
0.0
  9
$USERR5
 40
0.0
  9
$WORLDVIEW
 70
     1
  9
$SHADEDGE
 70
     3
  9
$SHADEDIF
 70
    70
  9
$TILEMODE
 70
     1
  9
$MAXACTVP
 70
    16
  9
$PINSBASE
 10
0.0
 20
0.0
 30
0.0
  9
$PLIMCHECK
 70
     0
  9
$PEXTMIN
 10
1.000000000000000E+20
 20
1.000000000000000E+20
 30
1.000000000000000E+20
  9
$PEXTMAX
 10
-1.000000000000000E+20
 20
-1.000000000000000E+20
 30
-1.000000000000000E+20
  9
$PLIMMIN
 10
0.0
 20
0.0
  9
$PLIMMAX
 10
12.0
 20
9.0
  9
$UNITMODE
 70
     0
  9
$VISRETAIN
 70
     0
  9
$PLINEGEN
 70
     0
  9
$PSLTSCALE
 70
     0
  9
$TREEDEPTH
 70
  3020
  9
$CMLSTYLE
  2
STANDARD
  9
$CMLJUST
 70
     0
  9
$CMLSCALE
 40
1.0
  9
$PROXYGRAPHICS
 70
     1
  9
$MEASUREMENT
 70
     0
  9
$CELWEIGHT
370
    -1
  9
$ENDCAPS
280
     0
  9
$JOINSTYLE
280
     0
  9
$LWDISPLAY
290
     0
  9
$INSUNITS
 70
     0
  9
$HYPERLINKBASE
  1

  9
$STYLESHEET
  1

  9
$XEDIT
290
     1
  9
$CEPSNTYPE
380
     0
  9
$PSTYLEMODE
290
     1
  9
$FINGERPRINTGUID
  2
{2988C309-482F-4F84-9C51-487784A65633}
  9
$VERSIONGUID
  2
{62CEFD1A-18D7-4CDA-90A9-0714B649D9D2}
  9
$EXTNAMES
290
     1
  9
$PSVPSCALE
 40
0.0
  9
$OLESTARTUP
290
     0
  0
ENDSEC
  0
SECTION
  2
CLASSES
  0
CLASS
  1
DICTIONARYVAR
  2
AcDbDictionaryVar
  3
AutoCAD 2000
 90
        0
280
     0
281
     0
  0
CLASS
  1
LWPOLYLINE
  2
AcDbPolyline
  3
AutoCAD 2000
 90
        0
280
     0
281
     1
  0
CLASS
  1
ACDBDICTIONARYWDFLT
  2
AcDbDictionaryWithDefault
  3
AutoCAD 2000
 90
        0
280
     0
281
     0
  0
CLASS
  1
ACDBPLACEHOLDER
  2
AcDbPlaceHolder
  3
ObjectDBX Classes
 90
        0
280
     0
281
     0
  0
CLASS
  1
LAYOUT
  2
AcDbLayout
  3
ObjectDBX Classes
 90
        0
280
     0
281
     0
  0
CLASS
  1
LONG_TRANSACTION
  2
AcDbLongTransaction
  3
ObjectDBX Classes
 90
   -65536
280
     1
281
     0
  0
CLASS
  1
LWPOLYLINE
  2
AcDbPolyline
  3
AutoCAD 2000
 90
        0
280
     0
281
     1
  0
CLASS
  1
HATCH
  2
AcDbHatch
  3
AutoCAD 2000
 90
        0
280
     0
281
     1
  0
CLASS
  1
XRECORD
  2
AcDbXrecord
  3
AutoCAD 2000
 90
        0
280
     0
281
     0
  0
CLASS
  1
TABLESTYLE
  2
AcDbTableStyle
  3
ObjectDBX Classes
 90
     2047
280
     1
281
     0
  0
ENDSEC
  0
SECTION
  2
TABLES
  0
TABLE
  2
VPORT
  5
8
330
0
100
AcDbSymbolTable
 70
     3
  0
VPORT
  5
1A49
330
8
100
AcDbSymbolTableRecord
100
AcDbViewportTableRecord
  2
*Active
 70
     0
 10
0.0
 20
0.0
 11
1.0
 21
1.0
 12
14.97791295082764
 22
19.96429448011831
 13
0.0
 23
0.0
 14
0.063
 24
0.063
 15
0.25
 25
0.25
 16
0.0
 26
0.0
 36
1.0
 17
0.0
 27
0.0
 37
0.0
 40
41.64044152569735
 41
1.814583333333333
 42
50.0
 43
0.0
 44
0.0
 50
0.0
 51
0.0
 71
     0
 72
   100
 73
     1
 74
     0
 75
     0
 76
     0
 77
     0
 78
     0
281
     0
 65
     1
110
0.0
120
0.0
130
0.0
111
1.0
121
0.0
131
0.0
112
0.0
122
1.0
132
0.0
 79
     0
146
0.0
  0
ENDTAB
  0
TABLE
  2
LTYPE
  5
5
330
0
100
AcDbSymbolTable
 70
     3
  0
LTYPE
  5
11
330
5
100
AcDbSymbolTableRecord
100
AcDbLinetypeTableRecord
  2
BYBLOCK
 70
     0
  3

 72
    65
 73
     0
 40
0.0
  0
LTYPE
  5
12
330
5
100
AcDbSymbolTableRecord
100
AcDbLinetypeTableRecord
  2
BYLAYER
 70
     0
  3

 72
    65
 73
     0
 40
0.0
  0
LTYPE
  5
13
330
5
100
AcDbSymbolTableRecord
100
AcDbLinetypeTableRecord
  2
CONTINUOUS
 70
     0
  3
Solid line
 72
    65
 73
     0
 40
0.0
  0
LTYPE
  5
94C
330
5
100
AcDbSymbolTableRecord
100
AcDbLinetypeTableRecord
  2
THD
 70
     0
  3
_ _ _ _ _ _ _ _ _ _ _ _ _ _ _ _ _ _ _ _ _ _ _ _
 72
    65
 73
     2
 40
0.15
 49
0.11
 74
     0
 49
-0.04
 74
     0
  0
LTYPE
  5
1A3F
330
5
100
AcDbSymbolTableRecord
100
AcDbLinetypeTableRecord
  2
HIDDEN
 70
     0
  3
Hidden __ __ __ __ __ __ __ __ __ __ __ __ __ _
 72
    65
 73
     2
 40
0.375
 49
0.25
 74
     0
 49
-0.125
 74
     0
  0
ENDTAB
  0
TABLE
  2
LAYER
  5
2
330
0
100
AcDbSymbolTable
 70
     4
  0
LAYER
  5
E
330
2
100
AcDbSymbolTableRecord
100
AcDbLayerTableRecord
  2
0
 70
     0
 62
     7
  6
CONTINUOUS
370
    -3
390
874
  0
ENDTAB
  0
TABLE
  2
STYLE
  5
3
330
0
100
AcDbSymbolTable
 70
     2
  0
STYLE
  5
F
330
3
100
AcDbSymbolTableRecord
100
AcDbTextStyleTableRecord
  2
STANDARD
 70
     0
 40
0.0
 41
1.0
 50
0.0
 71
     0
 42
0.45
  3
TXT
  4

  0
ENDTAB
  0
TABLE
  2
VIEW
  5
6
330
0
100
AcDbSymbolTable
 70
     0
  0
ENDTAB
  0
TABLE
  2
UCS
  5
7
330
0
100
AcDbSymbolTable
 70
     0
  0
ENDTAB
  0
TABLE
  2
APPID
  5
9
330
0
100
AcDbSymbolTable
 70
     1
  0
APPID
  5
10
330
9
100
AcDbSymbolTableRecord
100
AcDbRegAppTableRecord
  2
ACAD
 70
     0
  0
ENDTAB
  0
TABLE
  2
DIMSTYLE
  5
A
330
0
100
AcDbSymbolTable
 70
     1
100
AcDbDimStyleTable
  0
DIMSTYLE
105
45E
330
A
100
AcDbSymbolTableRecord
100
AcDbDimStyleTableRecord
  2
STANDARD
 70
     0
  3

  4

340
F
  0
ENDTAB
  0
TABLE
  2
BLOCK_RECORD
  5
1
330
0
100
AcDbSymbolTable
 70
     0
  0
BLOCK_RECORD
  5
17
330
1
100
AcDbSymbolTableRecord
100
AcDbBlockTableRecord
  2
*MODEL_SPACE
340
877
  0
BLOCK_RECORD
  5
14
330
1
100
AcDbSymbolTableRecord
100
AcDbBlockTableRecord
  2
*PAPER_SPACE
340
878
  0
ENDTAB
  0
ENDSEC
  0
SECTION
  2
BLOCKS
  0
BLOCK
  5
48
330
17
100
AcDbEntity
  8
0
100
AcDbBlockBegin
  2
*MODEL_SPACE
 70
     0
 10
0.0
 20
0.0
 30
0.0
  3
*MODEL_SPACE
  1

  4

  0
ENDBLK
  5
49
330
17
100
AcDbEntity
  8
0
100
AcDbBlockEnd
  0
BLOCK
  5
46
330
14
100
AcDbEntity
 67
     1
  8
0
100
AcDbBlockBegin
  2
*PAPER_SPACE
 70
     0
 10
0.0
 20
0.0
 30
0.0
  3
*PAPER_SPACE
  1

  4

  0
ENDBLK
  5
47
330
14
100
AcDbEntity
 67
     1
  8
0
100
AcDbBlockEnd
  0
ENDSEC
  0
SECTION
  2
ENTITIES
  0
LINE
  5
14D7
330
17
100
AcDbEntity
  8
0
 62
     7
100
AcDbLine
 10
20.71133662790759
 20
-0.0000000000000355
 30
0.0
 11
20.71133662790764
 21
7.259999999999955
 31
0.0
  0
LINE
  5
14D8
330
17
100
AcDbEntity
  8
0
 62
     7
100
AcDbLine
 10
16.21133662790753
 20
-0.0000000000000071
 30
0.0
 11
16.2113366279077
 21
15.88499999999997
 31
0.0
  0
LINE
  5
14DD
330
17
100
AcDbEntity
  8
0
 62
     7
100
AcDbLine
 10
16.21133662790744
 20
-0.0000000000000213
 30
0.0
 11
20.71133662790756
 21
-0.0000000000000355
 31
0.0
  0
LINE
  5
14DE
330
17
100
AcDbEntity
  8
0
  6
HIDDEN
 62
     7
100
AcDbLine
 10
16.21133662790744
 20
0.1349999999999838
 30
0.0
 11
20.71133662790756
 21
0.1349999999999696
 31
0.0
  0
LINE
  5
14E0
330
17
100
AcDbEntity
  8
0
  6
Continuous
100
AcDbLine
 10
2.421999999999983
 20
0.134999999999998
 30
0.0
 11
-2.421999999999983
 21
0.1350000000000122
 31
0.0
  0
LINE
  5
14ED
330
17
100
AcDbEntity
  8
0
 62
     7
100
AcDbLine
 10
16.2113366279077
 20
15.88499999999997
 30
0.0
 11
21.03383662790741
 21
15.885
 31
0.0
  0
LINE
  5
1513
330
17
100
AcDbEntity
  8
0
 62
     7
100
AcDbLine
 10
21.03383662790741
 20
15.885
 30
0.0
 11
21.03383662790752
 21
7.259999999999955
 31
0.0
  0
LINE
  5
1514
330
17
100
AcDbEntity
  8
0
 62
     7
100
AcDbLine
 10
20.89883662790741
 20
15.885
 30
0.0
 11
20.89883662790753
 21
7.259999999999955
 31
0.0
  0
LINE
  5
1515
330
17
100
AcDbEntity
  8
0
  6
Continuous
100
AcDbLine
 10
21.03383662790752
 20
7.25999999999997
 30
0.0
 11
20.71133662790764
 21
7.259999999999955
 31
0.0
  0
LINE
  5
1599
330
17
100
AcDbEntity
  8
0
 62
     7
100
AcDbLine
 10
-22.22037346392783
 20
-0.0000000000000355
 30
0.0
 11
-22.22037346392789
 21
7.259999999999955
 31
0.0
  0
LINE
  5
159A
330
17
100
AcDbEntity
  8
0
 62
     7
100
AcDbLine
 10
-17.72037346392777
 20
-0.0000000000000071
 30
0.0
 11
-17.72037346392794
 21
15.88499999999997
 31
0.0
  0
LINE
  5
159C
330
17
100
AcDbEntity
  8
0
 62
     7
100
AcDbLine
 10
-17.72037346392769
 20
-0.0000000000000213
 30
0.0
 11
-22.2203734639278
 21
-0.0000000000000355
 31
0.0
  0
LINE
  5
159D
330
17
100
AcDbEntity
  8
0
  6
HIDDEN
 62
     7
100
AcDbLine
 10
-17.72037346392769
 20
0.1349999999999838
 30
0.0
 11
-22.2203734639278
 21
0.1349999999999696
 31
0.0
  0
LINE
  5
15A5
330
17
100
AcDbEntity
  8
0
 62
     7
100
AcDbLine
 10
-22.54287346392765
 20
15.885
 30
0.0
 11
-22.54287346392776
 21
7.259999999999955
 31
0.0
  0
LINE
  5
15A6
330
17
100
AcDbEntity
  8
0
 62
     7
100
AcDbLine
 10
-22.40787346392766
 20
15.885
 30
0.0
 11
-22.40787346392777
 21
7.259999999999955
 31
0.0
  0
LINE
  5
15AD
330
17
100
AcDbEntity
  8
0
  6
Continuous
100
AcDbLine
 10
-22.54287346392776
 20
7.25999999999997
 30
0.0
 11
-22.22037346392789
 21
7.259999999999955
 31
0.0
  0
LINE
  5
15B0
330
17
100
AcDbEntity
  8
0
 62
     7
100
AcDbLine
 10
-17.72037346392794
 20
15.88499999999997
 30
0.0
 11
-22.54287346392765
 21
15.885
 31
0.0
  0
LINE
  5
163F
330
17
100
AcDbEntity
  8
0
  6
Continuous
100
AcDbLine
 10
-6.009955302684958
 20
15.88499999999997
 30
0.0
 11
-2.624999999999957
 21
15.88499999999998
 31
0.0
  0
LINE
  5
1640
330
17
100
AcDbEntity
  8
0
  6
Continuous
100
AcDbLine
 10
-6.009955302685043
 20
8.50999999999997
 30
0.0
 11
-2.624999999999957
 21
8.50999999999997
 31
0.0
  0
LINE
  5
1642
330
17
100
AcDbEntity
  8
0
 62
     7
100
AcDbLine
 10
-6.009955302684986
 20
15.88499999999996
 30
0.0
 11
-6.009955302685043
 21
8.50999999999997
 31
0.0
  0
LINE
  5
164B
330
17
100
AcDbEntity
  8
0
 62
     7
100
AcDbLine
 10
6.009955302685043
 20
15.88499999999996
 30
0.0
 11
6.0099553026851
 21
8.50999999999997
 31
0.0
  0
LINE
  5
164C
330
17
100
AcDbEntity
  8
0
  6
Continuous
100
AcDbLine
 10
2.759999999999991
 20
0.338000000000001
 30
0.0
 11
2.760000000000034
 21
15.88499999999997
 31
0.0
  0
LINE
  5
164D
330
17
100
AcDbEntity
  8
0
  6
Continuous
100
AcDbLine
 10
2.625000000000014
 20
0.338000000000001
 30
0.0
 11
2.625000000000043
 21
15.88499999999997
 31
0.0
  0
LINE
  5
164E
330
17
100
AcDbEntity
  8
0
  6
THD
 62
     7
100
AcDbLine
 10
2.760000000000034
 20
15.88500000000003
 30
0.0
 11
2.760000000000119
 21
8.50999999999997
 31
0.0
  0
LINE
  5
164F
330
17
100
AcDbEntity
  8
0
  6
THD
 62
     7
100
AcDbLine
 10
-2.759999999999977
 20
15.88500000000003
 30
0.0
 11
-2.760000000000062
 21
8.50999999999997
 31
0.0
  0
LINE
  5
1650
330
17
100
AcDbEntity
  8
0
  6
Continuous
100
AcDbLine
 10
-2.625000000000014
 20
0.3380000000000081
 30
0.0
 11
-2.624999999999957
 21
15.88499999999997
 31
0.0
  0
LINE
  5
1651
330
17
100
AcDbEntity
  8
0
  6
Continuous
100
AcDbLine
 10
-2.760000000000048
 20
0.3380000000000081
 30
0.0
 11
-2.759999999999977
 21
15.88499999999997
 31
0.0
  0
ARC
  5
1652
330
17
100
AcDbEntity
  8
0
  6
Continuous
100
AcDbCircle
 10
2.422000000000011
 20
0.3380000000000081
 30
0.0
 40
0.3380000000000193
100
AcDbArc
 50
270.0
 51
0.0
  0
LINE
  5
1654
330
17
100
AcDbEntity
  8
0
  6
Continuous
100
AcDbLine
 10
-2.422000000000011
 20
0.0
 30
0.0
 11
2.422000000000011
 21
0.0
 31
0.0
  0
ARC
  5
1655
330
17
100
AcDbEntity
  8
0
  6
Continuous
100
AcDbCircle
 10
-2.422000000000011
 20
0.3380000000000081
 30
0.0
 40
0.3380000000000193
100
AcDbArc
 50
179.9999999999996
 51
270.0
  0
ARC
  5
1656
330
17
100
AcDbEntity
  8
0
  6
Continuous
100
AcDbCircle
 10
-2.422000000000011
 20
0.3380000000000081
 30
0.0
 40
0.203
100
AcDbArc
 50
180.0
 51
270.0
  0
ARC
  5
1657
330
17
100
AcDbEntity
  8
0
  6
Continuous
100
AcDbCircle
 10
2.422000000000011
 20
0.3380000000000081
 30
0.0
 40
0.203
100
AcDbArc
 50
270.0
 51
0.0
  0
LINE
  5
1658
330
17
100
AcDbEntity
  8
0
  6
Continuous
100
AcDbLine
 10
6.0099553026851
 20
8.50999999999997
 30
0.0
 11
2.625000000000043
 21
8.50999999999997
 31
0.0
  0
LINE
  5
1672
330
17
100
AcDbEntity
  8
0
  6
Continuous
100
AcDbLine
 10
6.009955302685015
 20
15.88499999999997
 30
0.0
 11
2.625000000000043
 21
15.88499999999998
 31
0.0
  0
CIRCLE
  5
1A04
330
17
100
AcDbEntity
  8
0
100
AcDbCircle
 10
18.46133662790759
 20
6.164999999999765
 30
0.0
 40
0.1405
  0
CIRCLE
  5
1A05
330
17
100
AcDbEntity
  8
0
100
AcDbCircle
 10
-3.759955302685015
 20
14.50999999999984
 30
0.0
 40
0.1405
  0
CIRCLE
  5
1A06
330
17
100
AcDbEntity
  8
0
100
AcDbCircle
 10
-5.259955302685043
 20
15.1349999999999
 30
0.0
 40
0.1405
  0
CIRCLE
  5
1A07
330
17
100
AcDbEntity
  8
0
100
AcDbCircle
 10
-4.509955302684929
 20
13.8849999999999
 30
0.0
 40
0.1405
  0
CIRCLE
  5
1A08
330
17
100
AcDbEntity
  8
0
100
AcDbCircle
 10
-5.259955302685015
 20
12.63499999999996
 30
0.0
 40
0.1405
  0
CIRCLE
  5
1A09
330
17
100
AcDbEntity
  8
0
100
AcDbCircle
 10
-3.759955302685043
 20
12.00999999999993
 30
0.0
 40
0.1405
  0
CIRCLE
  5
1A0A
330
17
100
AcDbEntity
  8
0
100
AcDbCircle
 10
-4.509955302685043
 20
11.3849999999999
 30
0.0
 40
0.1405
  0
CIRCLE
  5
1A0B
330
17
100
AcDbEntity
  8
0
100
AcDbCircle
 10
-5.259955302684986
 20
10.13499999999993
 30
0.0
 40
0.1405
  0
CIRCLE
  5
1A0C
330
17
100
AcDbEntity
  8
0
100
AcDbCircle
 10
-3.759955302685015
 20
9.509999999999899
 30
0.0
 40
0.1405
  0
CIRCLE
  5
1A0F
330
17
100
AcDbEntity
  8
0
100
AcDbCircle
 10
3.759955302685015
 20
9.509999999999899
 30
0.0
 40
0.1405
  0
CIRCLE
  5
1A10
330
17
100
AcDbEntity
  8
0
100
AcDbCircle
 10
3.759955302685043
 20
12.00999999999993
 30
0.0
 40
0.1405
  0
CIRCLE
  5
1A11
330
17
100
AcDbEntity
  8
0
100
AcDbCircle
 10
5.259955302684986
 20
10.13499999999993
 30
0.0
 40
0.1405
  0
CIRCLE
  5
1A12
330
17
100
AcDbEntity
  8
0
100
AcDbCircle
 10
4.509955302685043
 20
11.3849999999999
 30
0.0
 40
0.1405
  0
CIRCLE
  5
1A13
330
17
100
AcDbEntity
  8
0
100
AcDbCircle
 10
3.759955302685015
 20
14.50999999999984
 30
0.0
 40
0.1405
  0
CIRCLE
  5
1A14
330
17
100
AcDbEntity
  8
0
100
AcDbCircle
 10
4.509955302684929
 20
13.8849999999999
 30
0.0
 40
0.1405
  0
CIRCLE
  5
1A15
330
17
100
AcDbEntity
  8
0
100
AcDbCircle
 10
5.259955302685015
 20
12.63499999999996
 30
0.0
 40
0.1405
  0
CIRCLE
  5
1A16
330
17
100
AcDbEntity
  8
0
100
AcDbCircle
 10
5.259955302685043
 20
15.1349999999999
 30
0.0
 40
0.1405
  0
CIRCLE
  5
1A18
330
17
100
AcDbEntity
  8
0
100
AcDbCircle
 10
-18.72037346392777
 20
6.164999999999765
 30
0.0
 40
0.1405
  0
CIRCLE
  5
1A19
330
17
100
AcDbEntity
  8
0
100
AcDbCircle
 10
-19.47037346392777
 20
5.164999999999736
 30
0.0
 40
0.1405
  0
CIRCLE
  5
1A1A
330
17
100
AcDbEntity
  8
0
100
AcDbCircle
 10
-18.72037346392777
 20
2.164999999999736
 30
0.0
 40
0.1405
  0
CIRCLE
  5
1A1B
330
17
100
AcDbEntity
  8
0
100
AcDbCircle
 10
-19.47037346392777
 20
1.164999999999736
 30
0.0
 40
0.1405
  0
CIRCLE
  5
1A1C
330
17
100
AcDbEntity
  8
0
100
AcDbCircle
 10
-19.72037346392777
 20
3.164999999999765
 30
0.0
 40
0.1405
  0
CIRCLE
  5
1A1D
330
17
100
AcDbEntity
  8
0
100
AcDbCircle
 10
-20.47037346392777
 20
4.164999999999765
 30
0.0
 40
0.1405
  0
CIRCLE
  5
1A1E
330
17
100
AcDbEntity
  8
0
100
AcDbCircle
 10
19.21133662790759
 20
1.164999999999765
 30
0.0
 40
0.1405
  0
CIRCLE
  5
1A20
330
17
100
AcDbEntity
  8
0
100
AcDbCircle
 10
18.46133662790759
 20
2.164999999999765
 30
0.0
 40
0.1405
  0
CIRCLE
  5
1A21
330
17
100
AcDbEntity
  8
0
100
AcDbCircle
 10
16.96133662790759
 20
3.164999999999793
 30
0.0
 40
0.1405
  0
CIRCLE
  5
1A22
330
17
100
AcDbEntity
  8
0
100
AcDbCircle
 10
17.71133662790759
 20
4.164999999999793
 30
0.0
 40
0.1405
  0
CIRCLE
  5
1A23
330
17
100
AcDbEntity
  8
0
100
AcDbCircle
 10
19.21133662790759
 20
5.164999999999765
 30
0.0
 40
0.1405
  0
ENDSEC
  0
SECTION
  2
OBJECTS
  0
DICTIONARY
  5
C
330
0
100
AcDbDictionary
281
     1
  3
ACAD_COLOR
350
1A37
  3
ACAD_GROUP
350
D
  3
ACAD_LAYOUT
350
875
  3
ACAD_MATERIAL
350
1A36
  3
ACAD_MLINESTYLE
350
1A
  3
ACAD_PLOTSETTINGS
350
876
  3
ACAD_PLOTSTYLENAME
350
873
  3
ACAD_TABLESTYLE
350
1A38
  3
ACDBHEADERROUNDTRIPXREC
350
1A53
  3
ACDBVARIABLEDICTIONARY
350
4A
  0
DICTIONARY
  5
1A37
102
{ACAD_REACTORS
330
C
102
}
330
C
100
AcDbDictionary
281
     1
  0
DICTIONARY
  5
D
102
{ACAD_REACTORS
330
C
102
}
330
C
100
AcDbDictionary
281
     1
  0
DICTIONARY
  5
875
102
{ACAD_REACTORS
330
C
102
}
330
C
100
AcDbDictionary
281
     1
  3
Layout1
350
878
  3
Model
350
877
  0
DICTIONARY
  5
1A36
102
{ACAD_REACTORS
330
C
102
}
330
C
100
AcDbDictionary
281
     1
  0
DICTIONARY
  5
1A
102
{ACAD_REACTORS
330
C
102
}
330
C
100
AcDbDictionary
281
     1
  3
STANDARD
350
1B
  0
DICTIONARY
  5
876
102
{ACAD_REACTORS
330
C
102
}
330
C
100
AcDbDictionary
281
     1
  0
ACDBDICTIONARYWDFLT
  5
873
102
{ACAD_REACTORS
330
C
102
}
330
C
100
AcDbDictionary
281
     1
  3
Normal
350
874
100
AcDbDictionaryWithDefault
340
874
  0
DICTIONARY
  5
1A38
102
{ACAD_REACTORS
330
C
102
}
330
C
100
AcDbDictionary
281
     1
  3
Standard
350
1A39
  0
DICTIONARY
  5
1A53
102
{ACAD_REACTORS
330
C
102
}
330
C
100
AcDbDictionary
281
     1
  3
COLORDICT
350
1A54
  3
MATERIALDICT
350
1A55
  0
DICTIONARY
  5
4A
102
{ACAD_REACTORS
330
C
102
}
330
C
100
AcDbDictionary
281
     1
  3
CTABLESTYLE
350
1A4F
  3
DIMADEC
350
4B
  0
LAYOUT
  5
878
102
{ACAD_REACTORS
330
875
102
}
102
{ACAD_XDICTIONARY
360
1A56
102
}
330
875
100
AcDbPlotSettings
  1

  2
C:\ACAD2000\plotters\HP LaserJet 2100 Series PS.pc3
  4

  6

 40
0.0
 41
0.0
 42
0.0
 43
0.0
 44
0.0
 45
0.0
 46
0.0
 47
0.0
 48
0.0
 49
0.0
140
0.0
141
0.0
142
1.0
143
1.0
 70
   688
 72
     0
 73
     0
 74
     5
  7

 75
    16
147
1.0
148
0.0
149
0.0
100
AcDbLayout
  1
Layout1
 70
     0
 71
     1
 10
0.0
 20
0.0
 11
12.0
 21
9.0
 12
0.0
 22
0.0
 32
0.0
 14
1.000000000000000E+20
 24
1.000000000000000E+20
 34
1.000000000000000E+20
 15
-1.000000000000000E+20
 25
-1.000000000000000E+20
 35
-1.000000000000000E+20
146
0.0
 13
0.0
 23
0.0
 33
0.0
 16
1.0
 26
0.0
 36
0.0
 17
0.0
 27
1.0
 37
0.0
 76
     0
330
14
  0
LAYOUT
  5
877
102
{ACAD_REACTORS
330
875
102
}
102
{ACAD_XDICTIONARY
360
1A58
102
}
330
875
100
AcDbPlotSettings
  1

  2
HP LaserJet 2100 Series PS
  4
Letter
  6

 40
5.365749835968018
 41
5.408073902130127
 42
5.132904052734375
 43
5.090576171875
 44
215.8999938964844
 45
279.3999938964844
 46
0.0
 47
0.0
 48
0.0
 49
0.0
140
0.0
141
0.0
142
1.0
143
6.492167967110039
 70
 28336
 72
     0
 73
     0
 74
     2
  7

 75
     0
147
0.1540317510369569
148
0.0
149
0.0
100
AcDbLayout
  1
Model
 70
     1
 71
     0
 10
0.0
 20
0.0
 11
12.0
 21
9.0
 12
0.0
 22
0.0
 32
0.0
 14
0.0
 24
0.0
 34
0.0
 15
0.0
 25
0.0
 35
0.0
146
0.0
 13
0.0
 23
0.0
 33
0.0
 16
1.0
 26
0.0
 36
0.0
 17
0.0
 27
1.0
 37
0.0
 76
     0
330
17
  0
MLINESTYLE
  5
1B
102
{ACAD_REACTORS
330
1A
102
}
330
1A
100
AcDbMlineStyle
  2
STANDARD
 70
     0
  3

 62
   256
 51
90.0
 52
90.0
 71
     2
 49
0.5
 62
   256
  6
BYLAYER
 49
-0.5
 62
   256
  6
BYLAYER
  0
ACDBPLACEHOLDER
  5
874
102
{ACAD_REACTORS
330
873
102
}
330
873
  0
ACAD_PROXY_OBJECT
  5
1A39
102
{ACAD_REACTORS
330
1A38
102
}
330
1A38
100
AcDbProxyObject
 90
      499
 91
      509
 95
   983063
 70
     0
 93
     1841
310
4214DD185B99185C9928B81E85EB51B8AE3F2E07A17AD46E2B8FC02B5E8DC0F42B1CFD028000000C1008070000C3001FDFF8000000C1003FBFF000000182007F7FE00000030400FEFFC00000060801FDFF8000000C1003FBFF00000018200000000000000681FA0B0000001820100E000186003FBFF000000182007F7FE000
310
00030400FEFFC00000060801FDFF8000000C1003FBFF000000182007F7FE000000304000AD7A3703D0AC73F4160000003040201C00030C007F7FE00000030400FEFFC00000060801FDFF8000000C1003FBFF000000182007F7FE00000030400FEFFC000000608000
340
F
340
F
340
F
 94
        0
  0
XRECORD
  5
1A54
102
{ACAD_REACTORS
330
1A53
102
}
330
1A53
100
AcDbXrecord
340
1A37
  0
XRECORD
  5
1A55
102
{ACAD_REACTORS
330
1A53
102
}
330
1A53
100
AcDbXrecord
340
1A36
  0
DICTIONARYVAR
  5
1A4F
102
{ACAD_REACTORS
330
4A
102
}
330
4A
100
DictionaryVariables
280
     0
  1
STANDARD
  0
DICTIONARYVAR
  5
4B
102
{ACAD_REACTORS
330
4A
102
}
330
4A
100
DictionaryVariables
280
     0
  1
0
  0
DICTIONARY
  5
1A56
330
878
100
AcDbDictionary
280
     1
281
     1
  3
ACAD_XREC_ROUNDTRIP
360
1A57
  0
DICTIONARY
  5
1A58
330
877
100
AcDbDictionary
280
     1
281
     1
  3
ACAD_XREC_ROUNDTRIP
360
1A59
  0
XRECORD
  5
1A57
102
{ACAD_REACTORS
330
1A56
102
}
330
1A56
100
AcDbXrecord
102
SHADEPLOT
 70
     0
102
SHADEPLOTRESLEVEL
 70
     2
102
SHADEPLOTCUSTOMDPI
 70
   300
  0
XRECORD
  5
1A59
102
{ACAD_REACTORS
330
1A58
102
}
330
1A58
100
AcDbXrecord
102
SHADEPLOT
 70
     0
102
SHADEPLOTRESLEVEL
 70
     2
102
SHADEPLOTCUSTOMDPI
 70
   300
  0
ENDSEC
  0
EOF
