  0
SECTION
  2
HEADER
  9
$ACADVER
  1
AC1015
  9
$ACADMAINTVER
 70
     6
  9
$DWGCODEPAGE
  3
ANSI_1252
  9
$INSBASE
 10
0.0
 20
0.0
 30
0.0
  9
$EXTMIN
 10
-13.3683249046922
 20
-0.0388325214724776
 30
0.0
  9
$EXTMAX
 10
13.3683249046922
 20
19.49602951906343
 30
0.0
  9
$LIMMIN
 10
0.0
 20
0.0
  9
$LIMMAX
 10
42.0
 20
32.0
  9
$ORTHOMODE
 70
     1
  9
$REGENMODE
 70
     1
  9
$FILLMODE
 70
     1
  9
$QTEXTMODE
 70
     0
  9
$MIRRTEXT
 70
     0
  9
$LTSCALE
 40
0.5
  9
$ATTMODE
 70
     1
  9
$TEXTSIZE
 40
0.36
  9
$TRACEWID
 40
0.05
  9
$TEXTSTYLE
  7
STANDARD
  9
$CLAYER
  8
0
  9
$CELTYPE
  6
BYLAYER
  9
$CECOLOR
 62
   256
  9
$CELTSCALE
 40
1.0
  9
$DISPSILH
 70
     0
  9
$DIMSCALE
 40
4.0
  9
$DIMASZ
 40
0.125
  9
$DIMEXO
 40
0.062
  9
$DIMDLI
 40
0.375
  9
$DIMRND
 40
0.0
  9
$DIMDLE
 40
0.0
  9
$DIMEXE
 40
0.08
  9
$DIMTP
 40
0.0
  9
$DIMTM
 40
0.0
  9
$DIMTXT
 40
0.09
  9
$DIMCEN
 40
-0.03125
  9
$DIMTSZ
 40
0.0
  9
$DIMTOL
 70
     0
  9
$DIMLIM
 70
     0
  9
$DIMTIH
 70
     1
  9
$DIMTOH
 70
     1
  9
$DIMSE1
 70
     0
  9
$DIMSE2
 70
     0
  9
$DIMTAD
 70
     0
  9
$DIMZIN
 70
     0
  9
$DIMBLK
  1

  9
$DIMASO
 70
     0
  9
$DIMSHO
 70
     0
  9
$DIMPOST
  1

  9
$DIMAPOST
  1

  9
$DIMALT
 70
     0
  9
$DIMALTD
 70
     2
  9
$DIMALTF
 40
25.4
  9
$DIMLFAC
 40
1.0
  9
$DIMTOFL
 70
     0
  9
$DIMTVP
 40
0.0
  9
$DIMTIX
 70
     0
  9
$DIMSOXD
 70
     0
  9
$DIMSAH
 70
     0
  9
$DIMBLK1
  1

  9
$DIMBLK2
  1

  9
$DIMSTYLE
  2
STANDARD
  9
$DIMCLRD
 70
     0
  9
$DIMCLRE
 70
     0
  9
$DIMCLRT
 70
     0
  9
$DIMTFAC
 40
1.0
  9
$DIMGAP
 40
0.09
  9
$DIMJUST
 70
     0
  9
$DIMSD1
 70
     0
  9
$DIMSD2
 70
     0
  9
$DIMTOLJ
 70
     1
  9
$DIMTZIN
 70
     0
  9
$DIMALTZ
 70
     0
  9
$DIMALTTZ
 70
     0
  9
$DIMUPT
 70
     0
  9
$DIMDEC
 70
     5
  9
$DIMTDEC
 70
     5
  9
$DIMALTU
 70
     2
  9
$DIMALTTD
 70
     2
  9
$DIMTXSTY
  7
STANDARD
  9
$DIMAUNIT
 70
     0
  9
$DIMADEC
 70
     0
  9
$DIMALTRND
 40
0.0
  9
$DIMAZIN
 70
     0
  9
$DIMDSEP
 70
    46
  9
$DIMATFIT
 70
     3
  9
$DIMFRAC
 70
     2
  9
$DIMLDRBLK
  1

  9
$DIMLUNIT
 70
     5
  9
$DIMLWD
 70
    -2
  9
$DIMLWE
 70
    -2
  9
$DIMTMOVE
 70
     2
  9
$LUNITS
 70
     2
  9
$LUPREC
 70
     4
  9
$SKETCHINC
 40
0.1
  9
$FILLETRAD
 40
0.0
  9
$AUNITS
 70
     0
  9
$AUPREC
 70
     0
  9
$MENU
  1
acad
  9
$ELEVATION
 40
0.0
  9
$PELEVATION
 40
0.0
  9
$THICKNESS
 40
0.0
  9
$LIMCHECK
 70
     0
  9
$CHAMFERA
 40
0.0
  9
$CHAMFERB
 40
0.0
  9
$CHAMFERC
 40
0.0
  9
$CHAMFERD
 40
0.0
  9
$SKPOLY
 70
     0
  9
$TDCREATE
 40
2450513.821799537
  9
$TDUCREATE
 40
2450514.15513287
  9
$TDUPDATE
 40
2454175.937253229
  9
$TDUUPDATE
 40
2454176.270586562
  9
$TDINDWG
 40
0.4045983102
  9
$TDUSRTIMER
 40
0.4045983102
  9
$USRTIMER
 70
     1
  9
$ANGBASE
 50
0.0
  9
$ANGDIR
 70
     0
  9
$PDMODE
 70
     0
  9
$PDSIZE
 40
0.0
  9
$PLINEWID
 40
0.0
  9
$SPLFRAME
 70
     0
  9
$SPLINETYPE
 70
     6
  9
$SPLINESEGS
 70
     8
  9
$HANDSEED
  5
1FE1
  9
$SURFTAB1
 70
     6
  9
$SURFTAB2
 70
     6
  9
$SURFTYPE
 70
     6
  9
$SURFU
 70
     6
  9
$SURFV
 70
     6
  9
$UCSBASE
  2

  9
$UCSNAME
  2

  9
$UCSORG
 10
0.0
 20
0.0
 30
0.0
  9
$UCSXDIR
 10
1.0
 20
0.0
 30
0.0
  9
$UCSYDIR
 10
0.0
 20
1.0
 30
0.0
  9
$UCSORTHOREF
  2

  9
$UCSORTHOVIEW
 70
     0
  9
$UCSORGTOP
 10
0.0
 20
0.0
 30
0.0
  9
$UCSORGBOTTOM
 10
0.0
 20
0.0
 30
0.0
  9
$UCSORGLEFT
 10
0.0
 20
0.0
 30
0.0
  9
$UCSORGRIGHT
 10
0.0
 20
0.0
 30
0.0
  9
$UCSORGFRONT
 10
0.0
 20
0.0
 30
0.0
  9
$UCSORGBACK
 10
0.0
 20
0.0
 30
0.0
  9
$PUCSBASE
  2

  9
$PUCSNAME
  2

  9
$PUCSORG
 10
0.0
 20
0.0
 30
0.0
  9
$PUCSXDIR
 10
1.0
 20
0.0
 30
0.0
  9
$PUCSYDIR
 10
0.0
 20
1.0
 30
0.0
  9
$PUCSORTHOREF
  2

  9
$PUCSORTHOVIEW
 70
     0
  9
$PUCSORGTOP
 10
0.0
 20
0.0
 30
0.0
  9
$PUCSORGBOTTOM
 10
0.0
 20
0.0
 30
0.0
  9
$PUCSORGLEFT
 10
0.0
 20
0.0
 30
0.0
  9
$PUCSORGRIGHT
 10
0.0
 20
0.0
 30
0.0
  9
$PUCSORGFRONT
 10
0.0
 20
0.0
 30
0.0
  9
$PUCSORGBACK
 10
0.0
 20
0.0
 30
0.0
  9
$USERI1
 70
     0
  9
$USERI2
 70
     0
  9
$USERI3
 70
     0
  9
$USERI4
 70
     0
  9
$USERI5
 70
     0
  9
$USERR1
 40
0.0
  9
$USERR2
 40
0.0
  9
$USERR3
 40
0.0
  9
$USERR4
 40
0.0
  9
$USERR5
 40
0.0
  9
$WORLDVIEW
 70
     1
  9
$SHADEDGE
 70
     3
  9
$SHADEDIF
 70
    70
  9
$TILEMODE
 70
     1
  9
$MAXACTVP
 70
    16
  9
$PINSBASE
 10
0.0
 20
0.0
 30
0.0
  9
$PLIMCHECK
 70
     0
  9
$PEXTMIN
 10
1.000000000000000E+20
 20
1.000000000000000E+20
 30
1.000000000000000E+20
  9
$PEXTMAX
 10
-1.000000000000000E+20
 20
-1.000000000000000E+20
 30
-1.000000000000000E+20
  9
$PLIMMIN
 10
0.0
 20
0.0
  9
$PLIMMAX
 10
12.0
 20
9.0
  9
$UNITMODE
 70
     0
  9
$VISRETAIN
 70
     0
  9
$PLINEGEN
 70
     0
  9
$PSLTSCALE
 70
     0
  9
$TREEDEPTH
 70
  3020
  9
$CMLSTYLE
  2
STANDARD
  9
$CMLJUST
 70
     0
  9
$CMLSCALE
 40
1.0
  9
$PROXYGRAPHICS
 70
     1
  9
$MEASUREMENT
 70
     0
  9
$CELWEIGHT
370
    -1
  9
$ENDCAPS
280
     0
  9
$JOINSTYLE
280
     0
  9
$LWDISPLAY
290
     0
  9
$INSUNITS
 70
     0
  9
$HYPERLINKBASE
  1

  9
$STYLESHEET
  1

  9
$XEDIT
290
     1
  9
$CEPSNTYPE
380
     0
  9
$PSTYLEMODE
290
     1
  9
$FINGERPRINTGUID
  2
{4A3893E9-8CC7-11D5-BE3F-00508B5FCD51}
  9
$VERSIONGUID
  2
{C09AB47C-AAFF-42D4-9909-93B3E2DA16C5}
  9
$EXTNAMES
290
     1
  9
$PSVPSCALE
 40
0.0
  9
$OLESTARTUP
290
     0
  0
ENDSEC
  0
SECTION
  2
CLASSES
  0
CLASS
  1
DICTIONARYVAR
  2
AcDbDictionaryVar
  3
AutoCAD 2000
 90
        0
280
     0
281
     0
  0
CLASS
  1
LWPOLYLINE
  2
AcDbPolyline
  3
AutoCAD 2000
 90
        0
280
     0
281
     1
  0
CLASS
  1
ACDBDICTIONARYWDFLT
  2
AcDbDictionaryWithDefault
  3
AutoCAD 2000
 90
        0
280
     0
281
     0
  0
CLASS
  1
ACDBPLACEHOLDER
  2
AcDbPlaceHolder
  3
ObjectDBX Classes
 90
        0
280
     0
281
     0
  0
CLASS
  1
LAYOUT
  2
AcDbLayout
  3
ObjectDBX Classes
 90
        0
280
     0
281
     0
  0
CLASS
  1
LONG_TRANSACTION
  2
AcDbLongTransaction
  3
ObjectDBX Classes
 90
   -65536
280
     1
281
     0
  0
CLASS
  1
LWPOLYLINE
  2
AcDbPolyline
  3
AutoCAD 2000
 90
        0
280
     0
281
     1
  0
CLASS
  1
HATCH
  2
AcDbHatch
  3
AutoCAD 2000
 90
        0
280
     0
281
     1
  0
CLASS
  1
XRECORD
  2
AcDbXrecord
  3
AutoCAD 2000
 90
        0
280
     0
281
     0
  0
CLASS
  1
LONG_TRANSACTION
  2
AcDbLongTransaction
  3
ObjectDBX Classes
 90
   -65536
280
     1
281
     0
  0
CLASS
  1
LWPOLYLINE
  2
AcDbPolyline
  3
AutoCAD 2000
 90
        0
280
     0
281
     1
  0
CLASS
  1
HATCH
  2
AcDbHatch
  3
AutoCAD 2000
 90
        0
280
     0
281
     1
  0
CLASS
  1
XRECORD
  2
AcDbXrecord
  3
AutoCAD 2000
 90
        0
280
     0
281
     0
  0
CLASS
  1
LONG_TRANSACTION
  2
AcDbLongTransaction
  3
ObjectDBX Classes
 90
   -65536
280
     1
281
     0
  0
CLASS
  1
LWPOLYLINE
  2
AcDbPolyline
  3
AutoCAD 2000
 90
        0
280
     0
281
     1
  0
CLASS
  1
HATCH
  2
AcDbHatch
  3
AutoCAD 2000
 90
        0
280
     0
281
     1
  0
CLASS
  1
XRECORD
  2
AcDbXrecord
  3
AutoCAD 2000
 90
        0
280
     0
281
     0
  0
CLASS
  1
LONG_TRANSACTION
  2
AcDbLongTransaction
  3
ObjectDBX Classes
 90
   -65536
280
     1
281
     0
  0
CLASS
  1
LWPOLYLINE
  2
AcDbPolyline
  3
AutoCAD 2000
 90
        0
280
     0
281
     1
  0
CLASS
  1
HATCH
  2
AcDbHatch
  3
AutoCAD 2000
 90
        0
280
     0
281
     1
  0
CLASS
  1
XRECORD
  2
AcDbXrecord
  3
AutoCAD 2000
 90
        0
280
     0
281
     0
  0
CLASS
  1
LONG_TRANSACTION
  2
AcDbLongTransaction
  3
ObjectDBX Classes
 90
   -65536
280
     1
281
     0
  0
CLASS
  1
LWPOLYLINE
  2
AcDbPolyline
  3
AutoCAD 2000
 90
        0
280
     0
281
     1
  0
CLASS
  1
HATCH
  2
AcDbHatch
  3
AutoCAD 2000
 90
        0
280
     0
281
     1
  0
CLASS
  1
XRECORD
  2
AcDbXrecord
  3
AutoCAD 2000
 90
        0
280
     0
281
     0
  0
CLASS
  1
LONG_TRANSACTION
  2
AcDbLongTransaction
  3
ObjectDBX Classes
 90
   -65536
280
     1
281
     0
  0
CLASS
  1
LWPOLYLINE
  2
AcDbPolyline
  3
AutoCAD 2000
 90
        0
280
     0
281
     1
  0
CLASS
  1
HATCH
  2
AcDbHatch
  3
AutoCAD 2000
 90
        0
280
     0
281
     1
  0
CLASS
  1
XRECORD
  2
AcDbXrecord
  3
AutoCAD 2000
 90
        0
280
     0
281
     0
  0
CLASS
  1
LONG_TRANSACTION
  2
AcDbLongTransaction
  3
ObjectDBX Classes
 90
   -65536
280
     1
281
     0
  0
CLASS
  1
LWPOLYLINE
  2
AcDbPolyline
  3
AutoCAD 2000
 90
        0
280
     0
281
     1
  0
CLASS
  1
HATCH
  2
AcDbHatch
  3
AutoCAD 2000
 90
        0
280
     0
281
     1
  0
CLASS
  1
XRECORD
  2
AcDbXrecord
  3
AutoCAD 2000
 90
        0
280
     0
281
     0
  0
CLASS
  1
LONG_TRANSACTION
  2
AcDbLongTransaction
  3
ObjectDBX Classes
 90
   -65536
280
     1
281
     0
  0
CLASS
  1
LWPOLYLINE
  2
AcDbPolyline
  3
AutoCAD 2000
 90
        0
280
     0
281
     1
  0
CLASS
  1
HATCH
  2
AcDbHatch
  3
AutoCAD 2000
 90
        0
280
     0
281
     1
  0
CLASS
  1
XRECORD
  2
AcDbXrecord
  3
AutoCAD 2000
 90
        0
280
     0
281
     0
  0
CLASS
  1
SORTENTSTABLE
  2
AcDbSortentsTable
  3
AutoCAD 2000
 90
        0
280
     0
281
     0
  0
CLASS
  1
TABLESTYLE
  2
AcDbTableStyle
  3
ObjectDBX Classes
 90
     2047
280
     1
281
     0
  0
ENDSEC
  0
SECTION
  2
TABLES
  0
TABLE
  2
VPORT
  5
8
330
0
100
AcDbSymbolTable
 70
     3
  0
VPORT
  5
1FD3
330
8
100
AcDbSymbolTableRecord
100
AcDbViewportTableRecord
  2
*Active
 70
     0
 10
0.0
 20
0.0
 11
1.0
 21
1.0
 12
7.151325500896871
 22
12.66842711767348
 13
0.0
 23
0.0
 14
0.03125
 24
0.03125
 15
0.25
 25
0.25
 16
0.0
 26
0.0
 36
1.0
 17
0.0
 27
0.0
 37
0.0
 40
32.43970680841316
 41
1.814583333333333
 42
50.0
 43
0.0
 44
0.0
 50
0.0
 51
0.0
 71
     0
 72
   100
 73
     1
 74
     0
 75
     0
 76
     0
 77
     0
 78
     0
281
     0
 65
     1
110
0.0
120
0.0
130
0.0
111
1.0
121
0.0
131
0.0
112
0.0
122
1.0
132
0.0
 79
     0
146
0.0
  0
ENDTAB
  0
TABLE
  2
LTYPE
  5
5
330
0
100
AcDbSymbolTable
 70
     2
  0
LTYPE
  5
11
330
5
100
AcDbSymbolTableRecord
100
AcDbLinetypeTableRecord
  2
BYBLOCK
 70
     0
  3

 72
    65
 73
     0
 40
0.0
  0
LTYPE
  5
12
330
5
100
AcDbSymbolTableRecord
100
AcDbLinetypeTableRecord
  2
BYLAYER
 70
     0
  3

 72
    65
 73
     0
 40
0.0
  0
LTYPE
  5
13
330
5
100
AcDbSymbolTableRecord
100
AcDbLinetypeTableRecord
  2
CONTINUOUS
 70
     0
  3
Solid line
 72
    65
 73
     0
 40
0.0
  0
LTYPE
  5
37
330
5
100
AcDbSymbolTableRecord
100
AcDbLinetypeTableRecord
  2
DASHED
 70
     0
  3
__ __ __ __ __ __ __ __ __ __ __ __ __ __ __
 72
    65
 73
     2
 40
0.75
 49
0.5
 74
     0
 49
-0.25
 74
     0
  0
ENDTAB
  0
TABLE
  2
LAYER
  5
2
330
0
100
AcDbSymbolTable
 70
     3
  0
LAYER
  5
E
330
2
100
AcDbSymbolTableRecord
100
AcDbLayerTableRecord
  2
0
 70
     0
 62
     7
  6
CONTINUOUS
370
    -3
390
D3D
  0
LAYER
  5
4A
330
2
100
AcDbSymbolTableRecord
100
AcDbLayerTableRecord
  2
DTM
 70
     0
 62
     1
  6
CONTINUOUS
370
    -3
390
D3D
  0
LAYER
  5
4E
330
2
100
AcDbSymbolTableRecord
100
AcDbLayerTableRecord
  2
STP-SHIFT
 70
     0
 62
     4
  6
CONTINUOUS
370
    -3
390
D3D
  0
ENDTAB
  0
TABLE
  2
STYLE
  5
3
330
0
100
AcDbSymbolTable
 70
     1
  0
STYLE
  5
F
330
3
100
AcDbSymbolTableRecord
100
AcDbTextStyleTableRecord
  2
STANDARD
 70
     0
 40
0.0
 41
1.0
 50
0.0
 71
     0
 42
0.36
  3
TXT
  4

  0
ENDTAB
  0
TABLE
  2
VIEW
  5
6
330
0
100
AcDbSymbolTable
 70
     0
  0
ENDTAB
  0
TABLE
  2
UCS
  5
7
330
0
100
AcDbSymbolTable
 70
     0
  0
ENDTAB
  0
TABLE
  2
APPID
  5
9
330
0
100
AcDbSymbolTable
 70
     2
  0
APPID
  5
10
330
9
100
AcDbSymbolTableRecord
100
AcDbRegAppTableRecord
  2
ACAD
 70
     0
  0
APPID
  5
191C
330
9
100
AcDbSymbolTableRecord
100
AcDbRegAppTableRecord
  2
ACAD_PSEXT
 70
     0
  0
ENDTAB
  0
TABLE
  2
DIMSTYLE
  5
A
330
0
100
AcDbSymbolTable
 70
     1
100
AcDbDimStyleTable
  0
DIMSTYLE
105
823
330
A
100
AcDbSymbolTableRecord
100
AcDbDimStyleTableRecord
  2
STANDARD
 70
     0
  3

  4

340
F
  0
ENDTAB
  0
TABLE
  2
BLOCK_RECORD
  5
1
330
0
100
AcDbSymbolTable
 70
     1
  0
BLOCK_RECORD
  5
17
102
{ACAD_XDICTIONARY
360
D6E
102
}
330
1
100
AcDbSymbolTableRecord
100
AcDbBlockTableRecord
  2
*MODEL_SPACE
340
D40
  0
BLOCK_RECORD
  5
14
330
1
100
AcDbSymbolTableRecord
100
AcDbBlockTableRecord
  2
*PAPER_SPACE
340
D41
  0
BLOCK_RECORD
  5
1E
330
1
100
AcDbSymbolTableRecord
100
AcDbBlockTableRecord
  2
DTM
340
0
102
{BLKREFS
331
3C9
331
3DE
331
3F3
331
408
331
41D
331
432
331
447
331
45C
331
471
331
486
331
49C
331
4B1
331
4C6
331
4DB
331
4F0
331
505
331
51A
331
52F
331
544
331
559
331
56E
331
583
331
598
331
5AD
331
5C2
331
5D7
331
5EC
102
}
  0
ENDTAB
  0
ENDSEC
  0
SECTION
  2
BLOCKS
  0
BLOCK
  5
55
330
17
100
AcDbEntity
  8
0
100
AcDbBlockBegin
  2
*MODEL_SPACE
 70
     0
 10
0.0
 20
0.0
 30
0.0
  3
*MODEL_SPACE
  1

  4

  0
ENDBLK
  5
56
330
17
100
AcDbEntity
  8
0
100
AcDbBlockEnd
  0
BLOCK
  5
53
330
14
100
AcDbEntity
 67
     1
  8
0
100
AcDbBlockBegin
  2
*PAPER_SPACE
 70
     0
 10
0.0
 20
0.0
 30
0.0
  3
*PAPER_SPACE
  1

  4

  0
ENDBLK
  5
54
330
14
100
AcDbEntity
 67
     1
  8
0
100
AcDbBlockEnd
  0
BLOCK
  5
C8
330
1E
100
AcDbEntity
  8
0
100
AcDbBlockBegin
  2
DTM
 70
     2
 10
0.0
 20
0.00002
 30
0.0
  3
DTM
  1

  4

  0
ATTDEF
  5
C9
330
1E
100
AcDbEntity
  8
DTM
100
AcDbText
 10
0.0
 20
0.00002
 30
0.0
 40
0.000005
  1
DTM
100
AcDbAttributeDefinition
  3

  2
LAY1
 70
     1
  0
ATTDEF
  5
CA
330
1E
100
AcDbEntity
  8
DTM
100
AcDbText
 10
0.00003
 20
0.0000283333333333
 30
0.0
 40
0.000005
  1
0.25
100
AcDbAttributeDefinition
  3

  2
ZIG1
 70
     1
  0
ATTDEF
  5
CB
330
1E
100
AcDbEntity
  8
DTM
100
AcDbText
 10
0.00003
 20
0.0000366666666667
 30
0.0
 40
0.000005
  1
0.75
100
AcDbAttributeDefinition
  3

  2
ZAG1
 70
     1
  0
ATTDEF
  5
CC
330
1E
100
AcDbEntity
  8
DTM
100
AcDbText
 10
0.00003
 20
0.000045
 30
0.0
 40
0.000005
  1
0.125
100
AcDbAttributeDefinition
  3

  2
TXT1
 70
     1
  0
ATTDEF
  5
CD
330
1E
100
AcDbEntity
  8
DTM
100
AcDbText
 10
0.00003
 20
0.0000533333333333
 30
0.0
 40
0.000005
  1
STANDARD
100
AcDbAttributeDefinition
  3

  2
STY1
 70
     1
  0
ATTDEF
  5
CE
330
1E
100
AcDbEntity
  8
DTM
100
AcDbText
 10
0.00003
 20
0.0000616666666667
 30
0.0
 40
0.000005
  1
1.0
100
AcDbAttributeDefinition
  3

  2
SCL1
 70
     1
  0
ATTDEF
  5
CF
330
1E
100
AcDbEntity
  8
DTM
100
AcDbText
 10
0.00003
 20
0.00007
 30
0.0
 40
0.000005
  1
0.0
100
AcDbAttributeDefinition
  3

  2
ROT1
 70
     1
  0
ATTDEF
  5
D0
330
1E
100
AcDbEntity
  8
DTM
100
AcDbText
 10
0.00003
 20
0.0000783333333333
 30
0.0
 40
0.000005
  1
0.125
100
AcDbAttributeDefinition
  3

  2
LLS1
 70
     1
  0
ATTDEF
  5
D1
330
1E
100
AcDbEntity
  8
DTM
100
AcDbText
 10
0.00003
 20
0.0000866666666667
 30
0.0
 40
0.000005
  1
0.0625
100
AcDbAttributeDefinition
  3

  2
LLO1
 70
     1
  0
ATTDEF
  5
D2
330
1E
100
AcDbEntity
  8
DTM
100
AcDbText
 10
0.00003
 20
0.000095
 30
0.0
 40
0.000005
  1
0.5
100
AcDbAttributeDefinition
  3

  2
LLI1
 70
     1
  0
ATTDEF
  5
D3
330
1E
100
AcDbEntity
  8
DTM
100
AcDbText
 10
0.0
 20
0.0000283333333333
 30
0.0
 40
0.000005
  1
0.0
100
AcDbAttributeDefinition
  3

  2
FRM4
 70
     1
  0
ATTDEF
  5
D4
330
1E
100
AcDbEntity
  8
DTM
100
AcDbText
 10
0.0
 20
0.0000366666666667
 30
0.0
 40
0.000005
  1
0.0
100
AcDbAttributeDefinition
  3

  2
FRM3
 70
     1
  0
ATTDEF
  5
D5
330
1E
100
AcDbEntity
  8
DTM
100
AcDbText
 10
0.0
 20
0.000045
 30
0.0
 40
0.000005
  1
0.0
100
AcDbAttributeDefinition
  3

  2
FRM2
 70
     1
  0
ATTDEF
  5
D6
330
1E
100
AcDbEntity
  8
DTM
100
AcDbText
 10
0.0
 20
0.0000533333333333
 30
0.0
 40
0.000005
  1
0.0
100
AcDbAttributeDefinition
  3

  2
FRM1
 70
     1
  0
ATTDEF
  5
D7
330
1E
100
AcDbEntity
  8
DTM
100
AcDbText
 10
0.0
 20
0.0000616666666667
 30
0.0
 40
0.000005
  1
1.0
100
AcDbAttributeDefinition
  3

  2
DLF1
 70
     1
  0
ATTDEF
  5
D8
330
1E
100
AcDbEntity
  8
DTM
100
AcDbText
 10
0.0
 20
0.00007
 30
0.0
 40
0.000005
  1
0.0
100
AcDbAttributeDefinition
  3

  2
BSE2
 70
     1
  0
ATTDEF
  5
D9
330
1E
100
AcDbEntity
  8
DTM
100
AcDbText
 10
0.0
 20
0.0000783333333333
 30
0.0
 40
0.000005
  1
0.0
100
AcDbAttributeDefinition
  3

  2
BSE1
 70
     1
  0
ATTDEF
  5
DA
330
1E
100
AcDbEntity
  8
DTM
100
AcDbText
 10
0.0
 20
0.0000866666666667
 30
0.0
 40
0.000005
  1
1.0
100
AcDbAttributeDefinition
  3

  2
BDR1
 70
     1
  0
ATTDEF
  5
DB
330
1E
100
AcDbEntity
  8
DTM
100
AcDbText
 10
0.0
 20
0.000095
 30
0.0
 40
0.000005
  1
0.0
100
AcDbAttributeDefinition
  3

  2
ABS1
 70
     1
  0
ENDBLK
  5
DC
330
1E
100
AcDbEntity
  8
0
100
AcDbBlockEnd
  0
ENDSEC
  0
SECTION
  2
ENTITIES
  0
INSERT
  5
3C9
330
17
100
AcDbEntity
  8
0
100
AcDbBlockReference
 66
     1
  2
DTM
 10
0.0
 20
0.0
 30
0.0
  0
ATTRIB
  5
3CA
330
3C9
100
AcDbEntity
  8
DTM
100
AcDbText
 10
0.0
 20
0.0
 30
0.0
 40
0.000005
  1
DTM
100
AcDbAttribute
  2
LAY1
 70
     1
  0
ATTRIB
  5
3CB
330
3C9
100
AcDbEntity
  8
DTM
100
AcDbText
 10
0.00003
 20
0.0000083333333333
 30
0.0
 40
0.000005
  1
0.25
100
AcDbAttribute
  2
ZIG1
 70
     1
  0
ATTRIB
  5
3CC
330
3C9
100
AcDbEntity
  8
DTM
100
AcDbText
 10
0.00003
 20
0.0000166666666667
 30
0.0
 40
0.000005
  1
0.75
100
AcDbAttribute
  2
ZAG1
 70
     1
  0
ATTRIB
  5
3CD
330
3C9
100
AcDbEntity
  8
DTM
100
AcDbText
 10
0.00003
 20
0.000025
 30
0.0
 40
0.000005
  1
0.125
100
AcDbAttribute
  2
TXT1
 70
     1
  0
ATTRIB
  5
3CE
330
3C9
100
AcDbEntity
  8
DTM
100
AcDbText
 10
0.00003
 20
0.0000333333333333
 30
0.0
 40
0.000005
  1
STANDARD
100
AcDbAttribute
  2
STY1
 70
     1
  0
ATTRIB
  5
3CF
330
3C9
100
AcDbEntity
  8
DTM
100
AcDbText
 10
0.00003
 20
0.0000416666666667
 30
0.0
 40
0.000005
  1
1.0
100
AcDbAttribute
  2
SCL1
 70
     1
  0
ATTRIB
  5
3D0
330
3C9
100
AcDbEntity
  8
DTM
100
AcDbText
 10
0.00003
 20
0.00005
 30
0.0
 40
0.000005
  1
0.0
100
AcDbAttribute
  2
ROT1
 70
     1
  0
ATTRIB
  5
3D1
330
3C9
100
AcDbEntity
  8
DTM
100
AcDbText
 10
0.00003
 20
0.0000583333333333
 30
0.0
 40
0.000005
  1
0.125
100
AcDbAttribute
  2
LLS1
 70
     1
  0
ATTRIB
  5
3D2
330
3C9
100
AcDbEntity
  8
DTM
100
AcDbText
 10
0.00003
 20
0.0000666666666667
 30
0.0
 40
0.000005
  1
0.0625
100
AcDbAttribute
  2
LLO1
 70
     1
  0
ATTRIB
  5
3D3
330
3C9
100
AcDbEntity
  8
DTM
100
AcDbText
 10
0.00003
 20
0.000075
 30
0.0
 40
0.000005
  1
0.5
100
AcDbAttribute
  2
LLI1
 70
     1
  0
ATTRIB
  5
3D4
330
3C9
100
AcDbEntity
  8
DTM
100
AcDbText
 10
0.0
 20
0.0000083333333333
 30
0.0
 40
0.000005
  1
15.6274
100
AcDbAttribute
  2
FRM4
 70
     1
  0
ATTRIB
  5
3D5
330
3C9
100
AcDbEntity
  8
DTM
100
AcDbText
 10
0.0
 20
0.0000166666666667
 30
0.0
 40
0.000005
  1
17.7126
100
AcDbAttribute
  2
FRM3
 70
     1
  0
ATTRIB
  5
3D6
330
3C9
100
AcDbEntity
  8
DTM
100
AcDbText
 10
0.0
 20
0.000025
 30
0.0
 40
0.000005
  1
22.4030
100
AcDbAttribute
  2
FRM2
 70
     1
  0
ATTRIB
  5
3D7
330
3C9
100
AcDbEntity
  8
DTM
100
AcDbText
 10
0.0
 20
0.0000333333333333
 30
0.0
 40
0.000005
  1
5.5321
100
AcDbAttribute
  2
FRM1
 70
     1
  0
ATTRIB
  5
3D8
330
3C9
100
AcDbEntity
  8
DTM
100
AcDbText
 10
0.0
 20
0.0000416666666667
 30
0.0
 40
0.000005
  1
1.0
100
AcDbAttribute
  2
DLF1
 70
     1
  0
ATTRIB
  5
3D9
330
3C9
100
AcDbEntity
  8
DTM
100
AcDbText
 10
0.0
 20
0.00005
 30
0.0
 40
0.000005
  1
15.5062
100
AcDbAttribute
  2
BSE2
 70
     1
  0
ATTRIB
  5
3DA
330
3C9
100
AcDbEntity
  8
DTM
100
AcDbText
 10
0.0
 20
0.0000583333333333
 30
0.0
 40
0.000005
  1
16.0531
100
AcDbAttribute
  2
BSE1
 70
     1
  0
ATTRIB
  5
3DB
330
3C9
100
AcDbEntity
  8
DTM
100
AcDbText
 10
0.0
 20
0.0000666666666667
 30
0.0
 40
0.000005
  1
1.0
100
AcDbAttribute
  2
BDR1
 70
     1
  0
ATTRIB
  5
3DC
330
3C9
100
AcDbEntity
  8
DTM
100
AcDbText
 10
0.0
 20
0.000075
 30
0.0
 40
0.000005
  1
0.0
100
AcDbAttribute
  2
ABS1
 70
     1
  0
SEQEND
  5
3DD
330
3C9
100
AcDbEntity
  8
0
  0
INSERT
  5
3DE
330
17
100
AcDbEntity
  8
0
100
AcDbBlockReference
 66
     1
  2
DTM
 10
0.0
 20
0.0
 30
0.0
  0
ATTRIB
  5
3DF
330
3DE
100
AcDbEntity
  8
DTM
100
AcDbText
 10
0.0
 20
0.0
 30
0.0
 40
0.000005
  1
DTM
100
AcDbAttribute
  2
LAY1
 70
     1
  0
ATTRIB
  5
3E0
330
3DE
100
AcDbEntity
  8
DTM
100
AcDbText
 10
0.00003
 20
0.0000083333333333
 30
0.0
 40
0.000005
  1
0.25
100
AcDbAttribute
  2
ZIG1
 70
     1
  0
ATTRIB
  5
3E1
330
3DE
100
AcDbEntity
  8
DTM
100
AcDbText
 10
0.00003
 20
0.0000166666666667
 30
0.0
 40
0.000005
  1
0.75
100
AcDbAttribute
  2
ZAG1
 70
     1
  0
ATTRIB
  5
3E2
330
3DE
100
AcDbEntity
  8
DTM
100
AcDbText
 10
0.00003
 20
0.000025
 30
0.0
 40
0.000005
  1
0.125
100
AcDbAttribute
  2
TXT1
 70
     1
  0
ATTRIB
  5
3E3
330
3DE
100
AcDbEntity
  8
DTM
100
AcDbText
 10
0.00003
 20
0.0000333333333333
 30
0.0
 40
0.000005
  1
STANDARD
100
AcDbAttribute
  2
STY1
 70
     1
  0
ATTRIB
  5
3E4
330
3DE
100
AcDbEntity
  8
DTM
100
AcDbText
 10
0.00003
 20
0.0000416666666667
 30
0.0
 40
0.000005
  1
1.0
100
AcDbAttribute
  2
SCL1
 70
     1
  0
ATTRIB
  5
3E5
330
3DE
100
AcDbEntity
  8
DTM
100
AcDbText
 10
0.00003
 20
0.00005
 30
0.0
 40
0.000005
  1
0.0
100
AcDbAttribute
  2
ROT1
 70
     1
  0
ATTRIB
  5
3E6
330
3DE
100
AcDbEntity
  8
DTM
100
AcDbText
 10
0.00003
 20
0.0000583333333333
 30
0.0
 40
0.000005
  1
0.125
100
AcDbAttribute
  2
LLS1
 70
     1
  0
ATTRIB
  5
3E7
330
3DE
100
AcDbEntity
  8
DTM
100
AcDbText
 10
0.00003
 20
0.0000666666666667
 30
0.0
 40
0.000005
  1
0.0625
100
AcDbAttribute
  2
LLO1
 70
     1
  0
ATTRIB
  5
3E8
330
3DE
100
AcDbEntity
  8
DTM
100
AcDbText
 10
0.00003
 20
0.000075
 30
0.0
 40
0.000005
  1
0.5
100
AcDbAttribute
  2
LLI1
 70
     1
  0
ATTRIB
  5
3E9
330
3DE
100
AcDbEntity
  8
DTM
100
AcDbText
 10
0.0
 20
0.0000083333333333
 30
0.0
 40
0.000005
  1
0.0
100
AcDbAttribute
  2
FRM4
 70
     1
  0
ATTRIB
  5
3EA
330
3DE
100
AcDbEntity
  8
DTM
100
AcDbText
 10
0.0
 20
0.0000166666666667
 30
0.0
 40
0.000005
  1
0.0
100
AcDbAttribute
  2
FRM3
 70
     1
  0
ATTRIB
  5
3EB
330
3DE
100
AcDbEntity
  8
DTM
100
AcDbText
 10
0.0
 20
0.000025
 30
0.0
 40
0.000005
  1
0.0
100
AcDbAttribute
  2
FRM2
 70
     1
  0
ATTRIB
  5
3EC
330
3DE
100
AcDbEntity
  8
DTM
100
AcDbText
 10
0.0
 20
0.0000333333333333
 30
0.0
 40
0.000005
  1
0.0
100
AcDbAttribute
  2
FRM1
 70
     1
  0
ATTRIB
  5
3ED
330
3DE
100
AcDbEntity
  8
DTM
100
AcDbText
 10
0.0
 20
0.0000416666666667
 30
0.0
 40
0.000005
  1
1.0
100
AcDbAttribute
  2
DLF1
 70
     1
  0
ATTRIB
  5
3EE
330
3DE
100
AcDbEntity
  8
DTM
100
AcDbText
 10
0.0
 20
0.00005
 30
0.0
 40
0.000005
  1
0.0
100
AcDbAttribute
  2
BSE2
 70
     1
  0
ATTRIB
  5
3EF
330
3DE
100
AcDbEntity
  8
DTM
100
AcDbText
 10
0.0
 20
0.0000583333333333
 30
0.0
 40
0.000005
  1
0.0
100
AcDbAttribute
  2
BSE1
 70
     1
  0
ATTRIB
  5
3F0
330
3DE
100
AcDbEntity
  8
DTM
100
AcDbText
 10
0.0
 20
0.0000666666666667
 30
0.0
 40
0.000005
  1
1.0
100
AcDbAttribute
  2
BDR1
 70
     1
  0
ATTRIB
  5
3F1
330
3DE
100
AcDbEntity
  8
DTM
100
AcDbText
 10
0.0
 20
0.000075
 30
0.0
 40
0.000005
  1
0.0
100
AcDbAttribute
  2
ABS1
 70
     1
  0
SEQEND
  5
3F2
330
3DE
100
AcDbEntity
  8
STP-SHIFT
  0
INSERT
  5
3F3
330
17
100
AcDbEntity
  8
0
100
AcDbBlockReference
 66
     1
  2
DTM
 10
26.5
 20
1.0
 30
0.0
  0
ATTRIB
  5
3F4
330
3F3
100
AcDbEntity
  8
DTM
100
AcDbText
 10
26.5
 20
1.0
 30
0.0
 40
0.000005
  1
DTM
100
AcDbAttribute
  2
LAY1
 70
     1
  0
ATTRIB
  5
3F5
330
3F3
100
AcDbEntity
  8
DTM
100
AcDbText
 10
26.50003
 20
1.000008333333333
 30
0.0
 40
0.000005
  1
0.25
100
AcDbAttribute
  2
ZIG1
 70
     1
  0
ATTRIB
  5
3F6
330
3F3
100
AcDbEntity
  8
DTM
100
AcDbText
 10
26.50003
 20
1.000016666666667
 30
0.0
 40
0.000005
  1
0.75
100
AcDbAttribute
  2
ZAG1
 70
     1
  0
ATTRIB
  5
3F7
330
3F3
100
AcDbEntity
  8
DTM
100
AcDbText
 10
26.50003
 20
1.000025
 30
0.0
 40
0.000005
  1
0.125
100
AcDbAttribute
  2
TXT1
 70
     1
  0
ATTRIB
  5
3F8
330
3F3
100
AcDbEntity
  8
DTM
100
AcDbText
 10
26.50003
 20
1.000033333333333
 30
0.0
 40
0.000005
  1
STANDARD
100
AcDbAttribute
  2
STY1
 70
     1
  0
ATTRIB
  5
3F9
330
3F3
100
AcDbEntity
  8
DTM
100
AcDbText
 10
26.50003
 20
1.000041666666667
 30
0.0
 40
0.000005
  1
1.0
100
AcDbAttribute
  2
SCL1
 70
     1
  0
ATTRIB
  5
3FA
330
3F3
100
AcDbEntity
  8
DTM
100
AcDbText
 10
26.50003
 20
1.00005
 30
0.0
 40
0.000005
  1
0.0
100
AcDbAttribute
  2
ROT1
 70
     1
  0
ATTRIB
  5
3FB
330
3F3
100
AcDbEntity
  8
DTM
100
AcDbText
 10
26.50003
 20
1.000058333333333
 30
0.0
 40
0.000005
  1
0.125
100
AcDbAttribute
  2
LLS1
 70
     1
  0
ATTRIB
  5
3FC
330
3F3
100
AcDbEntity
  8
DTM
100
AcDbText
 10
26.50003
 20
1.000066666666667
 30
0.0
 40
0.000005
  1
0.0625
100
AcDbAttribute
  2
LLO1
 70
     1
  0
ATTRIB
  5
3FD
330
3F3
100
AcDbEntity
  8
DTM
100
AcDbText
 10
26.50003
 20
1.000075
 30
0.0
 40
0.000005
  1
0.5
100
AcDbAttribute
  2
LLI1
 70
     1
  0
ATTRIB
  5
3FE
330
3F3
100
AcDbEntity
  8
DTM
100
AcDbText
 10
26.5
 20
1.000008333333333
 30
0.0
 40
0.000005
  1
0.0
100
AcDbAttribute
  2
FRM4
 70
     1
  0
ATTRIB
  5
3FF
330
3F3
100
AcDbEntity
  8
DTM
100
AcDbText
 10
26.5
 20
1.000016666666667
 30
0.0
 40
0.000005
  1
0.0
100
AcDbAttribute
  2
FRM3
 70
     1
  0
ATTRIB
  5
400
330
3F3
100
AcDbEntity
  8
DTM
100
AcDbText
 10
26.5
 20
1.000025
 30
0.0
 40
0.000005
  1
0.0
100
AcDbAttribute
  2
FRM2
 70
     1
  0
ATTRIB
  5
401
330
3F3
100
AcDbEntity
  8
DTM
100
AcDbText
 10
26.5
 20
1.000033333333333
 30
0.0
 40
0.000005
  1
0.0
100
AcDbAttribute
  2
FRM1
 70
     1
  0
ATTRIB
  5
402
330
3F3
100
AcDbEntity
  8
DTM
100
AcDbText
 10
26.5
 20
1.000041666666667
 30
0.0
 40
0.000005
  1
1.0
100
AcDbAttribute
  2
DLF1
 70
     1
  0
ATTRIB
  5
403
330
3F3
100
AcDbEntity
  8
DTM
100
AcDbText
 10
26.5
 20
1.00005
 30
0.0
 40
0.000005
  1
0.0
100
AcDbAttribute
  2
BSE2
 70
     1
  0
ATTRIB
  5
404
330
3F3
100
AcDbEntity
  8
DTM
100
AcDbText
 10
26.5
 20
1.000058333333333
 30
0.0
 40
0.000005
  1
0.0
100
AcDbAttribute
  2
BSE1
 70
     1
  0
ATTRIB
  5
405
330
3F3
100
AcDbEntity
  8
DTM
100
AcDbText
 10
26.5
 20
1.000066666666667
 30
0.0
 40
0.000005
  1
1.0
100
AcDbAttribute
  2
BDR1
 70
     1
  0
ATTRIB
  5
406
330
3F3
100
AcDbEntity
  8
DTM
100
AcDbText
 10
26.5
 20
1.000075
 30
0.0
 40
0.000005
  1
0.0
100
AcDbAttribute
  2
ABS1
 70
     1
  0
SEQEND
  5
407
330
3F3
100
AcDbEntity
  8
0
  0
INSERT
  5
408
330
17
100
AcDbEntity
  8
0
100
AcDbBlockReference
 66
     1
  2
DTM
 10
26.5
 20
1.0
 30
0.0
  0
ATTRIB
  5
409
330
408
100
AcDbEntity
  8
DTM
100
AcDbText
 10
26.5
 20
1.0
 30
0.0
 40
0.000005
  1
DTM
100
AcDbAttribute
  2
LAY1
 70
     1
  0
ATTRIB
  5
40A
330
408
100
AcDbEntity
  8
DTM
100
AcDbText
 10
26.50003
 20
1.000008333333333
 30
0.0
 40
0.000005
  1
0.25
100
AcDbAttribute
  2
ZIG1
 70
     1
  0
ATTRIB
  5
40B
330
408
100
AcDbEntity
  8
DTM
100
AcDbText
 10
26.50003
 20
1.000016666666667
 30
0.0
 40
0.000005
  1
0.75
100
AcDbAttribute
  2
ZAG1
 70
     1
  0
ATTRIB
  5
40C
330
408
100
AcDbEntity
  8
DTM
100
AcDbText
 10
26.50003
 20
1.000025
 30
0.0
 40
0.000005
  1
0.125
100
AcDbAttribute
  2
TXT1
 70
     1
  0
ATTRIB
  5
40D
330
408
100
AcDbEntity
  8
DTM
100
AcDbText
 10
26.50003
 20
1.000033333333333
 30
0.0
 40
0.000005
  1
STANDARD
100
AcDbAttribute
  2
STY1
 70
     1
  0
ATTRIB
  5
40E
330
408
100
AcDbEntity
  8
DTM
100
AcDbText
 10
26.50003
 20
1.000041666666667
 30
0.0
 40
0.000005
  1
1.0
100
AcDbAttribute
  2
SCL1
 70
     1
  0
ATTRIB
  5
40F
330
408
100
AcDbEntity
  8
DTM
100
AcDbText
 10
26.50003
 20
1.00005
 30
0.0
 40
0.000005
  1
0.0
100
AcDbAttribute
  2
ROT1
 70
     1
  0
ATTRIB
  5
410
330
408
100
AcDbEntity
  8
DTM
100
AcDbText
 10
26.50003
 20
1.000058333333333
 30
0.0
 40
0.000005
  1
0.125
100
AcDbAttribute
  2
LLS1
 70
     1
  0
ATTRIB
  5
411
330
408
100
AcDbEntity
  8
DTM
100
AcDbText
 10
26.50003
 20
1.000066666666667
 30
0.0
 40
0.000005
  1
0.0625
100
AcDbAttribute
  2
LLO1
 70
     1
  0
ATTRIB
  5
412
330
408
100
AcDbEntity
  8
DTM
100
AcDbText
 10
26.50003
 20
1.000075
 30
0.0
 40
0.000005
  1
0.5
100
AcDbAttribute
  2
LLI1
 70
     1
  0
ATTRIB
  5
413
330
408
100
AcDbEntity
  8
DTM
100
AcDbText
 10
26.5
 20
1.000008333333333
 30
0.0
 40
0.000005
  1
0.0
100
AcDbAttribute
  2
FRM4
 70
     1
  0
ATTRIB
  5
414
330
408
100
AcDbEntity
  8
DTM
100
AcDbText
 10
26.5
 20
1.000016666666667
 30
0.0
 40
0.000005
  1
0.0
100
AcDbAttribute
  2
FRM3
 70
     1
  0
ATTRIB
  5
415
330
408
100
AcDbEntity
  8
DTM
100
AcDbText
 10
26.5
 20
1.000025
 30
0.0
 40
0.000005
  1
0.0
100
AcDbAttribute
  2
FRM2
 70
     1
  0
ATTRIB
  5
416
330
408
100
AcDbEntity
  8
DTM
100
AcDbText
 10
26.5
 20
1.000033333333333
 30
0.0
 40
0.000005
  1
0.0
100
AcDbAttribute
  2
FRM1
 70
     1
  0
ATTRIB
  5
417
330
408
100
AcDbEntity
  8
DTM
100
AcDbText
 10
26.5
 20
1.000041666666667
 30
0.0
 40
0.000005
  1
1.0
100
AcDbAttribute
  2
DLF1
 70
     1
  0
ATTRIB
  5
418
330
408
100
AcDbEntity
  8
DTM
100
AcDbText
 10
26.5
 20
1.00005
 30
0.0
 40
0.000005
  1
0.0
100
AcDbAttribute
  2
BSE2
 70
     1
  0
ATTRIB
  5
419
330
408
100
AcDbEntity
  8
DTM
100
AcDbText
 10
26.5
 20
1.000058333333333
 30
0.0
 40
0.000005
  1
0.0
100
AcDbAttribute
  2
BSE1
 70
     1
  0
ATTRIB
  5
41A
330
408
100
AcDbEntity
  8
DTM
100
AcDbText
 10
26.5
 20
1.000066666666667
 30
0.0
 40
0.000005
  1
1.0
100
AcDbAttribute
  2
BDR1
 70
     1
  0
ATTRIB
  5
41B
330
408
100
AcDbEntity
  8
DTM
100
AcDbText
 10
26.5
 20
1.000075
 30
0.0
 40
0.000005
  1
0.0
100
AcDbAttribute
  2
ABS1
 70
     1
  0
SEQEND
  5
41C
330
408
100
AcDbEntity
  8
STP-SHIFT
  0
INSERT
  5
41D
330
17
100
AcDbEntity
  8
0
100
AcDbBlockReference
 66
     1
  2
DTM
 10
26.5
 20
1.0
 30
0.0
  0
ATTRIB
  5
41E
330
41D
100
AcDbEntity
  8
DTM
100
AcDbText
 10
26.5
 20
1.0
 30
0.0
 40
0.000005
  1
DTM
100
AcDbAttribute
  2
LAY1
 70
     1
  0
ATTRIB
  5
41F
330
41D
100
AcDbEntity
  8
DTM
100
AcDbText
 10
26.50003
 20
1.000008333333333
 30
0.0
 40
0.000005
  1
0.25
100
AcDbAttribute
  2
ZIG1
 70
     1
  0
ATTRIB
  5
420
330
41D
100
AcDbEntity
  8
DTM
100
AcDbText
 10
26.50003
 20
1.000016666666667
 30
0.0
 40
0.000005
  1
0.75
100
AcDbAttribute
  2
ZAG1
 70
     1
  0
ATTRIB
  5
421
330
41D
100
AcDbEntity
  8
DTM
100
AcDbText
 10
26.50003
 20
1.000025
 30
0.0
 40
0.000005
  1
0.125
100
AcDbAttribute
  2
TXT1
 70
     1
  0
ATTRIB
  5
422
330
41D
100
AcDbEntity
  8
DTM
100
AcDbText
 10
26.50003
 20
1.000033333333333
 30
0.0
 40
0.000005
  1
STANDARD
100
AcDbAttribute
  2
STY1
 70
     1
  0
ATTRIB
  5
423
330
41D
100
AcDbEntity
  8
DTM
100
AcDbText
 10
26.50003
 20
1.000041666666667
 30
0.0
 40
0.000005
  1
1.0
100
AcDbAttribute
  2
SCL1
 70
     1
  0
ATTRIB
  5
424
330
41D
100
AcDbEntity
  8
DTM
100
AcDbText
 10
26.50003
 20
1.00005
 30
0.0
 40
0.000005
  1
0.0
100
AcDbAttribute
  2
ROT1
 70
     1
  0
ATTRIB
  5
425
330
41D
100
AcDbEntity
  8
DTM
100
AcDbText
 10
26.50003
 20
1.000058333333333
 30
0.0
 40
0.000005
  1
0.125
100
AcDbAttribute
  2
LLS1
 70
     1
  0
ATTRIB
  5
426
330
41D
100
AcDbEntity
  8
DTM
100
AcDbText
 10
26.50003
 20
1.000066666666667
 30
0.0
 40
0.000005
  1
0.0625
100
AcDbAttribute
  2
LLO1
 70
     1
  0
ATTRIB
  5
427
330
41D
100
AcDbEntity
  8
DTM
100
AcDbText
 10
26.50003
 20
1.000075
 30
0.0
 40
0.000005
  1
0.5
100
AcDbAttribute
  2
LLI1
 70
     1
  0
ATTRIB
  5
428
330
41D
100
AcDbEntity
  8
DTM
100
AcDbText
 10
26.5
 20
1.000008333333333
 30
0.0
 40
0.000005
  1
0.0
100
AcDbAttribute
  2
FRM4
 70
     1
  0
ATTRIB
  5
429
330
41D
100
AcDbEntity
  8
DTM
100
AcDbText
 10
26.5
 20
1.000016666666667
 30
0.0
 40
0.000005
  1
0.0
100
AcDbAttribute
  2
FRM3
 70
     1
  0
ATTRIB
  5
42A
330
41D
100
AcDbEntity
  8
DTM
100
AcDbText
 10
26.5
 20
1.000025
 30
0.0
 40
0.000005
  1
0.0
100
AcDbAttribute
  2
FRM2
 70
     1
  0
ATTRIB
  5
42B
330
41D
100
AcDbEntity
  8
DTM
100
AcDbText
 10
26.5
 20
1.000033333333333
 30
0.0
 40
0.000005
  1
0.0
100
AcDbAttribute
  2
FRM1
 70
     1
  0
ATTRIB
  5
42C
330
41D
100
AcDbEntity
  8
DTM
100
AcDbText
 10
26.5
 20
1.000041666666667
 30
0.0
 40
0.000005
  1
1.0
100
AcDbAttribute
  2
DLF1
 70
     1
  0
ATTRIB
  5
42D
330
41D
100
AcDbEntity
  8
DTM
100
AcDbText
 10
26.5
 20
1.00005
 30
0.0
 40
0.000005
  1
0.0
100
AcDbAttribute
  2
BSE2
 70
     1
  0
ATTRIB
  5
42E
330
41D
100
AcDbEntity
  8
DTM
100
AcDbText
 10
26.5
 20
1.000058333333333
 30
0.0
 40
0.000005
  1
0.0
100
AcDbAttribute
  2
BSE1
 70
     1
  0
ATTRIB
  5
42F
330
41D
100
AcDbEntity
  8
DTM
100
AcDbText
 10
26.5
 20
1.000066666666667
 30
0.0
 40
0.000005
  1
1.0
100
AcDbAttribute
  2
BDR1
 70
     1
  0
ATTRIB
  5
430
330
41D
100
AcDbEntity
  8
DTM
100
AcDbText
 10
26.5
 20
1.000075
 30
0.0
 40
0.000005
  1
0.0
100
AcDbAttribute
  2
ABS1
 70
     1
  0
SEQEND
  5
431
330
41D
100
AcDbEntity
  8
0
  0
INSERT
  5
432
330
17
100
AcDbEntity
  8
0
100
AcDbBlockReference
 66
     1
  2
DTM
 10
26.5
 20
1.0
 30
0.0
  0
ATTRIB
  5
433
330
432
100
AcDbEntity
  8
DTM
100
AcDbText
 10
26.5
 20
1.0
 30
0.0
 40
0.000005
  1
DTM
100
AcDbAttribute
  2
LAY1
 70
     1
  0
ATTRIB
  5
434
330
432
100
AcDbEntity
  8
DTM
100
AcDbText
 10
26.50003
 20
1.000008333333333
 30
0.0
 40
0.000005
  1
0.25
100
AcDbAttribute
  2
ZIG1
 70
     1
  0
ATTRIB
  5
435
330
432
100
AcDbEntity
  8
DTM
100
AcDbText
 10
26.50003
 20
1.000016666666667
 30
0.0
 40
0.000005
  1
0.75
100
AcDbAttribute
  2
ZAG1
 70
     1
  0
ATTRIB
  5
436
330
432
100
AcDbEntity
  8
DTM
100
AcDbText
 10
26.50003
 20
1.000025
 30
0.0
 40
0.000005
  1
0.125
100
AcDbAttribute
  2
TXT1
 70
     1
  0
ATTRIB
  5
437
330
432
100
AcDbEntity
  8
DTM
100
AcDbText
 10
26.50003
 20
1.000033333333333
 30
0.0
 40
0.000005
  1
STANDARD
100
AcDbAttribute
  2
STY1
 70
     1
  0
ATTRIB
  5
438
330
432
100
AcDbEntity
  8
DTM
100
AcDbText
 10
26.50003
 20
1.000041666666667
 30
0.0
 40
0.000005
  1
1.0
100
AcDbAttribute
  2
SCL1
 70
     1
  0
ATTRIB
  5
439
330
432
100
AcDbEntity
  8
DTM
100
AcDbText
 10
26.50003
 20
1.00005
 30
0.0
 40
0.000005
  1
0.0
100
AcDbAttribute
  2
ROT1
 70
     1
  0
ATTRIB
  5
43A
330
432
100
AcDbEntity
  8
DTM
100
AcDbText
 10
26.50003
 20
1.000058333333333
 30
0.0
 40
0.000005
  1
0.125
100
AcDbAttribute
  2
LLS1
 70
     1
  0
ATTRIB
  5
43B
330
432
100
AcDbEntity
  8
DTM
100
AcDbText
 10
26.50003
 20
1.000066666666667
 30
0.0
 40
0.000005
  1
0.0625
100
AcDbAttribute
  2
LLO1
 70
     1
  0
ATTRIB
  5
43C
330
432
100
AcDbEntity
  8
DTM
100
AcDbText
 10
26.50003
 20
1.000075
 30
0.0
 40
0.000005
  1
0.5
100
AcDbAttribute
  2
LLI1
 70
     1
  0
ATTRIB
  5
43D
330
432
100
AcDbEntity
  8
DTM
100
AcDbText
 10
26.5
 20
1.000008333333333
 30
0.0
 40
0.000005
  1
0.0
100
AcDbAttribute
  2
FRM4
 70
     1
  0
ATTRIB
  5
43E
330
432
100
AcDbEntity
  8
DTM
100
AcDbText
 10
26.5
 20
1.000016666666667
 30
0.0
 40
0.000005
  1
0.0
100
AcDbAttribute
  2
FRM3
 70
     1
  0
ATTRIB
  5
43F
330
432
100
AcDbEntity
  8
DTM
100
AcDbText
 10
26.5
 20
1.000025
 30
0.0
 40
0.000005
  1
0.0
100
AcDbAttribute
  2
FRM2
 70
     1
  0
ATTRIB
  5
440
330
432
100
AcDbEntity
  8
DTM
100
AcDbText
 10
26.5
 20
1.000033333333333
 30
0.0
 40
0.000005
  1
0.0
100
AcDbAttribute
  2
FRM1
 70
     1
  0
ATTRIB
  5
441
330
432
100
AcDbEntity
  8
DTM
100
AcDbText
 10
26.5
 20
1.000041666666667
 30
0.0
 40
0.000005
  1
1.0
100
AcDbAttribute
  2
DLF1
 70
     1
  0
ATTRIB
  5
442
330
432
100
AcDbEntity
  8
DTM
100
AcDbText
 10
26.5
 20
1.00005
 30
0.0
 40
0.000005
  1
0.0
100
AcDbAttribute
  2
BSE2
 70
     1
  0
ATTRIB
  5
443
330
432
100
AcDbEntity
  8
DTM
100
AcDbText
 10
26.5
 20
1.000058333333333
 30
0.0
 40
0.000005
  1
0.0
100
AcDbAttribute
  2
BSE1
 70
     1
  0
ATTRIB
  5
444
330
432
100
AcDbEntity
  8
DTM
100
AcDbText
 10
26.5
 20
1.000066666666667
 30
0.0
 40
0.000005
  1
1.0
100
AcDbAttribute
  2
BDR1
 70
     1
  0
ATTRIB
  5
445
330
432
100
AcDbEntity
  8
DTM
100
AcDbText
 10
26.5
 20
1.000075
 30
0.0
 40
0.000005
  1
0.0
100
AcDbAttribute
  2
ABS1
 70
     1
  0
SEQEND
  5
446
330
432
100
AcDbEntity
  8
STP-SHIFT
  0
INSERT
  5
447
330
17
100
AcDbEntity
  8
0
100
AcDbBlockReference
 66
     1
  2
DTM
 10
26.5
 20
14.0
 30
0.0
  0
ATTRIB
  5
448
330
447
100
AcDbEntity
  8
DTM
100
AcDbText
 10
26.5
 20
14.0
 30
0.0
 40
0.000005
  1
DTM
100
AcDbAttribute
  2
LAY1
 70
     1
  0
ATTRIB
  5
449
330
447
100
AcDbEntity
  8
DTM
100
AcDbText
 10
26.50003
 20
14.00000833333333
 30
0.0
 40
0.000005
  1
0.25
100
AcDbAttribute
  2
ZIG1
 70
     1
  0
ATTRIB
  5
44A
330
447
100
AcDbEntity
  8
DTM
100
AcDbText
 10
26.50003
 20
14.00001666666667
 30
0.0
 40
0.000005
  1
0.75
100
AcDbAttribute
  2
ZAG1
 70
     1
  0
ATTRIB
  5
44B
330
447
100
AcDbEntity
  8
DTM
100
AcDbText
 10
26.50003
 20
14.000025
 30
0.0
 40
0.000005
  1
0.125
100
AcDbAttribute
  2
TXT1
 70
     1
  0
ATTRIB
  5
44C
330
447
100
AcDbEntity
  8
DTM
100
AcDbText
 10
26.50003
 20
14.00003333333333
 30
0.0
 40
0.000005
  1
STANDARD
100
AcDbAttribute
  2
STY1
 70
     1
  0
ATTRIB
  5
44D
330
447
100
AcDbEntity
  8
DTM
100
AcDbText
 10
26.50003
 20
14.00004166666667
 30
0.0
 40
0.000005
  1
1.0
100
AcDbAttribute
  2
SCL1
 70
     1
  0
ATTRIB
  5
44E
330
447
100
AcDbEntity
  8
DTM
100
AcDbText
 10
26.50003
 20
14.00005
 30
0.0
 40
0.000005
  1
0.0
100
AcDbAttribute
  2
ROT1
 70
     1
  0
ATTRIB
  5
44F
330
447
100
AcDbEntity
  8
DTM
100
AcDbText
 10
26.50003
 20
14.00005833333333
 30
0.0
 40
0.000005
  1
0.125
100
AcDbAttribute
  2
LLS1
 70
     1
  0
ATTRIB
  5
450
330
447
100
AcDbEntity
  8
DTM
100
AcDbText
 10
26.50003
 20
14.00006666666667
 30
0.0
 40
0.000005
  1
0.0625
100
AcDbAttribute
  2
LLO1
 70
     1
  0
ATTRIB
  5
451
330
447
100
AcDbEntity
  8
DTM
100
AcDbText
 10
26.50003
 20
14.000075
 30
0.0
 40
0.000005
  1
0.5
100
AcDbAttribute
  2
LLI1
 70
     1
  0
ATTRIB
  5
452
330
447
100
AcDbEntity
  8
DTM
100
AcDbText
 10
26.5
 20
14.00000833333333
 30
0.0
 40
0.000005
  1
0.0
100
AcDbAttribute
  2
FRM4
 70
     1
  0
ATTRIB
  5
453
330
447
100
AcDbEntity
  8
DTM
100
AcDbText
 10
26.5
 20
14.00001666666667
 30
0.0
 40
0.000005
  1
0.0
100
AcDbAttribute
  2
FRM3
 70
     1
  0
ATTRIB
  5
454
330
447
100
AcDbEntity
  8
DTM
100
AcDbText
 10
26.5
 20
14.000025
 30
0.0
 40
0.000005
  1
0.0
100
AcDbAttribute
  2
FRM2
 70
     1
  0
ATTRIB
  5
455
330
447
100
AcDbEntity
  8
DTM
100
AcDbText
 10
26.5
 20
14.00003333333333
 30
0.0
 40
0.000005
  1
0.0
100
AcDbAttribute
  2
FRM1
 70
     1
  0
ATTRIB
  5
456
330
447
100
AcDbEntity
  8
DTM
100
AcDbText
 10
26.5
 20
14.00004166666667
 30
0.0
 40
0.000005
  1
1.0
100
AcDbAttribute
  2
DLF1
 70
     1
  0
ATTRIB
  5
457
330
447
100
AcDbEntity
  8
DTM
100
AcDbText
 10
26.5
 20
14.00005
 30
0.0
 40
0.000005
  1
0.0
100
AcDbAttribute
  2
BSE2
 70
     1
  0
ATTRIB
  5
458
330
447
100
AcDbEntity
  8
DTM
100
AcDbText
 10
26.5
 20
14.00005833333333
 30
0.0
 40
0.000005
  1
0.0
100
AcDbAttribute
  2
BSE1
 70
     1
  0
ATTRIB
  5
459
330
447
100
AcDbEntity
  8
DTM
100
AcDbText
 10
26.5
 20
14.00006666666667
 30
0.0
 40
0.000005
  1
1.0
100
AcDbAttribute
  2
BDR1
 70
     1
  0
ATTRIB
  5
45A
330
447
100
AcDbEntity
  8
DTM
100
AcDbText
 10
26.5
 20
14.000075
 30
0.0
 40
0.000005
  1
0.0
100
AcDbAttribute
  2
ABS1
 70
     1
  0
SEQEND
  5
45B
330
447
100
AcDbEntity
  8
0
  0
INSERT
  5
45C
330
17
100
AcDbEntity
  8
0
100
AcDbBlockReference
 66
     1
  2
DTM
 10
26.5
 20
14.0
 30
0.0
  0
ATTRIB
  5
45D
330
45C
100
AcDbEntity
  8
DTM
100
AcDbText
 10
26.5
 20
14.0
 30
0.0
 40
0.000005
  1
DTM
100
AcDbAttribute
  2
LAY1
 70
     1
  0
ATTRIB
  5
45E
330
45C
100
AcDbEntity
  8
DTM
100
AcDbText
 10
26.50003
 20
14.00000833333333
 30
0.0
 40
0.000005
  1
0.25
100
AcDbAttribute
  2
ZIG1
 70
     1
  0
ATTRIB
  5
45F
330
45C
100
AcDbEntity
  8
DTM
100
AcDbText
 10
26.50003
 20
14.00001666666667
 30
0.0
 40
0.000005
  1
0.75
100
AcDbAttribute
  2
ZAG1
 70
     1
  0
ATTRIB
  5
460
330
45C
100
AcDbEntity
  8
DTM
100
AcDbText
 10
26.50003
 20
14.000025
 30
0.0
 40
0.000005
  1
0.125
100
AcDbAttribute
  2
TXT1
 70
     1
  0
ATTRIB
  5
461
330
45C
100
AcDbEntity
  8
DTM
100
AcDbText
 10
26.50003
 20
14.00003333333333
 30
0.0
 40
0.000005
  1
STANDARD
100
AcDbAttribute
  2
STY1
 70
     1
  0
ATTRIB
  5
462
330
45C
100
AcDbEntity
  8
DTM
100
AcDbText
 10
26.50003
 20
14.00004166666667
 30
0.0
 40
0.000005
  1
1.0
100
AcDbAttribute
  2
SCL1
 70
     1
  0
ATTRIB
  5
463
330
45C
100
AcDbEntity
  8
DTM
100
AcDbText
 10
26.50003
 20
14.00005
 30
0.0
 40
0.000005
  1
0.0
100
AcDbAttribute
  2
ROT1
 70
     1
  0
ATTRIB
  5
464
330
45C
100
AcDbEntity
  8
DTM
100
AcDbText
 10
26.50003
 20
14.00005833333333
 30
0.0
 40
0.000005
  1
0.125
100
AcDbAttribute
  2
LLS1
 70
     1
  0
ATTRIB
  5
465
330
45C
100
AcDbEntity
  8
DTM
100
AcDbText
 10
26.50003
 20
14.00006666666667
 30
0.0
 40
0.000005
  1
0.0625
100
AcDbAttribute
  2
LLO1
 70
     1
  0
ATTRIB
  5
466
330
45C
100
AcDbEntity
  8
DTM
100
AcDbText
 10
26.50003
 20
14.000075
 30
0.0
 40
0.000005
  1
0.5
100
AcDbAttribute
  2
LLI1
 70
     1
  0
ATTRIB
  5
467
330
45C
100
AcDbEntity
  8
DTM
100
AcDbText
 10
26.5
 20
14.00000833333333
 30
0.0
 40
0.000005
  1
0.0
100
AcDbAttribute
  2
FRM4
 70
     1
  0
ATTRIB
  5
468
330
45C
100
AcDbEntity
  8
DTM
100
AcDbText
 10
26.5
 20
14.00001666666667
 30
0.0
 40
0.000005
  1
0.0
100
AcDbAttribute
  2
FRM3
 70
     1
  0
ATTRIB
  5
469
330
45C
100
AcDbEntity
  8
DTM
100
AcDbText
 10
26.5
 20
14.000025
 30
0.0
 40
0.000005
  1
0.0
100
AcDbAttribute
  2
FRM2
 70
     1
  0
ATTRIB
  5
46A
330
45C
100
AcDbEntity
  8
DTM
100
AcDbText
 10
26.5
 20
14.00003333333333
 30
0.0
 40
0.000005
  1
0.0
100
AcDbAttribute
  2
FRM1
 70
     1
  0
ATTRIB
  5
46B
330
45C
100
AcDbEntity
  8
DTM
100
AcDbText
 10
26.5
 20
14.00004166666667
 30
0.0
 40
0.000005
  1
1.0
100
AcDbAttribute
  2
DLF1
 70
     1
  0
ATTRIB
  5
46C
330
45C
100
AcDbEntity
  8
DTM
100
AcDbText
 10
26.5
 20
14.00005
 30
0.0
 40
0.000005
  1
0.0
100
AcDbAttribute
  2
BSE2
 70
     1
  0
ATTRIB
  5
46D
330
45C
100
AcDbEntity
  8
DTM
100
AcDbText
 10
26.5
 20
14.00005833333333
 30
0.0
 40
0.000005
  1
0.0
100
AcDbAttribute
  2
BSE1
 70
     1
  0
ATTRIB
  5
46E
330
45C
100
AcDbEntity
  8
DTM
100
AcDbText
 10
26.5
 20
14.00006666666667
 30
0.0
 40
0.000005
  1
1.0
100
AcDbAttribute
  2
BDR1
 70
     1
  0
ATTRIB
  5
46F
330
45C
100
AcDbEntity
  8
DTM
100
AcDbText
 10
26.5
 20
14.000075
 30
0.0
 40
0.000005
  1
0.0
100
AcDbAttribute
  2
ABS1
 70
     1
  0
SEQEND
  5
470
330
45C
100
AcDbEntity
  8
STP-SHIFT
  0
INSERT
  5
471
330
17
100
AcDbEntity
  8
0
100
AcDbBlockReference
 66
     1
  2
DTM
 10
26.5
 20
14.0
 30
0.0
  0
ATTRIB
  5
472
330
471
100
AcDbEntity
  8
DTM
100
AcDbText
 10
26.5
 20
14.0
 30
0.0
 40
0.000005
  1
DTM
100
AcDbAttribute
  2
LAY1
 70
     1
  0
ATTRIB
  5
473
330
471
100
AcDbEntity
  8
DTM
100
AcDbText
 10
26.50003
 20
14.00000833333333
 30
0.0
 40
0.000005
  1
0.25
100
AcDbAttribute
  2
ZIG1
 70
     1
  0
ATTRIB
  5
474
330
471
100
AcDbEntity
  8
DTM
100
AcDbText
 10
26.50003
 20
14.00001666666667
 30
0.0
 40
0.000005
  1
0.75
100
AcDbAttribute
  2
ZAG1
 70
     1
  0
ATTRIB
  5
475
330
471
100
AcDbEntity
  8
DTM
100
AcDbText
 10
26.50003
 20
14.000025
 30
0.0
 40
0.000005
  1
0.125
100
AcDbAttribute
  2
TXT1
 70
     1
  0
ATTRIB
  5
476
330
471
100
AcDbEntity
  8
DTM
100
AcDbText
 10
26.50003
 20
14.00003333333333
 30
0.0
 40
0.000005
  1
STANDARD
100
AcDbAttribute
  2
STY1
 70
     1
  0
ATTRIB
  5
477
330
471
100
AcDbEntity
  8
DTM
100
AcDbText
 10
26.50003
 20
14.00004166666667
 30
0.0
 40
0.000005
  1
1.0
100
AcDbAttribute
  2
SCL1
 70
     1
  0
ATTRIB
  5
478
330
471
100
AcDbEntity
  8
DTM
100
AcDbText
 10
26.50003
 20
14.00005
 30
0.0
 40
0.000005
  1
0.0
100
AcDbAttribute
  2
ROT1
 70
     1
  0
ATTRIB
  5
479
330
471
100
AcDbEntity
  8
DTM
100
AcDbText
 10
26.50003
 20
14.00005833333333
 30
0.0
 40
0.000005
  1
0.125
100
AcDbAttribute
  2
LLS1
 70
     1
  0
ATTRIB
  5
47A
330
471
100
AcDbEntity
  8
DTM
100
AcDbText
 10
26.50003
 20
14.00006666666667
 30
0.0
 40
0.000005
  1
0.0625
100
AcDbAttribute
  2
LLO1
 70
     1
  0
ATTRIB
  5
47B
330
471
100
AcDbEntity
  8
DTM
100
AcDbText
 10
26.50003
 20
14.000075
 30
0.0
 40
0.000005
  1
0.5
100
AcDbAttribute
  2
LLI1
 70
     1
  0
ATTRIB
  5
47C
330
471
100
AcDbEntity
  8
DTM
100
AcDbText
 10
26.5
 20
14.00000833333333
 30
0.0
 40
0.000005
  1
0.0
100
AcDbAttribute
  2
FRM4
 70
     1
  0
ATTRIB
  5
47D
330
471
100
AcDbEntity
  8
DTM
100
AcDbText
 10
26.5
 20
14.00001666666667
 30
0.0
 40
0.000005
  1
0.0
100
AcDbAttribute
  2
FRM3
 70
     1
  0
ATTRIB
  5
47E
330
471
100
AcDbEntity
  8
DTM
100
AcDbText
 10
26.5
 20
14.000025
 30
0.0
 40
0.000005
  1
0.0
100
AcDbAttribute
  2
FRM2
 70
     1
  0
ATTRIB
  5
47F
330
471
100
AcDbEntity
  8
DTM
100
AcDbText
 10
26.5
 20
14.00003333333333
 30
0.0
 40
0.000005
  1
0.0
100
AcDbAttribute
  2
FRM1
 70
     1
  0
ATTRIB
  5
480
330
471
100
AcDbEntity
  8
DTM
100
AcDbText
 10
26.5
 20
14.00004166666667
 30
0.0
 40
0.000005
  1
1.0
100
AcDbAttribute
  2
DLF1
 70
     1
  0
ATTRIB
  5
481
330
471
100
AcDbEntity
  8
DTM
100
AcDbText
 10
26.5
 20
14.00005
 30
0.0
 40
0.000005
  1
0.0
100
AcDbAttribute
  2
BSE2
 70
     1
  0
ATTRIB
  5
482
330
471
100
AcDbEntity
  8
DTM
100
AcDbText
 10
26.5
 20
14.00005833333333
 30
0.0
 40
0.000005
  1
0.0
100
AcDbAttribute
  2
BSE1
 70
     1
  0
ATTRIB
  5
483
330
471
100
AcDbEntity
  8
DTM
100
AcDbText
 10
26.5
 20
14.00006666666667
 30
0.0
 40
0.000005
  1
1.0
100
AcDbAttribute
  2
BDR1
 70
     1
  0
ATTRIB
  5
484
330
471
100
AcDbEntity
  8
DTM
100
AcDbText
 10
26.5
 20
14.000075
 30
0.0
 40
0.000005
  1
0.0
100
AcDbAttribute
  2
ABS1
 70
     1
  0
SEQEND
  5
485
330
471
100
AcDbEntity
  8
0
  0
INSERT
  5
486
330
17
100
AcDbEntity
  8
0
100
AcDbBlockReference
 66
     1
  2
DTM
 10
26.5
 20
14.0
 30
0.0
  0
ATTRIB
  5
487
330
486
100
AcDbEntity
  8
DTM
100
AcDbText
 10
26.5
 20
14.0
 30
0.0
 40
0.000005
  1
DTM
100
AcDbAttribute
  2
LAY1
 70
     1
  0
ATTRIB
  5
488
330
486
100
AcDbEntity
  8
DTM
100
AcDbText
 10
26.50003
 20
14.00000833333333
 30
0.0
 40
0.000005
  1
0.25
100
AcDbAttribute
  2
ZIG1
 70
     1
  0
ATTRIB
  5
489
330
486
100
AcDbEntity
  8
DTM
100
AcDbText
 10
26.50003
 20
14.00001666666667
 30
0.0
 40
0.000005
  1
0.75
100
AcDbAttribute
  2
ZAG1
 70
     1
  0
ATTRIB
  5
48A
330
486
100
AcDbEntity
  8
DTM
100
AcDbText
 10
26.50003
 20
14.000025
 30
0.0
 40
0.000005
  1
0.125
100
AcDbAttribute
  2
TXT1
 70
     1
  0
ATTRIB
  5
48B
330
486
100
AcDbEntity
  8
DTM
100
AcDbText
 10
26.50003
 20
14.00003333333333
 30
0.0
 40
0.000005
  1
STANDARD
100
AcDbAttribute
  2
STY1
 70
     1
  0
ATTRIB
  5
48C
330
486
100
AcDbEntity
  8
DTM
100
AcDbText
 10
26.50003
 20
14.00004166666667
 30
0.0
 40
0.000005
  1
1.0
100
AcDbAttribute
  2
SCL1
 70
     1
  0
ATTRIB
  5
48D
330
486
100
AcDbEntity
  8
DTM
100
AcDbText
 10
26.50003
 20
14.00005
 30
0.0
 40
0.000005
  1
0.0
100
AcDbAttribute
  2
ROT1
 70
     1
  0
ATTRIB
  5
48E
330
486
100
AcDbEntity
  8
DTM
100
AcDbText
 10
26.50003
 20
14.00005833333333
 30
0.0
 40
0.000005
  1
0.125
100
AcDbAttribute
  2
LLS1
 70
     1
  0
ATTRIB
  5
48F
330
486
100
AcDbEntity
  8
DTM
100
AcDbText
 10
26.50003
 20
14.00006666666667
 30
0.0
 40
0.000005
  1
0.0625
100
AcDbAttribute
  2
LLO1
 70
     1
  0
ATTRIB
  5
490
330
486
100
AcDbEntity
  8
DTM
100
AcDbText
 10
26.50003
 20
14.000075
 30
0.0
 40
0.000005
  1
0.5
100
AcDbAttribute
  2
LLI1
 70
     1
  0
ATTRIB
  5
491
330
486
100
AcDbEntity
  8
DTM
100
AcDbText
 10
26.5
 20
14.00000833333333
 30
0.0
 40
0.000005
  1
0.0
100
AcDbAttribute
  2
FRM4
 70
     1
  0
ATTRIB
  5
492
330
486
100
AcDbEntity
  8
DTM
100
AcDbText
 10
26.5
 20
14.00001666666667
 30
0.0
 40
0.000005
  1
0.0
100
AcDbAttribute
  2
FRM3
 70
     1
  0
ATTRIB
  5
493
330
486
100
AcDbEntity
  8
DTM
100
AcDbText
 10
26.5
 20
14.000025
 30
0.0
 40
0.000005
  1
0.0
100
AcDbAttribute
  2
FRM2
 70
     1
  0
ATTRIB
  5
494
330
486
100
AcDbEntity
  8
DTM
100
AcDbText
 10
26.5
 20
14.00003333333333
 30
0.0
 40
0.000005
  1
0.0
100
AcDbAttribute
  2
FRM1
 70
     1
  0
ATTRIB
  5
495
330
486
100
AcDbEntity
  8
DTM
100
AcDbText
 10
26.5
 20
14.00004166666667
 30
0.0
 40
0.000005
  1
1.0
100
AcDbAttribute
  2
DLF1
 70
     1
  0
ATTRIB
  5
496
330
486
100
AcDbEntity
  8
DTM
100
AcDbText
 10
26.5
 20
14.00005
 30
0.0
 40
0.000005
  1
0.0
100
AcDbAttribute
  2
BSE2
 70
     1
  0
ATTRIB
  5
497
330
486
100
AcDbEntity
  8
DTM
100
AcDbText
 10
26.5
 20
14.00005833333333
 30
0.0
 40
0.000005
  1
0.0
100
AcDbAttribute
  2
BSE1
 70
     1
  0
ATTRIB
  5
498
330
486
100
AcDbEntity
  8
DTM
100
AcDbText
 10
26.5
 20
14.00006666666667
 30
0.0
 40
0.000005
  1
1.0
100
AcDbAttribute
  2
BDR1
 70
     1
  0
ATTRIB
  5
499
330
486
100
AcDbEntity
  8
DTM
100
AcDbText
 10
26.5
 20
14.000075
 30
0.0
 40
0.000005
  1
0.0
100
AcDbAttribute
  2
ABS1
 70
     1
  0
SEQEND
  5
49A
330
486
100
AcDbEntity
  8
STP-SHIFT
  0
TEXT
  5
49B
330
17
100
AcDbEntity
  8
0
100
AcDbText
 10
57.0
 20
19.5
 30
0.0
 40
0.25
  1
 
100
AcDbText
  0
INSERT
  5
49C
330
17
100
AcDbEntity
  8
0
100
AcDbBlockReference
 66
     1
  2
DTM
 10
39.01394365893815
 20
35.05336585929186
 30
0.0
  0
ATTRIB
  5
49D
330
49C
100
AcDbEntity
  8
DTM
100
AcDbText
 10
39.01394365893815
 20
35.05336585929186
 30
0.0
 40
0.000005
  1
DTM
100
AcDbAttribute
  2
LAY1
 70
     1
  0
ATTRIB
  5
49E
330
49C
100
AcDbEntity
  8
DTM
100
AcDbText
 10
39.01397365893814
 20
35.05337419262519
 30
0.0
 40
0.000005
  1
0.25
100
AcDbAttribute
  2
ZIG1
 70
     1
  0
ATTRIB
  5
49F
330
49C
100
AcDbEntity
  8
DTM
100
AcDbText
 10
39.01397365893814
 20
35.05338252595853
 30
0.0
 40
0.000005
  1
0.75
100
AcDbAttribute
  2
ZAG1
 70
     1
  0
ATTRIB
  5
4A0
330
49C
100
AcDbEntity
  8
DTM
100
AcDbText
 10
39.01397365893814
 20
35.05339085929186
 30
0.0
 40
0.000005
  1
0.125
100
AcDbAttribute
  2
TXT1
 70
     1
  0
ATTRIB
  5
4A1
330
49C
100
AcDbEntity
  8
DTM
100
AcDbText
 10
39.01397365893814
 20
35.05339919262519
 30
0.0
 40
0.000005
  1
STANDARD
100
AcDbAttribute
  2
STY1
 70
     1
  0
ATTRIB
  5
4A2
330
49C
100
AcDbEntity
  8
DTM
100
AcDbText
 10
39.01397365893814
 20
35.05340752595853
 30
0.0
 40
0.000005
  1
1.0
100
AcDbAttribute
  2
SCL1
 70
     1
  0
ATTRIB
  5
4A3
330
49C
100
AcDbEntity
  8
DTM
100
AcDbText
 10
39.01397365893814
 20
35.05341585929186
 30
0.0
 40
0.000005
  1
0.0
100
AcDbAttribute
  2
ROT1
 70
     1
  0
ATTRIB
  5
4A4
330
49C
100
AcDbEntity
  8
DTM
100
AcDbText
 10
39.01397365893814
 20
35.05342419262519
 30
0.0
 40
0.000005
  1
0.125
100
AcDbAttribute
  2
LLS1
 70
     1
  0
ATTRIB
  5
4A5
330
49C
100
AcDbEntity
  8
DTM
100
AcDbText
 10
39.01397365893814
 20
35.05343252595853
 30
0.0
 40
0.000005
  1
0.0625
100
AcDbAttribute
  2
LLO1
 70
     1
  0
ATTRIB
  5
4A6
330
49C
100
AcDbEntity
  8
DTM
100
AcDbText
 10
39.01397365893814
 20
35.05344085929185
 30
0.0
 40
0.000005
  1
0.5
100
AcDbAttribute
  2
LLI1
 70
     1
  0
ATTRIB
  5
4A7
330
49C
100
AcDbEntity
  8
DTM
100
AcDbText
 10
39.01394365893815
 20
35.05337419262519
 30
0.0
 40
0.000005
  1
0.0
100
AcDbAttribute
  2
FRM4
 70
     1
  0
ATTRIB
  5
4A8
330
49C
100
AcDbEntity
  8
DTM
100
AcDbText
 10
39.01394365893815
 20
35.05338252595853
 30
0.0
 40
0.000005
  1
0.0
100
AcDbAttribute
  2
FRM3
 70
     1
  0
ATTRIB
  5
4A9
330
49C
100
AcDbEntity
  8
DTM
100
AcDbText
 10
39.01394365893815
 20
35.05339085929186
 30
0.0
 40
0.000005
  1
0.0
100
AcDbAttribute
  2
FRM2
 70
     1
  0
ATTRIB
  5
4AA
330
49C
100
AcDbEntity
  8
DTM
100
AcDbText
 10
39.01394365893815
 20
35.05339919262519
 30
0.0
 40
0.000005
  1
0.0
100
AcDbAttribute
  2
FRM1
 70
     1
  0
ATTRIB
  5
4AB
330
49C
100
AcDbEntity
  8
DTM
100
AcDbText
 10
39.01394365893815
 20
35.05340752595853
 30
0.0
 40
0.000005
  1
1.0
100
AcDbAttribute
  2
DLF1
 70
     1
  0
ATTRIB
  5
4AC
330
49C
100
AcDbEntity
  8
DTM
100
AcDbText
 10
39.01394365893815
 20
35.05341585929186
 30
0.0
 40
0.000005
  1
0.0
100
AcDbAttribute
  2
BSE2
 70
     1
  0
ATTRIB
  5
4AD
330
49C
100
AcDbEntity
  8
DTM
100
AcDbText
 10
39.01394365893815
 20
35.05342419262519
 30
0.0
 40
0.000005
  1
0.0
100
AcDbAttribute
  2
BSE1
 70
     1
  0
ATTRIB
  5
4AE
330
49C
100
AcDbEntity
  8
DTM
100
AcDbText
 10
39.01394365893815
 20
35.05343252595853
 30
0.0
 40
0.000005
  1
1.0
100
AcDbAttribute
  2
BDR1
 70
     1
  0
ATTRIB
  5
4AF
330
49C
100
AcDbEntity
  8
DTM
100
AcDbText
 10
39.01394365893815
 20
35.05344085929185
 30
0.0
 40
0.000005
  1
0.0
100
AcDbAttribute
  2
ABS1
 70
     1
  0
SEQEND
  5
4B0
330
49C
100
AcDbEntity
  8
0
  0
INSERT
  5
4B1
330
17
100
AcDbEntity
  8
0
100
AcDbBlockReference
 66
     1
  2
DTM
 10
39.01394365893815
 20
35.05336585929186
 30
0.0
  0
ATTRIB
  5
4B2
330
4B1
100
AcDbEntity
  8
DTM
100
AcDbText
 10
39.01394365893815
 20
35.05336585929186
 30
0.0
 40
0.000005
  1
DTM
100
AcDbAttribute
  2
LAY1
 70
     1
  0
ATTRIB
  5
4B3
330
4B1
100
AcDbEntity
  8
DTM
100
AcDbText
 10
39.01397365893814
 20
35.05337419262519
 30
0.0
 40
0.000005
  1
0.25
100
AcDbAttribute
  2
ZIG1
 70
     1
  0
ATTRIB
  5
4B4
330
4B1
100
AcDbEntity
  8
DTM
100
AcDbText
 10
39.01397365893814
 20
35.05338252595853
 30
0.0
 40
0.000005
  1
0.75
100
AcDbAttribute
  2
ZAG1
 70
     1
  0
ATTRIB
  5
4B5
330
4B1
100
AcDbEntity
  8
DTM
100
AcDbText
 10
39.01397365893814
 20
35.05339085929186
 30
0.0
 40
0.000005
  1
0.125
100
AcDbAttribute
  2
TXT1
 70
     1
  0
ATTRIB
  5
4B6
330
4B1
100
AcDbEntity
  8
DTM
100
AcDbText
 10
39.01397365893814
 20
35.05339919262519
 30
0.0
 40
0.000005
  1
STANDARD
100
AcDbAttribute
  2
STY1
 70
     1
  0
ATTRIB
  5
4B7
330
4B1
100
AcDbEntity
  8
DTM
100
AcDbText
 10
39.01397365893814
 20
35.05340752595853
 30
0.0
 40
0.000005
  1
1.0
100
AcDbAttribute
  2
SCL1
 70
     1
  0
ATTRIB
  5
4B8
330
4B1
100
AcDbEntity
  8
DTM
100
AcDbText
 10
39.01397365893814
 20
35.05341585929186
 30
0.0
 40
0.000005
  1
0.0
100
AcDbAttribute
  2
ROT1
 70
     1
  0
ATTRIB
  5
4B9
330
4B1
100
AcDbEntity
  8
DTM
100
AcDbText
 10
39.01397365893814
 20
35.05342419262519
 30
0.0
 40
0.000005
  1
0.125
100
AcDbAttribute
  2
LLS1
 70
     1
  0
ATTRIB
  5
4BA
330
4B1
100
AcDbEntity
  8
DTM
100
AcDbText
 10
39.01397365893814
 20
35.05343252595853
 30
0.0
 40
0.000005
  1
0.0625
100
AcDbAttribute
  2
LLO1
 70
     1
  0
ATTRIB
  5
4BB
330
4B1
100
AcDbEntity
  8
DTM
100
AcDbText
 10
39.01397365893814
 20
35.05344085929185
 30
0.0
 40
0.000005
  1
0.5
100
AcDbAttribute
  2
LLI1
 70
     1
  0
ATTRIB
  5
4BC
330
4B1
100
AcDbEntity
  8
DTM
100
AcDbText
 10
39.01394365893815
 20
35.05337419262519
 30
0.0
 40
0.000005
  1
0.0
100
AcDbAttribute
  2
FRM4
 70
     1
  0
ATTRIB
  5
4BD
330
4B1
100
AcDbEntity
  8
DTM
100
AcDbText
 10
39.01394365893815
 20
35.05338252595853
 30
0.0
 40
0.000005
  1
0.0
100
AcDbAttribute
  2
FRM3
 70
     1
  0
ATTRIB
  5
4BE
330
4B1
100
AcDbEntity
  8
DTM
100
AcDbText
 10
39.01394365893815
 20
35.05339085929186
 30
0.0
 40
0.000005
  1
0.0
100
AcDbAttribute
  2
FRM2
 70
     1
  0
ATTRIB
  5
4BF
330
4B1
100
AcDbEntity
  8
DTM
100
AcDbText
 10
39.01394365893815
 20
35.05339919262519
 30
0.0
 40
0.000005
  1
0.0
100
AcDbAttribute
  2
FRM1
 70
     1
  0
ATTRIB
  5
4C0
330
4B1
100
AcDbEntity
  8
DTM
100
AcDbText
 10
39.01394365893815
 20
35.05340752595853
 30
0.0
 40
0.000005
  1
1.0
100
AcDbAttribute
  2
DLF1
 70
     1
  0
ATTRIB
  5
4C1
330
4B1
100
AcDbEntity
  8
DTM
100
AcDbText
 10
39.01394365893815
 20
35.05341585929186
 30
0.0
 40
0.000005
  1
0.0
100
AcDbAttribute
  2
BSE2
 70
     1
  0
ATTRIB
  5
4C2
330
4B1
100
AcDbEntity
  8
DTM
100
AcDbText
 10
39.01394365893815
 20
35.05342419262519
 30
0.0
 40
0.000005
  1
0.0
100
AcDbAttribute
  2
BSE1
 70
     1
  0
ATTRIB
  5
4C3
330
4B1
100
AcDbEntity
  8
DTM
100
AcDbText
 10
39.01394365893815
 20
35.05343252595853
 30
0.0
 40
0.000005
  1
1.0
100
AcDbAttribute
  2
BDR1
 70
     1
  0
ATTRIB
  5
4C4
330
4B1
100
AcDbEntity
  8
DTM
100
AcDbText
 10
39.01394365893815
 20
35.05344085929185
 30
0.0
 40
0.000005
  1
0.0
100
AcDbAttribute
  2
ABS1
 70
     1
  0
SEQEND
  5
4C5
330
4B1
100
AcDbEntity
  8
STP-SHIFT
  0
INSERT
  5
4C6
330
17
100
AcDbEntity
  8
0
100
AcDbBlockReference
 66
     1
  2
DTM
 10
44.01394365893815
 20
35.05336585929186
 30
0.0
  0
ATTRIB
  5
4C7
330
4C6
100
AcDbEntity
  8
DTM
100
AcDbText
 10
44.01394365893815
 20
35.05336585929186
 30
0.0
 40
0.000005
  1
DTM
100
AcDbAttribute
  2
LAY1
 70
     1
  0
ATTRIB
  5
4C8
330
4C6
100
AcDbEntity
  8
DTM
100
AcDbText
 10
44.01397365893814
 20
35.05337419262519
 30
0.0
 40
0.000005
  1
0.25
100
AcDbAttribute
  2
ZIG1
 70
     1
  0
ATTRIB
  5
4C9
330
4C6
100
AcDbEntity
  8
DTM
100
AcDbText
 10
44.01397365893814
 20
35.05338252595853
 30
0.0
 40
0.000005
  1
0.75
100
AcDbAttribute
  2
ZAG1
 70
     1
  0
ATTRIB
  5
4CA
330
4C6
100
AcDbEntity
  8
DTM
100
AcDbText
 10
44.01397365893814
 20
35.05339085929186
 30
0.0
 40
0.000005
  1
0.125
100
AcDbAttribute
  2
TXT1
 70
     1
  0
ATTRIB
  5
4CB
330
4C6
100
AcDbEntity
  8
DTM
100
AcDbText
 10
44.01397365893814
 20
35.05339919262519
 30
0.0
 40
0.000005
  1
STANDARD
100
AcDbAttribute
  2
STY1
 70
     1
  0
ATTRIB
  5
4CC
330
4C6
100
AcDbEntity
  8
DTM
100
AcDbText
 10
44.01397365893814
 20
35.05340752595853
 30
0.0
 40
0.000005
  1
1.0
100
AcDbAttribute
  2
SCL1
 70
     1
  0
ATTRIB
  5
4CD
330
4C6
100
AcDbEntity
  8
DTM
100
AcDbText
 10
44.01397365893814
 20
35.05341585929186
 30
0.0
 40
0.000005
  1
0.0
100
AcDbAttribute
  2
ROT1
 70
     1
  0
ATTRIB
  5
4CE
330
4C6
100
AcDbEntity
  8
DTM
100
AcDbText
 10
44.01397365893814
 20
35.05342419262519
 30
0.0
 40
0.000005
  1
0.125
100
AcDbAttribute
  2
LLS1
 70
     1
  0
ATTRIB
  5
4CF
330
4C6
100
AcDbEntity
  8
DTM
100
AcDbText
 10
44.01397365893814
 20
35.05343252595853
 30
0.0
 40
0.000005
  1
0.0625
100
AcDbAttribute
  2
LLO1
 70
     1
  0
ATTRIB
  5
4D0
330
4C6
100
AcDbEntity
  8
DTM
100
AcDbText
 10
44.01397365893814
 20
35.05344085929185
 30
0.0
 40
0.000005
  1
0.5
100
AcDbAttribute
  2
LLI1
 70
     1
  0
ATTRIB
  5
4D1
330
4C6
100
AcDbEntity
  8
DTM
100
AcDbText
 10
44.01394365893815
 20
35.05337419262519
 30
0.0
 40
0.000005
  1
0.0
100
AcDbAttribute
  2
FRM4
 70
     1
  0
ATTRIB
  5
4D2
330
4C6
100
AcDbEntity
  8
DTM
100
AcDbText
 10
44.01394365893815
 20
35.05338252595853
 30
0.0
 40
0.000005
  1
0.0
100
AcDbAttribute
  2
FRM3
 70
     1
  0
ATTRIB
  5
4D3
330
4C6
100
AcDbEntity
  8
DTM
100
AcDbText
 10
44.01394365893815
 20
35.05339085929186
 30
0.0
 40
0.000005
  1
0.0
100
AcDbAttribute
  2
FRM2
 70
     1
  0
ATTRIB
  5
4D4
330
4C6
100
AcDbEntity
  8
DTM
100
AcDbText
 10
44.01394365893815
 20
35.05339919262519
 30
0.0
 40
0.000005
  1
0.0
100
AcDbAttribute
  2
FRM1
 70
     1
  0
ATTRIB
  5
4D5
330
4C6
100
AcDbEntity
  8
DTM
100
AcDbText
 10
44.01394365893815
 20
35.05340752595853
 30
0.0
 40
0.000005
  1
1.0
100
AcDbAttribute
  2
DLF1
 70
     1
  0
ATTRIB
  5
4D6
330
4C6
100
AcDbEntity
  8
DTM
100
AcDbText
 10
44.01394365893815
 20
35.05341585929186
 30
0.0
 40
0.000005
  1
0.0
100
AcDbAttribute
  2
BSE2
 70
     1
  0
ATTRIB
  5
4D7
330
4C6
100
AcDbEntity
  8
DTM
100
AcDbText
 10
44.01394365893815
 20
35.05342419262519
 30
0.0
 40
0.000005
  1
0.0
100
AcDbAttribute
  2
BSE1
 70
     1
  0
ATTRIB
  5
4D8
330
4C6
100
AcDbEntity
  8
DTM
100
AcDbText
 10
44.01394365893815
 20
35.05343252595853
 30
0.0
 40
0.000005
  1
1.0
100
AcDbAttribute
  2
BDR1
 70
     1
  0
ATTRIB
  5
4D9
330
4C6
100
AcDbEntity
  8
DTM
100
AcDbText
 10
44.01394365893815
 20
35.05344085929185
 30
0.0
 40
0.000005
  1
0.0
100
AcDbAttribute
  2
ABS1
 70
     1
  0
SEQEND
  5
4DA
330
4C6
100
AcDbEntity
  8
0
  0
INSERT
  5
4DB
330
17
100
AcDbEntity
  8
0
100
AcDbBlockReference
 66
     1
  2
DTM
 10
44.01394365893815
 20
35.05336585929186
 30
0.0
  0
ATTRIB
  5
4DC
330
4DB
100
AcDbEntity
  8
DTM
100
AcDbText
 10
44.01394365893815
 20
35.05336585929186
 30
0.0
 40
0.000005
  1
DTM
100
AcDbAttribute
  2
LAY1
 70
     1
  0
ATTRIB
  5
4DD
330
4DB
100
AcDbEntity
  8
DTM
100
AcDbText
 10
44.01397365893814
 20
35.05337419262519
 30
0.0
 40
0.000005
  1
0.25
100
AcDbAttribute
  2
ZIG1
 70
     1
  0
ATTRIB
  5
4DE
330
4DB
100
AcDbEntity
  8
DTM
100
AcDbText
 10
44.01397365893814
 20
35.05338252595853
 30
0.0
 40
0.000005
  1
0.75
100
AcDbAttribute
  2
ZAG1
 70
     1
  0
ATTRIB
  5
4DF
330
4DB
100
AcDbEntity
  8
DTM
100
AcDbText
 10
44.01397365893814
 20
35.05339085929186
 30
0.0
 40
0.000005
  1
0.125
100
AcDbAttribute
  2
TXT1
 70
     1
  0
ATTRIB
  5
4E0
330
4DB
100
AcDbEntity
  8
DTM
100
AcDbText
 10
44.01397365893814
 20
35.05339919262519
 30
0.0
 40
0.000005
  1
STANDARD
100
AcDbAttribute
  2
STY1
 70
     1
  0
ATTRIB
  5
4E1
330
4DB
100
AcDbEntity
  8
DTM
100
AcDbText
 10
44.01397365893814
 20
35.05340752595853
 30
0.0
 40
0.000005
  1
1.0
100
AcDbAttribute
  2
SCL1
 70
     1
  0
ATTRIB
  5
4E2
330
4DB
100
AcDbEntity
  8
DTM
100
AcDbText
 10
44.01397365893814
 20
35.05341585929186
 30
0.0
 40
0.000005
  1
0.0
100
AcDbAttribute
  2
ROT1
 70
     1
  0
ATTRIB
  5
4E3
330
4DB
100
AcDbEntity
  8
DTM
100
AcDbText
 10
44.01397365893814
 20
35.05342419262519
 30
0.0
 40
0.000005
  1
0.125
100
AcDbAttribute
  2
LLS1
 70
     1
  0
ATTRIB
  5
4E4
330
4DB
100
AcDbEntity
  8
DTM
100
AcDbText
 10
44.01397365893814
 20
35.05343252595853
 30
0.0
 40
0.000005
  1
0.0625
100
AcDbAttribute
  2
LLO1
 70
     1
  0
ATTRIB
  5
4E5
330
4DB
100
AcDbEntity
  8
DTM
100
AcDbText
 10
44.01397365893814
 20
35.05344085929185
 30
0.0
 40
0.000005
  1
0.5
100
AcDbAttribute
  2
LLI1
 70
     1
  0
ATTRIB
  5
4E6
330
4DB
100
AcDbEntity
  8
DTM
100
AcDbText
 10
44.01394365893815
 20
35.05337419262519
 30
0.0
 40
0.000005
  1
0.0
100
AcDbAttribute
  2
FRM4
 70
     1
  0
ATTRIB
  5
4E7
330
4DB
100
AcDbEntity
  8
DTM
100
AcDbText
 10
44.01394365893815
 20
35.05338252595853
 30
0.0
 40
0.000005
  1
0.0
100
AcDbAttribute
  2
FRM3
 70
     1
  0
ATTRIB
  5
4E8
330
4DB
100
AcDbEntity
  8
DTM
100
AcDbText
 10
44.01394365893815
 20
35.05339085929186
 30
0.0
 40
0.000005
  1
0.0
100
AcDbAttribute
  2
FRM2
 70
     1
  0
ATTRIB
  5
4E9
330
4DB
100
AcDbEntity
  8
DTM
100
AcDbText
 10
44.01394365893815
 20
35.05339919262519
 30
0.0
 40
0.000005
  1
0.0
100
AcDbAttribute
  2
FRM1
 70
     1
  0
ATTRIB
  5
4EA
330
4DB
100
AcDbEntity
  8
DTM
100
AcDbText
 10
44.01394365893815
 20
35.05340752595853
 30
0.0
 40
0.000005
  1
1.0
100
AcDbAttribute
  2
DLF1
 70
     1
  0
ATTRIB
  5
4EB
330
4DB
100
AcDbEntity
  8
DTM
100
AcDbText
 10
44.01394365893815
 20
35.05341585929186
 30
0.0
 40
0.000005
  1
0.0
100
AcDbAttribute
  2
BSE2
 70
     1
  0
ATTRIB
  5
4EC
330
4DB
100
AcDbEntity
  8
DTM
100
AcDbText
 10
44.01394365893815
 20
35.05342419262519
 30
0.0
 40
0.000005
  1
0.0
100
AcDbAttribute
  2
BSE1
 70
     1
  0
ATTRIB
  5
4ED
330
4DB
100
AcDbEntity
  8
DTM
100
AcDbText
 10
44.01394365893815
 20
35.05343252595853
 30
0.0
 40
0.000005
  1
1.0
100
AcDbAttribute
  2
BDR1
 70
     1
  0
ATTRIB
  5
4EE
330
4DB
100
AcDbEntity
  8
DTM
100
AcDbText
 10
44.01394365893815
 20
35.05344085929185
 30
0.0
 40
0.000005
  1
0.0
100
AcDbAttribute
  2
ABS1
 70
     1
  0
SEQEND
  5
4EF
330
4DB
100
AcDbEntity
  8
STP-SHIFT
  0
INSERT
  5
4F0
330
17
100
AcDbEntity
  8
0
100
AcDbBlockReference
 66
     1
  2
DTM
 10
44.01394365893815
 20
35.05336585929186
 30
0.0
  0
ATTRIB
  5
4F1
330
4F0
100
AcDbEntity
  8
DTM
100
AcDbText
 10
44.01394365893815
 20
35.05336585929186
 30
0.0
 40
0.000005
  1
DTM
100
AcDbAttribute
  2
LAY1
 70
     1
  0
ATTRIB
  5
4F2
330
4F0
100
AcDbEntity
  8
DTM
100
AcDbText
 10
44.01397365893814
 20
35.05337419262519
 30
0.0
 40
0.000005
  1
0.25
100
AcDbAttribute
  2
ZIG1
 70
     1
  0
ATTRIB
  5
4F3
330
4F0
100
AcDbEntity
  8
DTM
100
AcDbText
 10
44.01397365893814
 20
35.05338252595853
 30
0.0
 40
0.000005
  1
0.75
100
AcDbAttribute
  2
ZAG1
 70
     1
  0
ATTRIB
  5
4F4
330
4F0
100
AcDbEntity
  8
DTM
100
AcDbText
 10
44.01397365893814
 20
35.05339085929186
 30
0.0
 40
0.000005
  1
0.125
100
AcDbAttribute
  2
TXT1
 70
     1
  0
ATTRIB
  5
4F5
330
4F0
100
AcDbEntity
  8
DTM
100
AcDbText
 10
44.01397365893814
 20
35.05339919262519
 30
0.0
 40
0.000005
  1
STANDARD
100
AcDbAttribute
  2
STY1
 70
     1
  0
ATTRIB
  5
4F6
330
4F0
100
AcDbEntity
  8
DTM
100
AcDbText
 10
44.01397365893814
 20
35.05340752595853
 30
0.0
 40
0.000005
  1
1.0
100
AcDbAttribute
  2
SCL1
 70
     1
  0
ATTRIB
  5
4F7
330
4F0
100
AcDbEntity
  8
DTM
100
AcDbText
 10
44.01397365893814
 20
35.05341585929186
 30
0.0
 40
0.000005
  1
0.0
100
AcDbAttribute
  2
ROT1
 70
     1
  0
ATTRIB
  5
4F8
330
4F0
100
AcDbEntity
  8
DTM
100
AcDbText
 10
44.01397365893814
 20
35.05342419262519
 30
0.0
 40
0.000005
  1
0.125
100
AcDbAttribute
  2
LLS1
 70
     1
  0
ATTRIB
  5
4F9
330
4F0
100
AcDbEntity
  8
DTM
100
AcDbText
 10
44.01397365893814
 20
35.05343252595853
 30
0.0
 40
0.000005
  1
0.0625
100
AcDbAttribute
  2
LLO1
 70
     1
  0
ATTRIB
  5
4FA
330
4F0
100
AcDbEntity
  8
DTM
100
AcDbText
 10
44.01397365893814
 20
35.05344085929185
 30
0.0
 40
0.000005
  1
0.5
100
AcDbAttribute
  2
LLI1
 70
     1
  0
ATTRIB
  5
4FB
330
4F0
100
AcDbEntity
  8
DTM
100
AcDbText
 10
44.01394365893815
 20
35.05337419262519
 30
0.0
 40
0.000005
  1
0.0
100
AcDbAttribute
  2
FRM4
 70
     1
  0
ATTRIB
  5
4FC
330
4F0
100
AcDbEntity
  8
DTM
100
AcDbText
 10
44.01394365893815
 20
35.05338252595853
 30
0.0
 40
0.000005
  1
0.0
100
AcDbAttribute
  2
FRM3
 70
     1
  0
ATTRIB
  5
4FD
330
4F0
100
AcDbEntity
  8
DTM
100
AcDbText
 10
44.01394365893815
 20
35.05339085929186
 30
0.0
 40
0.000005
  1
0.0
100
AcDbAttribute
  2
FRM2
 70
     1
  0
ATTRIB
  5
4FE
330
4F0
100
AcDbEntity
  8
DTM
100
AcDbText
 10
44.01394365893815
 20
35.05339919262519
 30
0.0
 40
0.000005
  1
0.0
100
AcDbAttribute
  2
FRM1
 70
     1
  0
ATTRIB
  5
4FF
330
4F0
100
AcDbEntity
  8
DTM
100
AcDbText
 10
44.01394365893815
 20
35.05340752595853
 30
0.0
 40
0.000005
  1
1.0
100
AcDbAttribute
  2
DLF1
 70
     1
  0
ATTRIB
  5
500
330
4F0
100
AcDbEntity
  8
DTM
100
AcDbText
 10
44.01394365893815
 20
35.05341585929186
 30
0.0
 40
0.000005
  1
0.0
100
AcDbAttribute
  2
BSE2
 70
     1
  0
ATTRIB
  5
501
330
4F0
100
AcDbEntity
  8
DTM
100
AcDbText
 10
44.01394365893815
 20
35.05342419262519
 30
0.0
 40
0.000005
  1
0.0
100
AcDbAttribute
  2
BSE1
 70
     1
  0
ATTRIB
  5
502
330
4F0
100
AcDbEntity
  8
DTM
100
AcDbText
 10
44.01394365893815
 20
35.05343252595853
 30
0.0
 40
0.000005
  1
1.0
100
AcDbAttribute
  2
BDR1
 70
     1
  0
ATTRIB
  5
503
330
4F0
100
AcDbEntity
  8
DTM
100
AcDbText
 10
44.01394365893815
 20
35.05344085929185
 30
0.0
 40
0.000005
  1
0.0
100
AcDbAttribute
  2
ABS1
 70
     1
  0
SEQEND
  5
504
330
4F0
100
AcDbEntity
  8
0
  0
INSERT
  5
505
330
17
100
AcDbEntity
  8
0
100
AcDbBlockReference
 66
     1
  2
DTM
 10
44.01394365893815
 20
35.05336585929186
 30
0.0
  0
ATTRIB
  5
506
330
505
100
AcDbEntity
  8
DTM
100
AcDbText
 10
44.01394365893815
 20
35.05336585929186
 30
0.0
 40
0.000005
  1
DTM
100
AcDbAttribute
  2
LAY1
 70
     1
  0
ATTRIB
  5
507
330
505
100
AcDbEntity
  8
DTM
100
AcDbText
 10
44.01397365893814
 20
35.05337419262519
 30
0.0
 40
0.000005
  1
0.25
100
AcDbAttribute
  2
ZIG1
 70
     1
  0
ATTRIB
  5
508
330
505
100
AcDbEntity
  8
DTM
100
AcDbText
 10
44.01397365893814
 20
35.05338252595853
 30
0.0
 40
0.000005
  1
0.75
100
AcDbAttribute
  2
ZAG1
 70
     1
  0
ATTRIB
  5
509
330
505
100
AcDbEntity
  8
DTM
100
AcDbText
 10
44.01397365893814
 20
35.05339085929186
 30
0.0
 40
0.000005
  1
0.125
100
AcDbAttribute
  2
TXT1
 70
     1
  0
ATTRIB
  5
50A
330
505
100
AcDbEntity
  8
DTM
100
AcDbText
 10
44.01397365893814
 20
35.05339919262519
 30
0.0
 40
0.000005
  1
STANDARD
100
AcDbAttribute
  2
STY1
 70
     1
  0
ATTRIB
  5
50B
330
505
100
AcDbEntity
  8
DTM
100
AcDbText
 10
44.01397365893814
 20
35.05340752595853
 30
0.0
 40
0.000005
  1
1.0
100
AcDbAttribute
  2
SCL1
 70
     1
  0
ATTRIB
  5
50C
330
505
100
AcDbEntity
  8
DTM
100
AcDbText
 10
44.01397365893814
 20
35.05341585929186
 30
0.0
 40
0.000005
  1
0.0
100
AcDbAttribute
  2
ROT1
 70
     1
  0
ATTRIB
  5
50D
330
505
100
AcDbEntity
  8
DTM
100
AcDbText
 10
44.01397365893814
 20
35.05342419262519
 30
0.0
 40
0.000005
  1
0.125
100
AcDbAttribute
  2
LLS1
 70
     1
  0
ATTRIB
  5
50E
330
505
100
AcDbEntity
  8
DTM
100
AcDbText
 10
44.01397365893814
 20
35.05343252595853
 30
0.0
 40
0.000005
  1
0.0625
100
AcDbAttribute
  2
LLO1
 70
     1
  0
ATTRIB
  5
50F
330
505
100
AcDbEntity
  8
DTM
100
AcDbText
 10
44.01397365893814
 20
35.05344085929185
 30
0.0
 40
0.000005
  1
0.5
100
AcDbAttribute
  2
LLI1
 70
     1
  0
ATTRIB
  5
510
330
505
100
AcDbEntity
  8
DTM
100
AcDbText
 10
44.01394365893815
 20
35.05337419262519
 30
0.0
 40
0.000005
  1
0.0
100
AcDbAttribute
  2
FRM4
 70
     1
  0
ATTRIB
  5
511
330
505
100
AcDbEntity
  8
DTM
100
AcDbText
 10
44.01394365893815
 20
35.05338252595853
 30
0.0
 40
0.000005
  1
0.0
100
AcDbAttribute
  2
FRM3
 70
     1
  0
ATTRIB
  5
512
330
505
100
AcDbEntity
  8
DTM
100
AcDbText
 10
44.01394365893815
 20
35.05339085929186
 30
0.0
 40
0.000005
  1
0.0
100
AcDbAttribute
  2
FRM2
 70
     1
  0
ATTRIB
  5
513
330
505
100
AcDbEntity
  8
DTM
100
AcDbText
 10
44.01394365893815
 20
35.05339919262519
 30
0.0
 40
0.000005
  1
0.0
100
AcDbAttribute
  2
FRM1
 70
     1
  0
ATTRIB
  5
514
330
505
100
AcDbEntity
  8
DTM
100
AcDbText
 10
44.01394365893815
 20
35.05340752595853
 30
0.0
 40
0.000005
  1
1.0
100
AcDbAttribute
  2
DLF1
 70
     1
  0
ATTRIB
  5
515
330
505
100
AcDbEntity
  8
DTM
100
AcDbText
 10
44.01394365893815
 20
35.05341585929186
 30
0.0
 40
0.000005
  1
0.0
100
AcDbAttribute
  2
BSE2
 70
     1
  0
ATTRIB
  5
516
330
505
100
AcDbEntity
  8
DTM
100
AcDbText
 10
44.01394365893815
 20
35.05342419262519
 30
0.0
 40
0.000005
  1
0.0
100
AcDbAttribute
  2
BSE1
 70
     1
  0
ATTRIB
  5
517
330
505
100
AcDbEntity
  8
DTM
100
AcDbText
 10
44.01394365893815
 20
35.05343252595853
 30
0.0
 40
0.000005
  1
1.0
100
AcDbAttribute
  2
BDR1
 70
     1
  0
ATTRIB
  5
518
330
505
100
AcDbEntity
  8
DTM
100
AcDbText
 10
44.01394365893815
 20
35.05344085929185
 30
0.0
 40
0.000005
  1
0.0
100
AcDbAttribute
  2
ABS1
 70
     1
  0
SEQEND
  5
519
330
505
100
AcDbEntity
  8
STP-SHIFT
  0
INSERT
  5
51A
330
17
100
AcDbEntity
  8
0
100
AcDbBlockReference
 66
     1
  2
DTM
 10
39.01394365893815
 20
35.05336585929186
 30
0.0
  0
ATTRIB
  5
51B
330
51A
100
AcDbEntity
  8
DTM
100
AcDbText
 10
39.01394365893815
 20
35.05336585929186
 30
0.0
 40
0.000005
  1
DTM
100
AcDbAttribute
  2
LAY1
 70
     1
  0
ATTRIB
  5
51C
330
51A
100
AcDbEntity
  8
DTM
100
AcDbText
 10
39.01397365893814
 20
35.05337419262519
 30
0.0
 40
0.000005
  1
0.25
100
AcDbAttribute
  2
ZIG1
 70
     1
  0
ATTRIB
  5
51D
330
51A
100
AcDbEntity
  8
DTM
100
AcDbText
 10
39.01397365893814
 20
35.05338252595853
 30
0.0
 40
0.000005
  1
0.75
100
AcDbAttribute
  2
ZAG1
 70
     1
  0
ATTRIB
  5
51E
330
51A
100
AcDbEntity
  8
DTM
100
AcDbText
 10
39.01397365893814
 20
35.05339085929186
 30
0.0
 40
0.000005
  1
0.125
100
AcDbAttribute
  2
TXT1
 70
     1
  0
ATTRIB
  5
51F
330
51A
100
AcDbEntity
  8
DTM
100
AcDbText
 10
39.01397365893814
 20
35.05339919262519
 30
0.0
 40
0.000005
  1
STANDARD
100
AcDbAttribute
  2
STY1
 70
     1
  0
ATTRIB
  5
520
330
51A
100
AcDbEntity
  8
DTM
100
AcDbText
 10
39.01397365893814
 20
35.05340752595853
 30
0.0
 40
0.000005
  1
1.0
100
AcDbAttribute
  2
SCL1
 70
     1
  0
ATTRIB
  5
521
330
51A
100
AcDbEntity
  8
DTM
100
AcDbText
 10
39.01397365893814
 20
35.05341585929186
 30
0.0
 40
0.000005
  1
0.0
100
AcDbAttribute
  2
ROT1
 70
     1
  0
ATTRIB
  5
522
330
51A
100
AcDbEntity
  8
DTM
100
AcDbText
 10
39.01397365893814
 20
35.05342419262519
 30
0.0
 40
0.000005
  1
0.125
100
AcDbAttribute
  2
LLS1
 70
     1
  0
ATTRIB
  5
523
330
51A
100
AcDbEntity
  8
DTM
100
AcDbText
 10
39.01397365893814
 20
35.05343252595853
 30
0.0
 40
0.000005
  1
0.0625
100
AcDbAttribute
  2
LLO1
 70
     1
  0
ATTRIB
  5
524
330
51A
100
AcDbEntity
  8
DTM
100
AcDbText
 10
39.01397365893814
 20
35.05344085929185
 30
0.0
 40
0.000005
  1
0.5
100
AcDbAttribute
  2
LLI1
 70
     1
  0
ATTRIB
  5
525
330
51A
100
AcDbEntity
  8
DTM
100
AcDbText
 10
39.01394365893815
 20
35.05337419262519
 30
0.0
 40
0.000005
  1
0.0
100
AcDbAttribute
  2
FRM4
 70
     1
  0
ATTRIB
  5
526
330
51A
100
AcDbEntity
  8
DTM
100
AcDbText
 10
39.01394365893815
 20
35.05338252595853
 30
0.0
 40
0.000005
  1
0.0
100
AcDbAttribute
  2
FRM3
 70
     1
  0
ATTRIB
  5
527
330
51A
100
AcDbEntity
  8
DTM
100
AcDbText
 10
39.01394365893815
 20
35.05339085929186
 30
0.0
 40
0.000005
  1
0.0
100
AcDbAttribute
  2
FRM2
 70
     1
  0
ATTRIB
  5
528
330
51A
100
AcDbEntity
  8
DTM
100
AcDbText
 10
39.01394365893815
 20
35.05339919262519
 30
0.0
 40
0.000005
  1
0.0
100
AcDbAttribute
  2
FRM1
 70
     1
  0
ATTRIB
  5
529
330
51A
100
AcDbEntity
  8
DTM
100
AcDbText
 10
39.01394365893815
 20
35.05340752595853
 30
0.0
 40
0.000005
  1
1.0
100
AcDbAttribute
  2
DLF1
 70
     1
  0
ATTRIB
  5
52A
330
51A
100
AcDbEntity
  8
DTM
100
AcDbText
 10
39.01394365893815
 20
35.05341585929186
 30
0.0
 40
0.000005
  1
0.0
100
AcDbAttribute
  2
BSE2
 70
     1
  0
ATTRIB
  5
52B
330
51A
100
AcDbEntity
  8
DTM
100
AcDbText
 10
39.01394365893815
 20
35.05342419262519
 30
0.0
 40
0.000005
  1
0.0
100
AcDbAttribute
  2
BSE1
 70
     1
  0
ATTRIB
  5
52C
330
51A
100
AcDbEntity
  8
DTM
100
AcDbText
 10
39.01394365893815
 20
35.05343252595853
 30
0.0
 40
0.000005
  1
1.0
100
AcDbAttribute
  2
BDR1
 70
     1
  0
ATTRIB
  5
52D
330
51A
100
AcDbEntity
  8
DTM
100
AcDbText
 10
39.01394365893815
 20
35.05344085929185
 30
0.0
 40
0.000005
  1
0.0
100
AcDbAttribute
  2
ABS1
 70
     1
  0
SEQEND
  5
52E
330
51A
100
AcDbEntity
  8
0
  0
INSERT
  5
52F
330
17
100
AcDbEntity
  8
0
100
AcDbBlockReference
 66
     1
  2
DTM
 10
39.01394365893815
 20
35.05336585929186
 30
0.0
  0
ATTRIB
  5
530
330
52F
100
AcDbEntity
  8
DTM
100
AcDbText
 10
39.01394365893815
 20
35.05336585929186
 30
0.0
 40
0.000005
  1
DTM
100
AcDbAttribute
  2
LAY1
 70
     1
  0
ATTRIB
  5
531
330
52F
100
AcDbEntity
  8
DTM
100
AcDbText
 10
39.01397365893814
 20
35.05337419262519
 30
0.0
 40
0.000005
  1
0.25
100
AcDbAttribute
  2
ZIG1
 70
     1
  0
ATTRIB
  5
532
330
52F
100
AcDbEntity
  8
DTM
100
AcDbText
 10
39.01397365893814
 20
35.05338252595853
 30
0.0
 40
0.000005
  1
0.75
100
AcDbAttribute
  2
ZAG1
 70
     1
  0
ATTRIB
  5
533
330
52F
100
AcDbEntity
  8
DTM
100
AcDbText
 10
39.01397365893814
 20
35.05339085929186
 30
0.0
 40
0.000005
  1
0.125
100
AcDbAttribute
  2
TXT1
 70
     1
  0
ATTRIB
  5
534
330
52F
100
AcDbEntity
  8
DTM
100
AcDbText
 10
39.01397365893814
 20
35.05339919262519
 30
0.0
 40
0.000005
  1
STANDARD
100
AcDbAttribute
  2
STY1
 70
     1
  0
ATTRIB
  5
535
330
52F
100
AcDbEntity
  8
DTM
100
AcDbText
 10
39.01397365893814
 20
35.05340752595853
 30
0.0
 40
0.000005
  1
1.0
100
AcDbAttribute
  2
SCL1
 70
     1
  0
ATTRIB
  5
536
330
52F
100
AcDbEntity
  8
DTM
100
AcDbText
 10
39.01397365893814
 20
35.05341585929186
 30
0.0
 40
0.000005
  1
0.0
100
AcDbAttribute
  2
ROT1
 70
     1
  0
ATTRIB
  5
537
330
52F
100
AcDbEntity
  8
DTM
100
AcDbText
 10
39.01397365893814
 20
35.05342419262519
 30
0.0
 40
0.000005
  1
0.125
100
AcDbAttribute
  2
LLS1
 70
     1
  0
ATTRIB
  5
538
330
52F
100
AcDbEntity
  8
DTM
100
AcDbText
 10
39.01397365893814
 20
35.05343252595853
 30
0.0
 40
0.000005
  1
0.0625
100
AcDbAttribute
  2
LLO1
 70
     1
  0
ATTRIB
  5
539
330
52F
100
AcDbEntity
  8
DTM
100
AcDbText
 10
39.01397365893814
 20
35.05344085929185
 30
0.0
 40
0.000005
  1
0.5
100
AcDbAttribute
  2
LLI1
 70
     1
  0
ATTRIB
  5
53A
330
52F
100
AcDbEntity
  8
DTM
100
AcDbText
 10
39.01394365893815
 20
35.05337419262519
 30
0.0
 40
0.000005
  1
0.0
100
AcDbAttribute
  2
FRM4
 70
     1
  0
ATTRIB
  5
53B
330
52F
100
AcDbEntity
  8
DTM
100
AcDbText
 10
39.01394365893815
 20
35.05338252595853
 30
0.0
 40
0.000005
  1
0.0
100
AcDbAttribute
  2
FRM3
 70
     1
  0
ATTRIB
  5
53C
330
52F
100
AcDbEntity
  8
DTM
100
AcDbText
 10
39.01394365893815
 20
35.05339085929186
 30
0.0
 40
0.000005
  1
0.0
100
AcDbAttribute
  2
FRM2
 70
     1
  0
ATTRIB
  5
53D
330
52F
100
AcDbEntity
  8
DTM
100
AcDbText
 10
39.01394365893815
 20
35.05339919262519
 30
0.0
 40
0.000005
  1
0.0
100
AcDbAttribute
  2
FRM1
 70
     1
  0
ATTRIB
  5
53E
330
52F
100
AcDbEntity
  8
DTM
100
AcDbText
 10
39.01394365893815
 20
35.05340752595853
 30
0.0
 40
0.000005
  1
1.0
100
AcDbAttribute
  2
DLF1
 70
     1
  0
ATTRIB
  5
53F
330
52F
100
AcDbEntity
  8
DTM
100
AcDbText
 10
39.01394365893815
 20
35.05341585929186
 30
0.0
 40
0.000005
  1
0.0
100
AcDbAttribute
  2
BSE2
 70
     1
  0
ATTRIB
  5
540
330
52F
100
AcDbEntity
  8
DTM
100
AcDbText
 10
39.01394365893815
 20
35.05342419262519
 30
0.0
 40
0.000005
  1
0.0
100
AcDbAttribute
  2
BSE1
 70
     1
  0
ATTRIB
  5
541
330
52F
100
AcDbEntity
  8
DTM
100
AcDbText
 10
39.01394365893815
 20
35.05343252595853
 30
0.0
 40
0.000005
  1
1.0
100
AcDbAttribute
  2
BDR1
 70
     1
  0
ATTRIB
  5
542
330
52F
100
AcDbEntity
  8
DTM
100
AcDbText
 10
39.01394365893815
 20
35.05344085929185
 30
0.0
 40
0.000005
  1
0.0
100
AcDbAttribute
  2
ABS1
 70
     1
  0
SEQEND
  5
543
330
52F
100
AcDbEntity
  8
STP-SHIFT
  0
INSERT
  5
544
330
17
100
AcDbEntity
  8
0
100
AcDbBlockReference
 66
     1
  2
DTM
 10
39.01394365893815
 20
35.05336585929186
 30
0.0
  0
ATTRIB
  5
545
330
544
100
AcDbEntity
  8
DTM
100
AcDbText
 10
39.01394365893815
 20
35.05336585929186
 30
0.0
 40
0.000005
  1
DTM
100
AcDbAttribute
  2
LAY1
 70
     1
  0
ATTRIB
  5
546
330
544
100
AcDbEntity
  8
DTM
100
AcDbText
 10
39.01397365893814
 20
35.05337419262519
 30
0.0
 40
0.000005
  1
0.25
100
AcDbAttribute
  2
ZIG1
 70
     1
  0
ATTRIB
  5
547
330
544
100
AcDbEntity
  8
DTM
100
AcDbText
 10
39.01397365893814
 20
35.05338252595853
 30
0.0
 40
0.000005
  1
0.75
100
AcDbAttribute
  2
ZAG1
 70
     1
  0
ATTRIB
  5
548
330
544
100
AcDbEntity
  8
DTM
100
AcDbText
 10
39.01397365893814
 20
35.05339085929186
 30
0.0
 40
0.000005
  1
0.125
100
AcDbAttribute
  2
TXT1
 70
     1
  0
ATTRIB
  5
549
330
544
100
AcDbEntity
  8
DTM
100
AcDbText
 10
39.01397365893814
 20
35.05339919262519
 30
0.0
 40
0.000005
  1
STANDARD
100
AcDbAttribute
  2
STY1
 70
     1
  0
ATTRIB
  5
54A
330
544
100
AcDbEntity
  8
DTM
100
AcDbText
 10
39.01397365893814
 20
35.05340752595853
 30
0.0
 40
0.000005
  1
1.0
100
AcDbAttribute
  2
SCL1
 70
     1
  0
ATTRIB
  5
54B
330
544
100
AcDbEntity
  8
DTM
100
AcDbText
 10
39.01397365893814
 20
35.05341585929186
 30
0.0
 40
0.000005
  1
0.0
100
AcDbAttribute
  2
ROT1
 70
     1
  0
ATTRIB
  5
54C
330
544
100
AcDbEntity
  8
DTM
100
AcDbText
 10
39.01397365893814
 20
35.05342419262519
 30
0.0
 40
0.000005
  1
0.125
100
AcDbAttribute
  2
LLS1
 70
     1
  0
ATTRIB
  5
54D
330
544
100
AcDbEntity
  8
DTM
100
AcDbText
 10
39.01397365893814
 20
35.05343252595853
 30
0.0
 40
0.000005
  1
0.0625
100
AcDbAttribute
  2
LLO1
 70
     1
  0
ATTRIB
  5
54E
330
544
100
AcDbEntity
  8
DTM
100
AcDbText
 10
39.01397365893814
 20
35.05344085929185
 30
0.0
 40
0.000005
  1
0.5
100
AcDbAttribute
  2
LLI1
 70
     1
  0
ATTRIB
  5
54F
330
544
100
AcDbEntity
  8
DTM
100
AcDbText
 10
39.01394365893815
 20
35.05337419262519
 30
0.0
 40
0.000005
  1
0.0
100
AcDbAttribute
  2
FRM4
 70
     1
  0
ATTRIB
  5
550
330
544
100
AcDbEntity
  8
DTM
100
AcDbText
 10
39.01394365893815
 20
35.05338252595853
 30
0.0
 40
0.000005
  1
0.0
100
AcDbAttribute
  2
FRM3
 70
     1
  0
ATTRIB
  5
551
330
544
100
AcDbEntity
  8
DTM
100
AcDbText
 10
39.01394365893815
 20
35.05339085929186
 30
0.0
 40
0.000005
  1
0.0
100
AcDbAttribute
  2
FRM2
 70
     1
  0
ATTRIB
  5
552
330
544
100
AcDbEntity
  8
DTM
100
AcDbText
 10
39.01394365893815
 20
35.05339919262519
 30
0.0
 40
0.000005
  1
0.0
100
AcDbAttribute
  2
FRM1
 70
     1
  0
ATTRIB
  5
553
330
544
100
AcDbEntity
  8
DTM
100
AcDbText
 10
39.01394365893815
 20
35.05340752595853
 30
0.0
 40
0.000005
  1
1.0
100
AcDbAttribute
  2
DLF1
 70
     1
  0
ATTRIB
  5
554
330
544
100
AcDbEntity
  8
DTM
100
AcDbText
 10
39.01394365893815
 20
35.05341585929186
 30
0.0
 40
0.000005
  1
0.0
100
AcDbAttribute
  2
BSE2
 70
     1
  0
ATTRIB
  5
555
330
544
100
AcDbEntity
  8
DTM
100
AcDbText
 10
39.01394365893815
 20
35.05342419262519
 30
0.0
 40
0.000005
  1
0.0
100
AcDbAttribute
  2
BSE1
 70
     1
  0
ATTRIB
  5
556
330
544
100
AcDbEntity
  8
DTM
100
AcDbText
 10
39.01394365893815
 20
35.05343252595853
 30
0.0
 40
0.000005
  1
1.0
100
AcDbAttribute
  2
BDR1
 70
     1
  0
ATTRIB
  5
557
330
544
100
AcDbEntity
  8
DTM
100
AcDbText
 10
39.01394365893815
 20
35.05344085929185
 30
0.0
 40
0.000005
  1
0.0
100
AcDbAttribute
  2
ABS1
 70
     1
  0
SEQEND
  5
558
330
544
100
AcDbEntity
  8
0
  0
INSERT
  5
559
330
17
100
AcDbEntity
  8
0
100
AcDbBlockReference
 66
     1
  2
DTM
 10
39.01394365893815
 20
35.05336585929186
 30
0.0
  0
ATTRIB
  5
55A
330
559
100
AcDbEntity
  8
DTM
100
AcDbText
 10
39.01394365893815
 20
35.05336585929186
 30
0.0
 40
0.000005
  1
DTM
100
AcDbAttribute
  2
LAY1
 70
     1
  0
ATTRIB
  5
55B
330
559
100
AcDbEntity
  8
DTM
100
AcDbText
 10
39.01397365893814
 20
35.05337419262519
 30
0.0
 40
0.000005
  1
0.25
100
AcDbAttribute
  2
ZIG1
 70
     1
  0
ATTRIB
  5
55C
330
559
100
AcDbEntity
  8
DTM
100
AcDbText
 10
39.01397365893814
 20
35.05338252595853
 30
0.0
 40
0.000005
  1
0.75
100
AcDbAttribute
  2
ZAG1
 70
     1
  0
ATTRIB
  5
55D
330
559
100
AcDbEntity
  8
DTM
100
AcDbText
 10
39.01397365893814
 20
35.05339085929186
 30
0.0
 40
0.000005
  1
0.125
100
AcDbAttribute
  2
TXT1
 70
     1
  0
ATTRIB
  5
55E
330
559
100
AcDbEntity
  8
DTM
100
AcDbText
 10
39.01397365893814
 20
35.05339919262519
 30
0.0
 40
0.000005
  1
STANDARD
100
AcDbAttribute
  2
STY1
 70
     1
  0
ATTRIB
  5
55F
330
559
100
AcDbEntity
  8
DTM
100
AcDbText
 10
39.01397365893814
 20
35.05340752595853
 30
0.0
 40
0.000005
  1
1.0
100
AcDbAttribute
  2
SCL1
 70
     1
  0
ATTRIB
  5
560
330
559
100
AcDbEntity
  8
DTM
100
AcDbText
 10
39.01397365893814
 20
35.05341585929186
 30
0.0
 40
0.000005
  1
0.0
100
AcDbAttribute
  2
ROT1
 70
     1
  0
ATTRIB
  5
561
330
559
100
AcDbEntity
  8
DTM
100
AcDbText
 10
39.01397365893814
 20
35.05342419262519
 30
0.0
 40
0.000005
  1
0.125
100
AcDbAttribute
  2
LLS1
 70
     1
  0
ATTRIB
  5
562
330
559
100
AcDbEntity
  8
DTM
100
AcDbText
 10
39.01397365893814
 20
35.05343252595853
 30
0.0
 40
0.000005
  1
0.0625
100
AcDbAttribute
  2
LLO1
 70
     1
  0
ATTRIB
  5
563
330
559
100
AcDbEntity
  8
DTM
100
AcDbText
 10
39.01397365893814
 20
35.05344085929185
 30
0.0
 40
0.000005
  1
0.5
100
AcDbAttribute
  2
LLI1
 70
     1
  0
ATTRIB
  5
564
330
559
100
AcDbEntity
  8
DTM
100
AcDbText
 10
39.01394365893815
 20
35.05337419262519
 30
0.0
 40
0.000005
  1
0.0
100
AcDbAttribute
  2
FRM4
 70
     1
  0
ATTRIB
  5
565
330
559
100
AcDbEntity
  8
DTM
100
AcDbText
 10
39.01394365893815
 20
35.05338252595853
 30
0.0
 40
0.000005
  1
0.0
100
AcDbAttribute
  2
FRM3
 70
     1
  0
ATTRIB
  5
566
330
559
100
AcDbEntity
  8
DTM
100
AcDbText
 10
39.01394365893815
 20
35.05339085929186
 30
0.0
 40
0.000005
  1
0.0
100
AcDbAttribute
  2
FRM2
 70
     1
  0
ATTRIB
  5
567
330
559
100
AcDbEntity
  8
DTM
100
AcDbText
 10
39.01394365893815
 20
35.05339919262519
 30
0.0
 40
0.000005
  1
0.0
100
AcDbAttribute
  2
FRM1
 70
     1
  0
ATTRIB
  5
568
330
559
100
AcDbEntity
  8
DTM
100
AcDbText
 10
39.01394365893815
 20
35.05340752595853
 30
0.0
 40
0.000005
  1
1.0
100
AcDbAttribute
  2
DLF1
 70
     1
  0
ATTRIB
  5
569
330
559
100
AcDbEntity
  8
DTM
100
AcDbText
 10
39.01394365893815
 20
35.05341585929186
 30
0.0
 40
0.000005
  1
0.0
100
AcDbAttribute
  2
BSE2
 70
     1
  0
ATTRIB
  5
56A
330
559
100
AcDbEntity
  8
DTM
100
AcDbText
 10
39.01394365893815
 20
35.05342419262519
 30
0.0
 40
0.000005
  1
0.0
100
AcDbAttribute
  2
BSE1
 70
     1
  0
ATTRIB
  5
56B
330
559
100
AcDbEntity
  8
DTM
100
AcDbText
 10
39.01394365893815
 20
35.05343252595853
 30
0.0
 40
0.000005
  1
1.0
100
AcDbAttribute
  2
BDR1
 70
     1
  0
ATTRIB
  5
56C
330
559
100
AcDbEntity
  8
DTM
100
AcDbText
 10
39.01394365893815
 20
35.05344085929185
 30
0.0
 40
0.000005
  1
0.0
100
AcDbAttribute
  2
ABS1
 70
     1
  0
SEQEND
  5
56D
330
559
100
AcDbEntity
  8
STP-SHIFT
  0
INSERT
  5
56E
330
17
100
AcDbEntity
  8
0
100
AcDbBlockReference
 66
     1
  2
DTM
 10
48.50818274344493
 20
35.16787523070992
 30
0.0
  0
ATTRIB
  5
56F
330
56E
100
AcDbEntity
  8
DTM
100
AcDbText
 10
48.50818274344493
 20
35.16787523070992
 30
0.0
 40
0.000005
  1
DTM
100
AcDbAttribute
  2
LAY1
 70
     1
  0
ATTRIB
  5
570
330
56E
100
AcDbEntity
  8
DTM
100
AcDbText
 10
48.50821274344494
 20
35.16788356404325
 30
0.0
 40
0.000005
  1
0.25
100
AcDbAttribute
  2
ZIG1
 70
     1
  0
ATTRIB
  5
571
330
56E
100
AcDbEntity
  8
DTM
100
AcDbText
 10
48.50821274344494
 20
35.16789189737659
 30
0.0
 40
0.000005
  1
0.75
100
AcDbAttribute
  2
ZAG1
 70
     1
  0
ATTRIB
  5
572
330
56E
100
AcDbEntity
  8
DTM
100
AcDbText
 10
48.50821274344494
 20
35.16790023070992
 30
0.0
 40
0.000005
  1
0.125
100
AcDbAttribute
  2
TXT1
 70
     1
  0
ATTRIB
  5
573
330
56E
100
AcDbEntity
  8
DTM
100
AcDbText
 10
48.50821274344494
 20
35.16790856404326
 30
0.0
 40
0.000005
  1
STANDARD
100
AcDbAttribute
  2
STY1
 70
     1
  0
ATTRIB
  5
574
330
56E
100
AcDbEntity
  8
DTM
100
AcDbText
 10
48.50821274344494
 20
35.16791689737659
 30
0.0
 40
0.000005
  1
1.0
100
AcDbAttribute
  2
SCL1
 70
     1
  0
ATTRIB
  5
575
330
56E
100
AcDbEntity
  8
DTM
100
AcDbText
 10
48.50821274344494
 20
35.16792523070993
 30
0.0
 40
0.000005
  1
0.0
100
AcDbAttribute
  2
ROT1
 70
     1
  0
ATTRIB
  5
576
330
56E
100
AcDbEntity
  8
DTM
100
AcDbText
 10
48.50821274344494
 20
35.16793356404325
 30
0.0
 40
0.000005
  1
0.125
100
AcDbAttribute
  2
LLS1
 70
     1
  0
ATTRIB
  5
577
330
56E
100
AcDbEntity
  8
DTM
100
AcDbText
 10
48.50821274344494
 20
35.16794189737659
 30
0.0
 40
0.000005
  1
0.0625
100
AcDbAttribute
  2
LLO1
 70
     1
  0
ATTRIB
  5
578
330
56E
100
AcDbEntity
  8
DTM
100
AcDbText
 10
48.50821274344494
 20
35.16795023070992
 30
0.0
 40
0.000005
  1
0.5
100
AcDbAttribute
  2
LLI1
 70
     1
  0
ATTRIB
  5
579
330
56E
100
AcDbEntity
  8
DTM
100
AcDbText
 10
48.50818274344493
 20
35.16788356404325
 30
0.0
 40
0.000005
  1
0.0
100
AcDbAttribute
  2
FRM4
 70
     1
  0
ATTRIB
  5
57A
330
56E
100
AcDbEntity
  8
DTM
100
AcDbText
 10
48.50818274344493
 20
35.16789189737659
 30
0.0
 40
0.000005
  1
0.0
100
AcDbAttribute
  2
FRM3
 70
     1
  0
ATTRIB
  5
57B
330
56E
100
AcDbEntity
  8
DTM
100
AcDbText
 10
48.50818274344493
 20
35.16790023070992
 30
0.0
 40
0.000005
  1
0.0
100
AcDbAttribute
  2
FRM2
 70
     1
  0
ATTRIB
  5
57C
330
56E
100
AcDbEntity
  8
DTM
100
AcDbText
 10
48.50818274344493
 20
35.16790856404326
 30
0.0
 40
0.000005
  1
0.0
100
AcDbAttribute
  2
FRM1
 70
     1
  0
ATTRIB
  5
57D
330
56E
100
AcDbEntity
  8
DTM
100
AcDbText
 10
48.50818274344493
 20
35.16791689737659
 30
0.0
 40
0.000005
  1
1.0
100
AcDbAttribute
  2
DLF1
 70
     1
  0
ATTRIB
  5
57E
330
56E
100
AcDbEntity
  8
DTM
100
AcDbText
 10
48.50818274344493
 20
35.16792523070993
 30
0.0
 40
0.000005
  1
0.0
100
AcDbAttribute
  2
BSE2
 70
     1
  0
ATTRIB
  5
57F
330
56E
100
AcDbEntity
  8
DTM
100
AcDbText
 10
48.50818274344493
 20
35.16793356404325
 30
0.0
 40
0.000005
  1
0.0
100
AcDbAttribute
  2
BSE1
 70
     1
  0
ATTRIB
  5
580
330
56E
100
AcDbEntity
  8
DTM
100
AcDbText
 10
48.50818274344493
 20
35.16794189737659
 30
0.0
 40
0.000005
  1
1.0
100
AcDbAttribute
  2
BDR1
 70
     1
  0
ATTRIB
  5
581
330
56E
100
AcDbEntity
  8
DTM
100
AcDbText
 10
48.50818274344493
 20
35.16795023070992
 30
0.0
 40
0.000005
  1
0.0
100
AcDbAttribute
  2
ABS1
 70
     1
  0
SEQEND
  5
582
330
56E
100
AcDbEntity
  8
0
  0
INSERT
  5
583
330
17
100
AcDbEntity
  8
0
100
AcDbBlockReference
 66
     1
  2
DTM
 10
48.50818274344493
 20
35.16787523070992
 30
0.0
  0
ATTRIB
  5
584
330
583
100
AcDbEntity
  8
DTM
100
AcDbText
 10
48.50818274344493
 20
35.16787523070992
 30
0.0
 40
0.000005
  1
DTM
100
AcDbAttribute
  2
LAY1
 70
     1
  0
ATTRIB
  5
585
330
583
100
AcDbEntity
  8
DTM
100
AcDbText
 10
48.50821274344494
 20
35.16788356404325
 30
0.0
 40
0.000005
  1
0.25
100
AcDbAttribute
  2
ZIG1
 70
     1
  0
ATTRIB
  5
586
330
583
100
AcDbEntity
  8
DTM
100
AcDbText
 10
48.50821274344494
 20
35.16789189737659
 30
0.0
 40
0.000005
  1
0.75
100
AcDbAttribute
  2
ZAG1
 70
     1
  0
ATTRIB
  5
587
330
583
100
AcDbEntity
  8
DTM
100
AcDbText
 10
48.50821274344494
 20
35.16790023070992
 30
0.0
 40
0.000005
  1
0.125
100
AcDbAttribute
  2
TXT1
 70
     1
  0
ATTRIB
  5
588
330
583
100
AcDbEntity
  8
DTM
100
AcDbText
 10
48.50821274344494
 20
35.16790856404326
 30
0.0
 40
0.000005
  1
STANDARD
100
AcDbAttribute
  2
STY1
 70
     1
  0
ATTRIB
  5
589
330
583
100
AcDbEntity
  8
DTM
100
AcDbText
 10
48.50821274344494
 20
35.16791689737659
 30
0.0
 40
0.000005
  1
1.0
100
AcDbAttribute
  2
SCL1
 70
     1
  0
ATTRIB
  5
58A
330
583
100
AcDbEntity
  8
DTM
100
AcDbText
 10
48.50821274344494
 20
35.16792523070993
 30
0.0
 40
0.000005
  1
0.0
100
AcDbAttribute
  2
ROT1
 70
     1
  0
ATTRIB
  5
58B
330
583
100
AcDbEntity
  8
DTM
100
AcDbText
 10
48.50821274344494
 20
35.16793356404325
 30
0.0
 40
0.000005
  1
0.125
100
AcDbAttribute
  2
LLS1
 70
     1
  0
ATTRIB
  5
58C
330
583
100
AcDbEntity
  8
DTM
100
AcDbText
 10
48.50821274344494
 20
35.16794189737659
 30
0.0
 40
0.000005
  1
0.0625
100
AcDbAttribute
  2
LLO1
 70
     1
  0
ATTRIB
  5
58D
330
583
100
AcDbEntity
  8
DTM
100
AcDbText
 10
48.50821274344494
 20
35.16795023070992
 30
0.0
 40
0.000005
  1
0.5
100
AcDbAttribute
  2
LLI1
 70
     1
  0
ATTRIB
  5
58E
330
583
100
AcDbEntity
  8
DTM
100
AcDbText
 10
48.50818274344493
 20
35.16788356404325
 30
0.0
 40
0.000005
  1
0.0
100
AcDbAttribute
  2
FRM4
 70
     1
  0
ATTRIB
  5
58F
330
583
100
AcDbEntity
  8
DTM
100
AcDbText
 10
48.50818274344493
 20
35.16789189737659
 30
0.0
 40
0.000005
  1
0.0
100
AcDbAttribute
  2
FRM3
 70
     1
  0
ATTRIB
  5
590
330
583
100
AcDbEntity
  8
DTM
100
AcDbText
 10
48.50818274344493
 20
35.16790023070992
 30
0.0
 40
0.000005
  1
0.0
100
AcDbAttribute
  2
FRM2
 70
     1
  0
ATTRIB
  5
591
330
583
100
AcDbEntity
  8
DTM
100
AcDbText
 10
48.50818274344493
 20
35.16790856404326
 30
0.0
 40
0.000005
  1
0.0
100
AcDbAttribute
  2
FRM1
 70
     1
  0
ATTRIB
  5
592
330
583
100
AcDbEntity
  8
DTM
100
AcDbText
 10
48.50818274344493
 20
35.16791689737659
 30
0.0
 40
0.000005
  1
1.0
100
AcDbAttribute
  2
DLF1
 70
     1
  0
ATTRIB
  5
593
330
583
100
AcDbEntity
  8
DTM
100
AcDbText
 10
48.50818274344493
 20
35.16792523070993
 30
0.0
 40
0.000005
  1
0.0
100
AcDbAttribute
  2
BSE2
 70
     1
  0
ATTRIB
  5
594
330
583
100
AcDbEntity
  8
DTM
100
AcDbText
 10
48.50818274344493
 20
35.16793356404325
 30
0.0
 40
0.000005
  1
0.0
100
AcDbAttribute
  2
BSE1
 70
     1
  0
ATTRIB
  5
595
330
583
100
AcDbEntity
  8
DTM
100
AcDbText
 10
48.50818274344493
 20
35.16794189737659
 30
0.0
 40
0.000005
  1
1.0
100
AcDbAttribute
  2
BDR1
 70
     1
  0
ATTRIB
  5
596
330
583
100
AcDbEntity
  8
DTM
100
AcDbText
 10
48.50818274344493
 20
35.16795023070992
 30
0.0
 40
0.000005
  1
0.0
100
AcDbAttribute
  2
ABS1
 70
     1
  0
SEQEND
  5
597
330
583
100
AcDbEntity
  8
STP-SHIFT
  0
INSERT
  5
598
330
17
100
AcDbEntity
  8
0
100
AcDbBlockReference
 66
     1
  2
DTM
 10
48.50818274344493
 20
35.16787523070992
 30
0.0
  0
ATTRIB
  5
599
330
598
100
AcDbEntity
  8
DTM
100
AcDbText
 10
48.50818274344493
 20
35.16787523070992
 30
0.0
 40
0.000005
  1
DTM
100
AcDbAttribute
  2
LAY1
 70
     1
  0
ATTRIB
  5
59A
330
598
100
AcDbEntity
  8
DTM
100
AcDbText
 10
48.50821274344494
 20
35.16788356404325
 30
0.0
 40
0.000005
  1
0.25
100
AcDbAttribute
  2
ZIG1
 70
     1
  0
ATTRIB
  5
59B
330
598
100
AcDbEntity
  8
DTM
100
AcDbText
 10
48.50821274344494
 20
35.16789189737659
 30
0.0
 40
0.000005
  1
0.75
100
AcDbAttribute
  2
ZAG1
 70
     1
  0
ATTRIB
  5
59C
330
598
100
AcDbEntity
  8
DTM
100
AcDbText
 10
48.50821274344494
 20
35.16790023070992
 30
0.0
 40
0.000005
  1
0.125
100
AcDbAttribute
  2
TXT1
 70
     1
  0
ATTRIB
  5
59D
330
598
100
AcDbEntity
  8
DTM
100
AcDbText
 10
48.50821274344494
 20
35.16790856404326
 30
0.0
 40
0.000005
  1
STANDARD
100
AcDbAttribute
  2
STY1
 70
     1
  0
ATTRIB
  5
59E
330
598
100
AcDbEntity
  8
DTM
100
AcDbText
 10
48.50821274344494
 20
35.16791689737659
 30
0.0
 40
0.000005
  1
1.0
100
AcDbAttribute
  2
SCL1
 70
     1
  0
ATTRIB
  5
59F
330
598
100
AcDbEntity
  8
DTM
100
AcDbText
 10
48.50821274344494
 20
35.16792523070993
 30
0.0
 40
0.000005
  1
0.0
100
AcDbAttribute
  2
ROT1
 70
     1
  0
ATTRIB
  5
5A0
330
598
100
AcDbEntity
  8
DTM
100
AcDbText
 10
48.50821274344494
 20
35.16793356404325
 30
0.0
 40
0.000005
  1
0.125
100
AcDbAttribute
  2
LLS1
 70
     1
  0
ATTRIB
  5
5A1
330
598
100
AcDbEntity
  8
DTM
100
AcDbText
 10
48.50821274344494
 20
35.16794189737659
 30
0.0
 40
0.000005
  1
0.0625
100
AcDbAttribute
  2
LLO1
 70
     1
  0
ATTRIB
  5
5A2
330
598
100
AcDbEntity
  8
DTM
100
AcDbText
 10
48.50821274344494
 20
35.16795023070992
 30
0.0
 40
0.000005
  1
0.5
100
AcDbAttribute
  2
LLI1
 70
     1
  0
ATTRIB
  5
5A3
330
598
100
AcDbEntity
  8
DTM
100
AcDbText
 10
48.50818274344493
 20
35.16788356404325
 30
0.0
 40
0.000005
  1
0.0
100
AcDbAttribute
  2
FRM4
 70
     1
  0
ATTRIB
  5
5A4
330
598
100
AcDbEntity
  8
DTM
100
AcDbText
 10
48.50818274344493
 20
35.16789189737659
 30
0.0
 40
0.000005
  1
0.0
100
AcDbAttribute
  2
FRM3
 70
     1
  0
ATTRIB
  5
5A5
330
598
100
AcDbEntity
  8
DTM
100
AcDbText
 10
48.50818274344493
 20
35.16790023070992
 30
0.0
 40
0.000005
  1
0.0
100
AcDbAttribute
  2
FRM2
 70
     1
  0
ATTRIB
  5
5A6
330
598
100
AcDbEntity
  8
DTM
100
AcDbText
 10
48.50818274344493
 20
35.16790856404326
 30
0.0
 40
0.000005
  1
0.0
100
AcDbAttribute
  2
FRM1
 70
     1
  0
ATTRIB
  5
5A7
330
598
100
AcDbEntity
  8
DTM
100
AcDbText
 10
48.50818274344493
 20
35.16791689737659
 30
0.0
 40
0.000005
  1
1.0
100
AcDbAttribute
  2
DLF1
 70
     1
  0
ATTRIB
  5
5A8
330
598
100
AcDbEntity
  8
DTM
100
AcDbText
 10
48.50818274344493
 20
35.16792523070993
 30
0.0
 40
0.000005
  1
0.0
100
AcDbAttribute
  2
BSE2
 70
     1
  0
ATTRIB
  5
5A9
330
598
100
AcDbEntity
  8
DTM
100
AcDbText
 10
48.50818274344493
 20
35.16793356404325
 30
0.0
 40
0.000005
  1
0.0
100
AcDbAttribute
  2
BSE1
 70
     1
  0
ATTRIB
  5
5AA
330
598
100
AcDbEntity
  8
DTM
100
AcDbText
 10
48.50818274344493
 20
35.16794189737659
 30
0.0
 40
0.000005
  1
1.0
100
AcDbAttribute
  2
BDR1
 70
     1
  0
ATTRIB
  5
5AB
330
598
100
AcDbEntity
  8
DTM
100
AcDbText
 10
48.50818274344493
 20
35.16795023070992
 30
0.0
 40
0.000005
  1
0.0
100
AcDbAttribute
  2
ABS1
 70
     1
  0
SEQEND
  5
5AC
330
598
100
AcDbEntity
  8
0
  0
INSERT
  5
5AD
330
17
100
AcDbEntity
  8
0
100
AcDbBlockReference
 66
     1
  2
DTM
 10
48.50818274344493
 20
35.16787523070992
 30
0.0
  0
ATTRIB
  5
5AE
330
5AD
100
AcDbEntity
  8
DTM
100
AcDbText
 10
48.50818274344493
 20
35.16787523070992
 30
0.0
 40
0.000005
  1
DTM
100
AcDbAttribute
  2
LAY1
 70
     1
  0
ATTRIB
  5
5AF
330
5AD
100
AcDbEntity
  8
DTM
100
AcDbText
 10
48.50821274344494
 20
35.16788356404325
 30
0.0
 40
0.000005
  1
0.25
100
AcDbAttribute
  2
ZIG1
 70
     1
  0
ATTRIB
  5
5B0
330
5AD
100
AcDbEntity
  8
DTM
100
AcDbText
 10
48.50821274344494
 20
35.16789189737659
 30
0.0
 40
0.000005
  1
0.75
100
AcDbAttribute
  2
ZAG1
 70
     1
  0
ATTRIB
  5
5B1
330
5AD
100
AcDbEntity
  8
DTM
100
AcDbText
 10
48.50821274344494
 20
35.16790023070992
 30
0.0
 40
0.000005
  1
0.125
100
AcDbAttribute
  2
TXT1
 70
     1
  0
ATTRIB
  5
5B2
330
5AD
100
AcDbEntity
  8
DTM
100
AcDbText
 10
48.50821274344494
 20
35.16790856404326
 30
0.0
 40
0.000005
  1
STANDARD
100
AcDbAttribute
  2
STY1
 70
     1
  0
ATTRIB
  5
5B3
330
5AD
100
AcDbEntity
  8
DTM
100
AcDbText
 10
48.50821274344494
 20
35.16791689737659
 30
0.0
 40
0.000005
  1
1.0
100
AcDbAttribute
  2
SCL1
 70
     1
  0
ATTRIB
  5
5B4
330
5AD
100
AcDbEntity
  8
DTM
100
AcDbText
 10
48.50821274344494
 20
35.16792523070993
 30
0.0
 40
0.000005
  1
0.0
100
AcDbAttribute
  2
ROT1
 70
     1
  0
ATTRIB
  5
5B5
330
5AD
100
AcDbEntity
  8
DTM
100
AcDbText
 10
48.50821274344494
 20
35.16793356404325
 30
0.0
 40
0.000005
  1
0.125
100
AcDbAttribute
  2
LLS1
 70
     1
  0
ATTRIB
  5
5B6
330
5AD
100
AcDbEntity
  8
DTM
100
AcDbText
 10
48.50821274344494
 20
35.16794189737659
 30
0.0
 40
0.000005
  1
0.0625
100
AcDbAttribute
  2
LLO1
 70
     1
  0
ATTRIB
  5
5B7
330
5AD
100
AcDbEntity
  8
DTM
100
AcDbText
 10
48.50821274344494
 20
35.16795023070992
 30
0.0
 40
0.000005
  1
0.5
100
AcDbAttribute
  2
LLI1
 70
     1
  0
ATTRIB
  5
5B8
330
5AD
100
AcDbEntity
  8
DTM
100
AcDbText
 10
48.50818274344493
 20
35.16788356404325
 30
0.0
 40
0.000005
  1
0.0
100
AcDbAttribute
  2
FRM4
 70
     1
  0
ATTRIB
  5
5B9
330
5AD
100
AcDbEntity
  8
DTM
100
AcDbText
 10
48.50818274344493
 20
35.16789189737659
 30
0.0
 40
0.000005
  1
0.0
100
AcDbAttribute
  2
FRM3
 70
     1
  0
ATTRIB
  5
5BA
330
5AD
100
AcDbEntity
  8
DTM
100
AcDbText
 10
48.50818274344493
 20
35.16790023070992
 30
0.0
 40
0.000005
  1
0.0
100
AcDbAttribute
  2
FRM2
 70
     1
  0
ATTRIB
  5
5BB
330
5AD
100
AcDbEntity
  8
DTM
100
AcDbText
 10
48.50818274344493
 20
35.16790856404326
 30
0.0
 40
0.000005
  1
0.0
100
AcDbAttribute
  2
FRM1
 70
     1
  0
ATTRIB
  5
5BC
330
5AD
100
AcDbEntity
  8
DTM
100
AcDbText
 10
48.50818274344493
 20
35.16791689737659
 30
0.0
 40
0.000005
  1
1.0
100
AcDbAttribute
  2
DLF1
 70
     1
  0
ATTRIB
  5
5BD
330
5AD
100
AcDbEntity
  8
DTM
100
AcDbText
 10
48.50818274344493
 20
35.16792523070993
 30
0.0
 40
0.000005
  1
0.0
100
AcDbAttribute
  2
BSE2
 70
     1
  0
ATTRIB
  5
5BE
330
5AD
100
AcDbEntity
  8
DTM
100
AcDbText
 10
48.50818274344493
 20
35.16793356404325
 30
0.0
 40
0.000005
  1
0.0
100
AcDbAttribute
  2
BSE1
 70
     1
  0
ATTRIB
  5
5BF
330
5AD
100
AcDbEntity
  8
DTM
100
AcDbText
 10
48.50818274344493
 20
35.16794189737659
 30
0.0
 40
0.000005
  1
1.0
100
AcDbAttribute
  2
BDR1
 70
     1
  0
ATTRIB
  5
5C0
330
5AD
100
AcDbEntity
  8
DTM
100
AcDbText
 10
48.50818274344493
 20
35.16795023070992
 30
0.0
 40
0.000005
  1
0.0
100
AcDbAttribute
  2
ABS1
 70
     1
  0
SEQEND
  5
5C1
330
5AD
100
AcDbEntity
  8
STP-SHIFT
  0
INSERT
  5
5C2
330
17
100
AcDbEntity
  8
0
100
AcDbBlockReference
 66
     1
  2
DTM
 10
-2.969242779481506
 20
-12.09304397773913
 30
0.0
  0
ATTRIB
  5
5C3
330
5C2
100
AcDbEntity
  8
DTM
100
AcDbText
 10
-2.969242779481506
 20
-12.09304397773913
 30
0.0
 40
0.000005
  1
DTM
100
AcDbAttribute
  2
LAY1
 70
     1
  0
ATTRIB
  5
5C4
330
5C2
100
AcDbEntity
  8
DTM
100
AcDbText
 10
-2.969212779481506
 20
-12.09303564440579
 30
0.0
 40
0.000005
  1
0.25
100
AcDbAttribute
  2
ZIG1
 70
     1
  0
ATTRIB
  5
5C5
330
5C2
100
AcDbEntity
  8
DTM
100
AcDbText
 10
-2.969212779481506
 20
-12.09302731107246
 30
0.0
 40
0.000005
  1
0.75
100
AcDbAttribute
  2
ZAG1
 70
     1
  0
ATTRIB
  5
5C6
330
5C2
100
AcDbEntity
  8
DTM
100
AcDbText
 10
-2.969212779481506
 20
-12.09301897773912
 30
0.0
 40
0.000005
  1
0.125
100
AcDbAttribute
  2
TXT1
 70
     1
  0
ATTRIB
  5
5C7
330
5C2
100
AcDbEntity
  8
DTM
100
AcDbText
 10
-2.969212779481506
 20
-12.09301064440579
 30
0.0
 40
0.000005
  1
STANDARD
100
AcDbAttribute
  2
STY1
 70
     1
  0
ATTRIB
  5
5C8
330
5C2
100
AcDbEntity
  8
DTM
100
AcDbText
 10
-2.969212779481506
 20
-12.09300231107246
 30
0.0
 40
0.000005
  1
1.0
100
AcDbAttribute
  2
SCL1
 70
     1
  0
ATTRIB
  5
5C9
330
5C2
100
AcDbEntity
  8
DTM
100
AcDbText
 10
-2.969212779481506
 20
-12.09299397773913
 30
0.0
 40
0.000005
  1
0.0
100
AcDbAttribute
  2
ROT1
 70
     1
  0
ATTRIB
  5
5CA
330
5C2
100
AcDbEntity
  8
DTM
100
AcDbText
 10
-2.969212779481506
 20
-12.09298564440579
 30
0.0
 40
0.000005
  1
0.125
100
AcDbAttribute
  2
LLS1
 70
     1
  0
ATTRIB
  5
5CB
330
5C2
100
AcDbEntity
  8
DTM
100
AcDbText
 10
-2.969212779481506
 20
-12.09297731107246
 30
0.0
 40
0.000005
  1
0.0625
100
AcDbAttribute
  2
LLO1
 70
     1
  0
ATTRIB
  5
5CC
330
5C2
100
AcDbEntity
  8
DTM
100
AcDbText
 10
-2.969212779481506
 20
-12.09296897773912
 30
0.0
 40
0.000005
  1
0.5
100
AcDbAttribute
  2
LLI1
 70
     1
  0
ATTRIB
  5
5CD
330
5C2
100
AcDbEntity
  8
DTM
100
AcDbText
 10
-2.969242779481506
 20
-12.09303564440579
 30
0.0
 40
0.000005
  1
0.0
100
AcDbAttribute
  2
FRM4
 70
     1
  0
ATTRIB
  5
5CE
330
5C2
100
AcDbEntity
  8
DTM
100
AcDbText
 10
-2.969242779481506
 20
-12.09302731107246
 30
0.0
 40
0.000005
  1
0.0
100
AcDbAttribute
  2
FRM3
 70
     1
  0
ATTRIB
  5
5CF
330
5C2
100
AcDbEntity
  8
DTM
100
AcDbText
 10
-2.969242779481506
 20
-12.09301897773912
 30
0.0
 40
0.000005
  1
0.0
100
AcDbAttribute
  2
FRM2
 70
     1
  0
ATTRIB
  5
5D0
330
5C2
100
AcDbEntity
  8
DTM
100
AcDbText
 10
-2.969242779481506
 20
-12.09301064440579
 30
0.0
 40
0.000005
  1
0.0
100
AcDbAttribute
  2
FRM1
 70
     1
  0
ATTRIB
  5
5D1
330
5C2
100
AcDbEntity
  8
DTM
100
AcDbText
 10
-2.969242779481506
 20
-12.09300231107246
 30
0.0
 40
0.000005
  1
1.0
100
AcDbAttribute
  2
DLF1
 70
     1
  0
ATTRIB
  5
5D2
330
5C2
100
AcDbEntity
  8
DTM
100
AcDbText
 10
-2.969242779481506
 20
-12.09299397773913
 30
0.0
 40
0.000005
  1
0.0
100
AcDbAttribute
  2
BSE2
 70
     1
  0
ATTRIB
  5
5D3
330
5C2
100
AcDbEntity
  8
DTM
100
AcDbText
 10
-2.969242779481506
 20
-12.09298564440579
 30
0.0
 40
0.000005
  1
0.0
100
AcDbAttribute
  2
BSE1
 70
     1
  0
ATTRIB
  5
5D4
330
5C2
100
AcDbEntity
  8
DTM
100
AcDbText
 10
-2.969242779481506
 20
-12.09297731107246
 30
0.0
 40
0.000005
  1
1.0
100
AcDbAttribute
  2
BDR1
 70
     1
  0
ATTRIB
  5
5D5
330
5C2
100
AcDbEntity
  8
DTM
100
AcDbText
 10
-2.969242779481506
 20
-12.09296897773912
 30
0.0
 40
0.000005
  1
0.0
100
AcDbAttribute
  2
ABS1
 70
     1
  0
SEQEND
  5
5D6
330
5C2
100
AcDbEntity
  8
0
  0
INSERT
  5
5D7
330
17
100
AcDbEntity
  8
0
100
AcDbBlockReference
 66
     1
  2
DTM
 10
-2.969242779481506
 20
-12.09304397773913
 30
0.0
  0
ATTRIB
  5
5D8
330
5D7
100
AcDbEntity
  8
DTM
100
AcDbText
 10
-2.969242779481506
 20
-12.09304397773913
 30
0.0
 40
0.000005
  1
DTM
100
AcDbAttribute
  2
LAY1
 70
     1
  0
ATTRIB
  5
5D9
330
5D7
100
AcDbEntity
  8
DTM
100
AcDbText
 10
-2.969212779481506
 20
-12.09303564440579
 30
0.0
 40
0.000005
  1
0.25
100
AcDbAttribute
  2
ZIG1
 70
     1
  0
ATTRIB
  5
5DA
330
5D7
100
AcDbEntity
  8
DTM
100
AcDbText
 10
-2.969212779481506
 20
-12.09302731107246
 30
0.0
 40
0.000005
  1
0.75
100
AcDbAttribute
  2
ZAG1
 70
     1
  0
ATTRIB
  5
5DB
330
5D7
100
AcDbEntity
  8
DTM
100
AcDbText
 10
-2.969212779481506
 20
-12.09301897773912
 30
0.0
 40
0.000005
  1
0.125
100
AcDbAttribute
  2
TXT1
 70
     1
  0
ATTRIB
  5
5DC
330
5D7
100
AcDbEntity
  8
DTM
100
AcDbText
 10
-2.969212779481506
 20
-12.09301064440579
 30
0.0
 40
0.000005
  1
STANDARD
100
AcDbAttribute
  2
STY1
 70
     1
  0
ATTRIB
  5
5DD
330
5D7
100
AcDbEntity
  8
DTM
100
AcDbText
 10
-2.969212779481506
 20
-12.09300231107246
 30
0.0
 40
0.000005
  1
1.0
100
AcDbAttribute
  2
SCL1
 70
     1
  0
ATTRIB
  5
5DE
330
5D7
100
AcDbEntity
  8
DTM
100
AcDbText
 10
-2.969212779481506
 20
-12.09299397773913
 30
0.0
 40
0.000005
  1
0.0
100
AcDbAttribute
  2
ROT1
 70
     1
  0
ATTRIB
  5
5DF
330
5D7
100
AcDbEntity
  8
DTM
100
AcDbText
 10
-2.969212779481506
 20
-12.09298564440579
 30
0.0
 40
0.000005
  1
0.125
100
AcDbAttribute
  2
LLS1
 70
     1
  0
ATTRIB
  5
5E0
330
5D7
100
AcDbEntity
  8
DTM
100
AcDbText
 10
-2.969212779481506
 20
-12.09297731107246
 30
0.0
 40
0.000005
  1
0.0625
100
AcDbAttribute
  2
LLO1
 70
     1
  0
ATTRIB
  5
5E1
330
5D7
100
AcDbEntity
  8
DTM
100
AcDbText
 10
-2.969212779481506
 20
-12.09296897773912
 30
0.0
 40
0.000005
  1
0.5
100
AcDbAttribute
  2
LLI1
 70
     1
  0
ATTRIB
  5
5E2
330
5D7
100
AcDbEntity
  8
DTM
100
AcDbText
 10
-2.969242779481506
 20
-12.09303564440579
 30
0.0
 40
0.000005
  1
0.0
100
AcDbAttribute
  2
FRM4
 70
     1
  0
ATTRIB
  5
5E3
330
5D7
100
AcDbEntity
  8
DTM
100
AcDbText
 10
-2.969242779481506
 20
-12.09302731107246
 30
0.0
 40
0.000005
  1
0.0
100
AcDbAttribute
  2
FRM3
 70
     1
  0
ATTRIB
  5
5E4
330
5D7
100
AcDbEntity
  8
DTM
100
AcDbText
 10
-2.969242779481506
 20
-12.09301897773912
 30
0.0
 40
0.000005
  1
0.0
100
AcDbAttribute
  2
FRM2
 70
     1
  0
ATTRIB
  5
5E5
330
5D7
100
AcDbEntity
  8
DTM
100
AcDbText
 10
-2.969242779481506
 20
-12.09301064440579
 30
0.0
 40
0.000005
  1
0.0
100
AcDbAttribute
  2
FRM1
 70
     1
  0
ATTRIB
  5
5E6
330
5D7
100
AcDbEntity
  8
DTM
100
AcDbText
 10
-2.969242779481506
 20
-12.09300231107246
 30
0.0
 40
0.000005
  1
1.0
100
AcDbAttribute
  2
DLF1
 70
     1
  0
ATTRIB
  5
5E7
330
5D7
100
AcDbEntity
  8
DTM
100
AcDbText
 10
-2.969242779481506
 20
-12.09299397773913
 30
0.0
 40
0.000005
  1
0.0
100
AcDbAttribute
  2
BSE2
 70
     1
  0
ATTRIB
  5
5E8
330
5D7
100
AcDbEntity
  8
DTM
100
AcDbText
 10
-2.969242779481506
 20
-12.09298564440579
 30
0.0
 40
0.000005
  1
0.0
100
AcDbAttribute
  2
BSE1
 70
     1
  0
ATTRIB
  5
5E9
330
5D7
100
AcDbEntity
  8
DTM
100
AcDbText
 10
-2.969242779481506
 20
-12.09297731107246
 30
0.0
 40
0.000005
  1
1.0
100
AcDbAttribute
  2
BDR1
 70
     1
  0
ATTRIB
  5
5EA
330
5D7
100
AcDbEntity
  8
DTM
100
AcDbText
 10
-2.969242779481506
 20
-12.09296897773912
 30
0.0
 40
0.000005
  1
0.0
100
AcDbAttribute
  2
ABS1
 70
     1
  0
SEQEND
  5
5EB
330
5D7
100
AcDbEntity
  8
STP-SHIFT
  0
INSERT
  5
5EC
330
17
100
AcDbEntity
  8
0
100
AcDbBlockReference
 66
     1
  2
DTM
 10
0.0
 20
0.0
 30
0.0
  0
ATTRIB
  5
5ED
330
5EC
100
AcDbEntity
  8
DTM
100
AcDbText
 10
0.0
 20
0.0
 30
0.0
 40
0.000005
  1
DTM
100
AcDbAttribute
  2
LAY1
 70
     1
  0
ATTRIB
  5
5EE
330
5EC
100
AcDbEntity
  8
DTM
100
AcDbText
 10
0.00003
 20
0.0000083333333333
 30
0.0
 40
0.000005
  1
0.25
100
AcDbAttribute
  2
ZIG1
 70
     1
  0
ATTRIB
  5
5EF
330
5EC
100
AcDbEntity
  8
DTM
100
AcDbText
 10
0.00003
 20
0.0000166666666667
 30
0.0
 40
0.000005
  1
0.75
100
AcDbAttribute
  2
ZAG1
 70
     1
  0
ATTRIB
  5
5F0
330
5EC
100
AcDbEntity
  8
DTM
100
AcDbText
 10
0.00003
 20
0.000025
 30
0.0
 40
0.000005
  1
0.125
100
AcDbAttribute
  2
TXT1
 70
     1
  0
ATTRIB
  5
5F1
330
5EC
100
AcDbEntity
  8
DTM
100
AcDbText
 10
0.00003
 20
0.0000333333333333
 30
0.0
 40
0.000005
  1
STANDARD
100
AcDbAttribute
  2
STY1
 70
     1
  0
ATTRIB
  5
5F2
330
5EC
100
AcDbEntity
  8
DTM
100
AcDbText
 10
0.00003
 20
0.0000416666666667
 30
0.0
 40
0.000005
  1
1.0
100
AcDbAttribute
  2
SCL1
 70
     1
  0
ATTRIB
  5
5F3
330
5EC
100
AcDbEntity
  8
DTM
100
AcDbText
 10
0.00003
 20
0.00005
 30
0.0
 40
0.000005
  1
0.0
100
AcDbAttribute
  2
ROT1
 70
     1
  0
ATTRIB
  5
5F4
330
5EC
100
AcDbEntity
  8
DTM
100
AcDbText
 10
0.00003
 20
0.0000583333333333
 30
0.0
 40
0.000005
  1
0.125
100
AcDbAttribute
  2
LLS1
 70
     1
  0
ATTRIB
  5
5F5
330
5EC
100
AcDbEntity
  8
DTM
100
AcDbText
 10
0.00003
 20
0.0000666666666667
 30
0.0
 40
0.000005
  1
0.0625
100
AcDbAttribute
  2
LLO1
 70
     1
  0
ATTRIB
  5
5F6
330
5EC
100
AcDbEntity
  8
DTM
100
AcDbText
 10
0.00003
 20
0.000075
 30
0.0
 40
0.000005
  1
0.5
100
AcDbAttribute
  2
LLI1
 70
     1
  0
ATTRIB
  5
5F7
330
5EC
100
AcDbEntity
  8
DTM
100
AcDbText
 10
0.0
 20
0.0000083333333333
 30
0.0
 40
0.000005
  1
0.0
100
AcDbAttribute
  2
FRM4
 70
     1
  0
ATTRIB
  5
5F8
330
5EC
100
AcDbEntity
  8
DTM
100
AcDbText
 10
0.0
 20
0.0000166666666667
 30
0.0
 40
0.000005
  1
0.0
100
AcDbAttribute
  2
FRM3
 70
     1
  0
ATTRIB
  5
5F9
330
5EC
100
AcDbEntity
  8
DTM
100
AcDbText
 10
0.0
 20
0.000025
 30
0.0
 40
0.000005
  1
0.0
100
AcDbAttribute
  2
FRM2
 70
     1
  0
ATTRIB
  5
5FA
330
5EC
100
AcDbEntity
  8
DTM
100
AcDbText
 10
0.0
 20
0.0000333333333333
 30
0.0
 40
0.000005
  1
0.0
100
AcDbAttribute
  2
FRM1
 70
     1
  0
ATTRIB
  5
5FB
330
5EC
100
AcDbEntity
  8
DTM
100
AcDbText
 10
0.0
 20
0.0000416666666667
 30
0.0
 40
0.000005
  1
1.0
100
AcDbAttribute
  2
DLF1
 70
     1
  0
ATTRIB
  5
5FC
330
5EC
100
AcDbEntity
  8
DTM
100
AcDbText
 10
0.0
 20
0.00005
 30
0.0
 40
0.000005
  1
0.0
100
AcDbAttribute
  2
BSE2
 70
     1
  0
ATTRIB
  5
5FD
330
5EC
100
AcDbEntity
  8
DTM
100
AcDbText
 10
0.0
 20
0.0000583333333333
 30
0.0
 40
0.000005
  1
0.0
100
AcDbAttribute
  2
BSE1
 70
     1
  0
ATTRIB
  5
5FE
330
5EC
100
AcDbEntity
  8
DTM
100
AcDbText
 10
0.0
 20
0.0000666666666667
 30
0.0
 40
0.000005
  1
1.0
100
AcDbAttribute
  2
BDR1
 70
     1
  0
ATTRIB
  5
5FF
330
5EC
100
AcDbEntity
  8
DTM
100
AcDbText
 10
0.0
 20
0.000075
 30
0.0
 40
0.000005
  1
0.0
100
AcDbAttribute
  2
ABS1
 70
     1
  0
SEQEND
  5
600
330
5EC
100
AcDbEntity
  8
0
  0
TEXT
  5
601
330
17
100
AcDbEntity
  8
0
100
AcDbText
 10
3.860000000000001
 20
7.9375
 30
0.0
 40
0.125
  1

100
AcDbText
  0
TEXT
  5
73C
330
17
100
AcDbEntity
  8
0
100
AcDbText
 10
20.36316645709283
 20
23.40102911554674
 30
0.0
 40
0.36
  1
   
 72
     1
 11
20.90316645709283
 21
23.58102911554674
 31
0.0
100
AcDbText
 73
     2
  0
TEXT
  5
7A7
330
17
100
AcDbEntity
  8
0
100
AcDbText
 10
21.11
 20
18.56391294927421
 30
0.0
 40
0.36
  1
   
 72
     1
 11
21.65
 21
18.74391294927421
 31
0.0
100
AcDbText
 73
     2
  0
LINE
  5
1F0C
330
17
100
AcDbEntity
  8
0
100
AcDbLine
 10
0.5103818942315037
 20
5.615196609407409
 30
0.0
 11
0.5103818942315037
 21
4.968750000000686
 31
0.0
  0
LINE
  5
1F0D
330
17
100
AcDbEntity
  8
0
100
AcDbLine
 10
-0.8646181057685389
 20
0.5436439101589201
 30
0.0
 11
-0.8646181057685389
 21
6.979523304705559
 31
0.0
  0
LINE
  5
1F0E
330
17
100
AcDbEntity
  8
0
100
AcDbLine
 10
-0.9473645631027488
 20
0.5898283708247369
 30
0.0
 11
-0.9473645631027488
 21
6.979523304705559
 31
0.0
  0
ARC
  5
1F15
330
17
100
AcDbEntity
  8
0
100
AcDbCircle
 10
-1.120751191159453
 20
0.1102579787176765
 30
0.0
 40
0.5099516484673778
100
AcDbArc
 50
358.1449167113871
 51
70.12275943719956
  0
LINE
  5
1F16
330
17
100
AcDbEntity
  8
0
100
AcDbLine
 10
1.774784855375206
 20
1.704297038854922
 30
0.0
 11
3.103211980121376
 21
0.3758699141087369
 31
0.0
  0
LINE
  5
1F17
330
17
100
AcDbEntity
  8
0
  6
DASHED
100
AcDbLine
 10
-0.6239840122421718
 20
0.0937500000000053
 30
0.0
 11
3.306804271144475
 21
0.0937500000000036
 31
0.0
  0
LINE
  5
1F18
330
17
100
AcDbEntity
  8
0
100
AcDbLine
 10
-0.6110668080229509
 20
-0.0000000000000089
 30
0.0
 11
3.331977460990121
 21
0.0000000000000036
 31
0.0
  0
LINE
  5
1F19
330
17
100
AcDbEntity
  8
0
100
AcDbLine
 10
-0.6110668080229509
 20
-0.0000000000000089
 30
0.0
 11
-0.6110668080229509
 21
0.0937500000000053
 31
0.0
  0
ARC
  5
1F1A
330
17
100
AcDbEntity
  8
0
100
AcDbCircle
 10
2.58740632807093
 20
-0.1956162271007571
 30
0.0
 40
0.7698388664400567
100
AcDbArc
 50
14.72027564700444
 51
47.93157055345768
  0
ARC
  5
1F1B
330
17
100
AcDbEntity
  8
0
100
AcDbCircle
 10
4.072881894231475
 20
4.002394077711195
 30
0.0
 40
3.249999999999986
100
AcDbArc
 50
180.0
 51
225.0000000000006
  0
CIRCLE
  5
1F1C
330
17
100
AcDbEntity
  8
0
100
AcDbCircle
 10
0.1353818942314753
 20
1.875000000000121
 30
0.0
 40
0.1325
  0
CIRCLE
  5
1F1D
330
17
100
AcDbEntity
  8
0
100
AcDbCircle
 10
0.1353818942314753
 20
4.375000000000121
 30
0.0
 40
0.1325
  0
ARC
  5
1F1E
330
17
100
AcDbEntity
  8
0
100
AcDbCircle
 10
-0.8646181057686952
 20
3.531250000001286
 30
0.0
 40
0.25
100
AcDbArc
 50
272.5226411619115
 51
87.47735883808848
  0
LINE
  5
1F1F
330
17
100
AcDbEntity
  8
0
100
AcDbLine
 10
0.8228818942314895
 20
4.541923304701985
 30
0.0
 11
0.8228818942314895
 21
4.002394077711191
 31
0.0
  0
ARC
  5
1F20
330
17
100
AcDbEntity
  8
0
100
AcDbCircle
 10
0.6353818942314895
 20
4.957976695295265
 30
0.0
 40
0.1249999999999822
100
AcDbArc
 50
180.0000000000131
 51
225.0000000000104
  0
LINE
  5
1F21
330
17
100
AcDbEntity
  8
0
100
AcDbLine
 10
0.5469935465831846
 20
4.869588347646928
 30
0.0
 11
0.7862702418798087
 21
4.63031165235029
 31
0.0
  0
ARC
  5
1F22
330
17
100
AcDbEntity
  8
0
100
AcDbCircle
 10
0.6978818942314753
 20
4.541923304702017
 30
0.0
 40
0.1249999999999759
100
AcDbArc
 50
0.000000000000007
 51
45.00000000000288
  0
LINE
  5
1F23
330
17
100
AcDbEntity
  8
0
100
AcDbLine
 10
0.5103818942315037
 20
4.957976695295237
 30
0.0
 11
0.5103818942315037
 21
4.968750000000686
 31
0.0
  0
LINE
  5
1F3C
330
17
100
AcDbEntity
  8
0
100
AcDbLine
 10
-0.9473645631027488
 20
6.979523304705559
 30
0.0
 11
0.5103818942314753
 21
6.97952330470557
 31
0.0
  0
CIRCLE
  5
1F3D
330
17
100
AcDbEntity
  8
0
100
AcDbCircle
 10
0.1353818942314753
 20
6.385773304705573
 30
0.0
 40
0.1325
  0
LINE
  5
1F3E
330
17
100
AcDbEntity
  8
0
100
AcDbLine
 10
0.5469935465831988
 20
6.880361652352381
 30
0.0
 11
0.7862702418798371
 21
6.641084957055742
 31
0.0
  0
LINE
  5
1F3F
330
17
100
AcDbEntity
  8
0
100
AcDbLine
 10
0.8228818942315179
 20
6.552696609407409
 30
0.0
 11
0.8228818942315037
 21
6.031250000000686
 31
0.0
  0
ARC
  5
1F40
330
17
100
AcDbEntity
  8
0
100
AcDbCircle
 10
0.6353818942315179
 20
5.615196609407413
 30
0.0
 40
0.1250000000000211
100
AcDbArc
 50
134.9999999999994
 51
180.0
  0
LINE
  5
1F41
330
17
100
AcDbEntity
  8
0
100
AcDbLine
 10
0.7862702418798229
 20
5.942861652352381
 30
0.0
 11
0.5469935465831846
 21
5.703584957055742
 31
0.0
  0
ARC
  5
1F42
330
17
100
AcDbEntity
  8
0
100
AcDbCircle
 10
0.6978818942315179
 20
6.031250000000718
 30
0.0
 40
0.1249999999999822
100
AcDbArc
 50
314.9999999999897
 51
359.999999999987
  0
ARC
  5
1F43
330
17
100
AcDbEntity
  8
0
100
AcDbCircle
 10
0.6978818942315037
 20
6.552696609407413
 30
0.0
 40
0.1250000000000211
100
AcDbArc
 50
0.000000000000007
 51
45.00000000000059
  0
ARC
  5
1F44
330
17
100
AcDbEntity
  8
0
100
AcDbCircle
 10
0.6353818942314895
 20
6.968750000000718
 30
0.0
 40
0.1249999999999787
100
AcDbArc
 50
180.0000000000131
 51
225.0000000000122
  0
ENDSEC
  0
SECTION
  2
OBJECTS
  0
DICTIONARY
  5
C
330
0
100
AcDbDictionary
281
     1
  3
ACAD_COLOR
350
1F95
  3
ACAD_GROUP
350
D
  3
ACAD_LAYOUT
350
D3E
  3
ACAD_MATERIAL
350
1F94
  3
ACAD_MLINESTYLE
350
1A
  3
ACAD_PLOTSETTINGS
350
D3F
  3
ACAD_PLOTSTYLENAME
350
D3C
  3
ACAD_TABLESTYLE
350
1F96
  3
ACDBHEADERROUNDTRIPXREC
350
1FDA
  3
ACDBVARIABLEDICTIONARY
350
57
  0
DICTIONARY
  5
D6E
330
17
100
AcDbDictionary
280
     1
281
     1
  3
ACAD_SORTENTS
360
1FA3
  0
DICTIONARY
  5
1F95
102
{ACAD_REACTORS
330
C
102
}
330
C
100
AcDbDictionary
281
     1
  0
DICTIONARY
  5
D
102
{ACAD_REACTORS
330
C
102
}
330
C
100
AcDbDictionary
281
     1
  0
DICTIONARY
  5
D3E
102
{ACAD_REACTORS
330
C
102
}
330
C
100
AcDbDictionary
281
     1
  3
Layout1
350
D41
  3
Model
350
D40
  0
DICTIONARY
  5
1F94
102
{ACAD_REACTORS
330
C
102
}
330
C
100
AcDbDictionary
281
     1
  0
DICTIONARY
  5
1A
102
{ACAD_REACTORS
330
C
102
}
330
C
100
AcDbDictionary
281
     1
  3
STANDARD
350
1B
  0
DICTIONARY
  5
D3F
102
{ACAD_REACTORS
330
C
102
}
330
C
100
AcDbDictionary
281
     1
  0
ACDBDICTIONARYWDFLT
  5
D3C
102
{ACAD_REACTORS
330
C
102
}
330
C
100
AcDbDictionary
281
     1
  3
Normal
350
D3D
100
AcDbDictionaryWithDefault
340
D3D
  0
DICTIONARY
  5
1F96
102
{ACAD_REACTORS
330
C
102
}
330
C
100
AcDbDictionary
281
     1
  3
Standard
350
1F97
  0
DICTIONARY
  5
1FDA
102
{ACAD_REACTORS
330
C
102
}
330
C
100
AcDbDictionary
281
     1
  3
COLORDICT
350
1FDB
  3
MATERIALDICT
350
1FDC
  0
DICTIONARY
  5
57
102
{ACAD_REACTORS
330
C
102
}
330
C
100
AcDbDictionary
281
     1
  3
CTABLESTYLE
350
1FC8
  3
DIMADEC
350
58
  0
SORTENTSTABLE
  5
1FA3
102
{ACAD_REACTORS
330
D6E
102
}
330
D6E
100
AcDbSortentsTable
330
17
331
0
  5
1F81
331
505
  5
505
331
52F
  5
52F
331
1F18
  5
1F18
331
1F19
  5
1F19
331
41D
  5
41D
331
49C
  5
49C
331
49B
  5
49B
331
3C9
  5
3C9
331
544
  5
544
331
1F1A
  5
1F1A
331
1F3C
  5
1F56
331
1F3D
  5
1F57
331
5C2
  5
5C2
331
4C6
  5
4C6
331
3DE
  5
3DE
331
432
  5
432
331
4B1
  5
4B1
331
1F1B
  5
1F1B
331
5AD
  5
5AD
331
583
  5
583
331
1F23
  5
1F23
331
1F0E
  5
1F0E
331
1F15
  5
1F15
331
7A7
  5
7A7
331
5D7
  5
5D7
331
598
  5
598
331
1F0C
  5
1F0C
331
73C
  5
73C
331
1F20
  5
1F20
331
1F21
  5
1F21
331
1F22
  5
1F22
331
1F1E
  5
1F1E
331
1F1C
  5
1F1C
331
1F1D
  5
1F1D
331
1F42
  5
1F5C
331
3F3
  5
3F3
331
447
  5
447
331
4DB
  5
4DB
331
51A
  5
51A
331
5EC
  5
5EC
331
1F3F
  5
1F59
331
1F3E
  5
1F58
331
471
  5
471
331
1F17
  5
1F17
331
1F1F
  5
1F1F
331
486
  5
486
331
1F16
  5
1F16
331
56E
  5
56E
331
4F0
  5
4F0
331
1F44
  5
1F5E
331
408
  5
408
331
1F40
  5
1F5A
331
1F41
  5
1F5B
331
1F0D
  5
1F0D
331
1F43
  5
1F5D
331
601
  5
601
331
45C
  5
45C
331
559
  5
559
  0
LAYOUT
  5
D41
102
{ACAD_REACTORS
330
D3E
102
}
102
{ACAD_XDICTIONARY
360
1FDD
102
}
330
D3E
100
AcDbPlotSettings
  1

  2
HP LaserJet 2100 Series PS
  4

  6

 40
0.0
 41
0.0
 42
0.0
 43
0.0
 44
0.0
 45
0.0
 46
0.0
 47
0.0
 48
0.0
 49
0.0
140
0.0
141
0.0
142
1.0
143
1.0
 70
   688
 72
     0
 73
     0
 74
     5
  7

 75
    16
147
1.0
148
0.0
149
0.0
100
AcDbLayout
  1
Layout1
 70
     0
 71
     1
 10
0.0
 20
0.0
 11
12.0
 21
9.0
 12
0.0
 22
0.0
 32
0.0
 14
1.000000000000000E+20
 24
1.000000000000000E+20
 34
1.000000000000000E+20
 15
-1.000000000000000E+20
 25
-1.000000000000000E+20
 35
-1.000000000000000E+20
146
0.0
 13
0.0
 23
0.0
 33
0.0
 16
1.0
 26
0.0
 36
0.0
 17
0.0
 27
1.0
 37
0.0
 76
     0
330
14
  0
LAYOUT
  5
D40
102
{ACAD_REACTORS
330
D3E
102
}
102
{ACAD_XDICTIONARY
360
1FDF
102
}
330
D3E
100
AcDbPlotSettings
  1

  2
HP LaserJet 2100 Series PS
  4
Letter
  6

 40
5.365749835968018
 41
5.408073902130127
 42
5.132904052734375
 43
5.090576171875
 44
215.8999938964844
 45
279.3999938964844
 46
0.0
 47
0.0
 48
0.0
 49
0.0
140
42.0
141
31.35714282184351
142
1.0
143
3.967254253308121
 70
 11952
 72
     0
 73
     1
 74
     2
  7

 75
     0
147
0.2520635018958373
148
0.0
149
0.0
100
AcDbLayout
  1
Model
 70
     1
 71
     0
 10
0.0
 20
0.0
 11
12.0
 21
9.0
 12
0.0
 22
0.0
 32
0.0
 14
0.0
 24
0.0
 34
0.0
 15
0.0
 25
0.0
 35
0.0
146
0.0
 13
0.0
 23
0.0
 33
0.0
 16
1.0
 26
0.0
 36
0.0
 17
0.0
 27
1.0
 37
0.0
 76
     0
330
17
  0
MLINESTYLE
  5
1B
102
{ACAD_REACTORS
330
1A
102
}
330
1A
100
AcDbMlineStyle
  2
STANDARD
 70
     0
  3

 62
   256
 51
90.0
 52
90.0
 71
     2
 49
0.5
 62
   256
  6
BYLAYER
 49
-0.5
 62
   256
  6
BYLAYER
  0
ACDBPLACEHOLDER
  5
D3D
102
{ACAD_REACTORS
330
D3C
102
}
330
D3C
  0
ACAD_PROXY_OBJECT
  5
1F97
102
{ACAD_REACTORS
330
1F96
102
}
330
1F96
100
AcDbProxyObject
 90
      499
 91
      538
 95
   983063
 70
     0
 93
     1841
310
4214DD185B99185C9928B81E85EB51B8AE3F2E07A17AD46E2B8FC02B5E8DC0F42B1CFD028000000C1008070000C3001FDFF8000000C1003FBFF000000182007F7FE00000030400FEFFC00000060801FDFF8000000C1003FBFF00000018200000000000000681FA0B0000001820100E000186003FBFF000000182007F7FE000
310
00030400FEFFC00000060801FDFF8000000C1003FBFF000000182007F7FE000000304000AD7A3703D0AC73F4160000003040201C00030C007F7FE00000030400FEFFC00000060801FDFF8000000C1003FBFF000000182007F7FE00000030400FEFFC000000608000
340
F
340
F
340
F
 94
        0
  0
XRECORD
  5
1FDB
102
{ACAD_REACTORS
330
1FDA
102
}
330
1FDA
100
AcDbXrecord
340
1F95
  0
XRECORD
  5
1FDC
102
{ACAD_REACTORS
330
1FDA
102
}
330
1FDA
100
AcDbXrecord
340
1F94
  0
DICTIONARYVAR
  5
1FC8
102
{ACAD_REACTORS
330
57
102
}
330
57
100
DictionaryVariables
280
     0
  1
STANDARD
  0
DICTIONARYVAR
  5
58
102
{ACAD_REACTORS
330
57
102
}
330
57
100
DictionaryVariables
280
     0
  1
0
  0
DICTIONARY
  5
1FDD
330
D41
100
AcDbDictionary
280
     1
281
     1
  3
ACAD_XREC_ROUNDTRIP
360
1FDE
  0
DICTIONARY
  5
1FDF
330
D40
100
AcDbDictionary
280
     1
281
     1
  3
ACAD_XREC_ROUNDTRIP
360
1FE0
  0
XRECORD
  5
1FDE
102
{ACAD_REACTORS
330
1FDD
102
}
330
1FDD
100
AcDbXrecord
102
SHADEPLOT
 70
     0
102
SHADEPLOTRESLEVEL
 70
     2
102
SHADEPLOTCUSTOMDPI
 70
   300
  0
XRECORD
  5
1FE0
102
{ACAD_REACTORS
330
1FDF
102
}
330
1FDF
100
AcDbXrecord
102
SHADEPLOT
 70
     0
102
SHADEPLOTRESLEVEL
 70
     2
102
SHADEPLOTCUSTOMDPI
 70
   300
  0
ENDSEC
  0
EOF
