  0
SECTION
  2
HEADER
  9
$ACADVER
  1
AC1015
  9
$ACADMAINTVER
 70
    20
  9
$DWGCODEPAGE
  3
ANSI_1252
  9
$INSBASE
 10
0.0
 20
0.0
 30
0.0
  9
$EXTMIN
 10
0.4999999999999984
 20
0.4999999999999999
 30
0.0
  9
$EXTMAX
 10
21.5
 20
16.5
 30
0.0
  9
$LIMMIN
 10
0.0
 20
0.0
  9
$LIMMAX
 10
22.0
 20
17.0
  9
$ORTHOMODE
 70
     0
  9
$REGENMODE
 70
     1
  9
$FILLMODE
 70
     1
  9
$QTEXTMODE
 70
     0
  9
$MIRRTEXT
 70
     0
  9
$LTSCALE
 40
1.0
  9
$ATTMODE
 70
     1
  9
$TEXTSIZE
 40
0.2
  9
$TRACEWID
 40
0.05
  9
$TEXTSTYLE
  7
Standard
  9
$CLAYER
  8
0
  9
$CELTYPE
  6
ByLayer
  9
$CECOLOR
 62
   256
  9
$CELTSCALE
 40
1.0
  9
$DISPSILH
 70
     0
  9
$DIMSCALE
 40
1.0
  9
$DIMASZ
 40
0.0708661417322835
  9
$DIMEXO
 40
0.0625
  9
$DIMDLI
 40
0.38
  9
$DIMRND
 40
0.0
  9
$DIMDLE
 40
0.0
  9
$DIMEXE
 40
0.18
  9
$DIMTP
 40
0.0
  9
$DIMTM
 40
0.0
  9
$DIMTXT
 40
0.0708661417322835
  9
$DIMCEN
 40
0.09
  9
$DIMTSZ
 40
0.0
  9
$DIMTOL
 70
     0
  9
$DIMLIM
 70
     0
  9
$DIMTIH
 70
     1
  9
$DIMTOH
 70
     1
  9
$DIMSE1
 70
     0
  9
$DIMSE2
 70
     0
  9
$DIMTAD
 70
     0
  9
$DIMZIN
 70
     0
  9
$DIMBLK
  1

  9
$DIMASO
 70
     1
  9
$DIMSHO
 70
     1
  9
$DIMPOST
  1

  9
$DIMAPOST
  1

  9
$DIMALT
 70
     0
  9
$DIMALTD
 70
     2
  9
$DIMALTF
 40
25.4
  9
$DIMLFAC
 40
1.0
  9
$DIMTOFL
 70
     0
  9
$DIMTVP
 40
0.0
  9
$DIMTIX
 70
     0
  9
$DIMSOXD
 70
     0
  9
$DIMSAH
 70
     0
  9
$DIMBLK1
  1

  9
$DIMBLK2
  1

  9
$DIMSTYLE
  2
Standard
  9
$DIMCLRD
 70
     0
  9
$DIMCLRE
 70
     0
  9
$DIMCLRT
 70
     0
  9
$DIMTFAC
 40
1.0
  9
$DIMGAP
 40
0.09
  9
$DIMJUST
 70
     0
  9
$DIMSD1
 70
     0
  9
$DIMSD2
 70
     0
  9
$DIMTOLJ
 70
     1
  9
$DIMTZIN
 70
     0
  9
$DIMALTZ
 70
     0
  9
$DIMALTTZ
 70
     0
  9
$DIMUPT
 70
     0
  9
$DIMDEC
 70
     4
  9
$DIMTDEC
 70
     4
  9
$DIMALTU
 70
     2
  9
$DIMALTTD
 70
     2
  9
$DIMTXSTY
  7
Standard
  9
$DIMAUNIT
 70
     0
  9
$DIMADEC
 70
     0
  9
$DIMALTRND
 40
0.0
  9
$DIMAZIN
 70
     0
  9
$DIMDSEP
 70
    46
  9
$DIMATFIT
 70
     3
  9
$DIMFRAC
 70
     0
  9
$DIMLDRBLK
  1

  9
$DIMLUNIT
 70
     2
  9
$DIMLWD
 70
    -2
  9
$DIMLWE
 70
    -2
  9
$DIMTMOVE
 70
     0
  9
$LUNITS
 70
     2
  9
$LUPREC
 70
     4
  9
$SKETCHINC
 40
0.1
  9
$FILLETRAD
 40
0.0
  9
$AUNITS
 70
     0
  9
$AUPREC
 70
     0
  9
$MENU
  1
.
  9
$ELEVATION
 40
0.0
  9
$PELEVATION
 40
0.0
  9
$THICKNESS
 40
0.0
  9
$LIMCHECK
 70
     0
  9
$CHAMFERA
 40
0.0
  9
$CHAMFERB
 40
0.0
  9
$CHAMFERC
 40
0.0
  9
$CHAMFERD
 40
0.0
  9
$SKPOLY
 70
     0
  9
$TDCREATE
 40
2456038.568958600
  9
$TDUCREATE
 40
2456038.860625266
  9
$TDUPDATE
 40
2456038.590524294
  9
$TDUUPDATE
 40
2456038.882190961
  9
$TDINDWG
 40
0.0012348727
  9
$TDUSRTIMER
 40
0.0012348727
  9
$USRTIMER
 70
     1
  9
$ANGBASE
 50
0.0
  9
$ANGDIR
 70
     0
  9
$PDMODE
 70
     0
  9
$PDSIZE
 40
0.0
  9
$PLINEWID
 40
0.0
  9
$SPLFRAME
 70
     0
  9
$SPLINETYPE
 70
     6
  9
$SPLINESEGS
 70
     8
  9
$HANDSEED
  5
3D4
  9
$SURFTAB1
 70
     6
  9
$SURFTAB2
 70
     6
  9
$SURFTYPE
 70
     6
  9
$SURFU
 70
     6
  9
$SURFV
 70
     6
  9
$UCSBASE
  2

  9
$UCSNAME
  2

  9
$UCSORG
 10
0.0
 20
0.0
 30
0.0
  9
$UCSXDIR
 10
1.0
 20
0.0
 30
0.0
  9
$UCSYDIR
 10
0.0
 20
1.0
 30
0.0
  9
$UCSORTHOREF
  2

  9
$UCSORTHOVIEW
 70
     0
  9
$UCSORGTOP
 10
0.0
 20
0.0
 30
0.0
  9
$UCSORGBOTTOM
 10
0.0
 20
0.0
 30
0.0
  9
$UCSORGLEFT
 10
0.0
 20
0.0
 30
0.0
  9
$UCSORGRIGHT
 10
0.0
 20
0.0
 30
0.0
  9
$UCSORGFRONT
 10
0.0
 20
0.0
 30
0.0
  9
$UCSORGBACK
 10
0.0
 20
0.0
 30
0.0
  9
$PUCSBASE
  2

  9
$PUCSNAME
  2

  9
$PUCSORG
 10
0.0
 20
0.0
 30
0.0
  9
$PUCSXDIR
 10
1.0
 20
0.0
 30
0.0
  9
$PUCSYDIR
 10
0.0
 20
1.0
 30
0.0
  9
$PUCSORTHOREF
  2

  9
$PUCSORTHOVIEW
 70
     0
  9
$PUCSORGTOP
 10
0.0
 20
0.0
 30
0.0
  9
$PUCSORGBOTTOM
 10
0.0
 20
0.0
 30
0.0
  9
$PUCSORGLEFT
 10
0.0
 20
0.0
 30
0.0
  9
$PUCSORGRIGHT
 10
0.0
 20
0.0
 30
0.0
  9
$PUCSORGFRONT
 10
0.0
 20
0.0
 30
0.0
  9
$PUCSORGBACK
 10
0.0
 20
0.0
 30
0.0
  9
$USERI1
 70
     0
  9
$USERI2
 70
     0
  9
$USERI3
 70
     0
  9
$USERI4
 70
     0
  9
$USERI5
 70
     0
  9
$USERR1
 40
0.0
  9
$USERR2
 40
0.0
  9
$USERR3
 40
0.0
  9
$USERR4
 40
0.0
  9
$USERR5
 40
0.0
  9
$WORLDVIEW
 70
     1
  9
$SHADEDGE
 70
     3
  9
$SHADEDIF
 70
    70
  9
$TILEMODE
 70
     1
  9
$MAXACTVP
 70
    64
  9
$PINSBASE
 10
0.0
 20
0.0
 30
0.0
  9
$PLIMCHECK
 70
     0
  9
$PEXTMIN
 10
0.0
 20
0.0
 30
0.0
  9
$PEXTMAX
 10
22.0
 20
17.0
 30
0.0
  9
$PLIMMIN
 10
0.0
 20
0.0
  9
$PLIMMAX
 10
22.0
 20
17.0
  9
$UNITMODE
 70
     0
  9
$VISRETAIN
 70
     1
  9
$PLINEGEN
 70
     0
  9
$PSLTSCALE
 70
     1
  9
$TREEDEPTH
 70
  3020
  9
$CMLSTYLE
  2
Standard
  9
$CMLJUST
 70
     0
  9
$CMLSCALE
 40
1.0
  9
$PROXYGRAPHICS
 70
     1
  9
$MEASUREMENT
 70
     0
  9
$CELWEIGHT
370
    -1
  9
$ENDCAPS
280
     0
  9
$JOINSTYLE
280
     0
  9
$LWDISPLAY
290
     0
  9
$INSUNITS
 70
     1
  9
$HYPERLINKBASE
  1

  9
$STYLESHEET
  1

  9
$XEDIT
290
     1
  9
$CEPSNTYPE
380
     0
  9
$PSTYLEMODE
290
     1
  9
$FINGERPRINTGUID
  2
{29AA0D8A-3298-4EE1-A7B7-9652A2BEC630}
  9
$VERSIONGUID
  2
{49B8C443-7A2C-4907-A3E7-1903ACA1488B}
  9
$EXTNAMES
290
     1
  9
$PSVPSCALE
 40
0.0
  9
$OLESTARTUP
290
     0
  0
ENDSEC
  0
SECTION
  2
CLASSES
  0
CLASS
  1
ACDBDICTIONARYWDFLT
  2
AcDbDictionaryWithDefault
  3
ObjectDBX Classes
 90
        0
280
     0
281
     0
  0
CLASS
  1
MATERIAL
  2
AcDbMaterial
  3
ObjectDBX Classes
 90
     1153
280
     0
281
     0
  0
CLASS
  1
VISUALSTYLE
  2
AcDbVisualStyle
  3
ObjectDBX Classes
 90
     4095
280
     0
281
     0
  0
CLASS
  1
SCALE
  2
AcDbScale
  3
ObjectDBX Classes
 90
     1153
280
     0
281
     0
  0
CLASS
  1
TABLESTYLE
  2
AcDbTableStyle
  3
ObjectDBX Classes
 90
     4095
280
     0
281
     0
  0
CLASS
  1
MLEADERSTYLE
  2
AcDbMLeaderStyle
  3
ACDB_MLEADERSTYLE_CLASS
 90
     4095
280
     0
281
     0
  0
CLASS
  1
DICTIONARYVAR
  2
AcDbDictionaryVar
  3
ObjectDBX Classes
 90
        0
280
     0
281
     0
  0
CLASS
  1
CELLSTYLEMAP
  2
AcDbCellStyleMap
  3
ObjectDBX Classes
 90
     1152
280
     0
281
     0
  0
CLASS
  1
ACDBPLACEHOLDER
  2
AcDbPlaceHolder
  3
ObjectDBX Classes
 90
        0
280
     0
281
     0
  0
CLASS
  1
LAYOUT
  2
AcDbLayout
  3
ObjectDBX Classes
 90
        0
280
     0
281
     0
  0
ENDSEC
  0
SECTION
  2
TABLES
  0
TABLE
  2
VPORT
  5
8
102
{ACAD_XDICTIONARY
360
347
102
}
330
0
100
AcDbSymbolTable
 70
     1
  0
VPORT
  5
57
330
8
100
AcDbSymbolTableRecord
100
AcDbViewportTableRecord
  2
*Active
 70
     0
 10
0.0
 20
0.0
 11
1.0
 21
1.0
 12
17.8754889178618
 22
8.5
 13
0.0
 23
0.0
 14
1.0
 24
1.0
 15
0.0
 25
0.0
 16
0.0
 26
0.0
 36
1.0
 17
0.0
 27
0.0
 37
0.0
 40
17.01005100807178
 41
2.102998696219035
 42
50.0
 43
0.0
 44
0.0
 50
0.0
 51
0.0
 71
     0
 72
   100
 73
     1
 74
     1
 75
     0
 76
     0
 77
     0
 78
     0
281
     0
 65
     1
110
0.0
120
0.0
130
0.0
111
1.0
121
0.0
131
0.0
112
0.0
122
1.0
132
0.0
 79
     0
146
0.0
1001
ACAD_NAV_VCDISPLAY
1070
     3
  0
ENDTAB
  0
TABLE
  2
LTYPE
  5
5
330
0
100
AcDbSymbolTable
 70
    59
  0
LTYPE
  5
5B
330
5
100
AcDbSymbolTableRecord
100
AcDbLinetypeTableRecord
  2
ByBlock
 70
     0
  3

 72
    65
 73
     0
 40
0.0
  0
LTYPE
  5
5C
330
5
100
AcDbSymbolTableRecord
100
AcDbLinetypeTableRecord
  2
ByLayer
 70
     0
  3

 72
    65
 73
     0
 40
0.0
  0
LTYPE
  5
5D
330
5
100
AcDbSymbolTableRecord
100
AcDbLinetypeTableRecord
  2
Continuous
 70
     0
  3
Solid line
 72
    65
 73
     0
 40
0.0
  0
LTYPE
  5
7C
330
5
100
AcDbSymbolTableRecord
100
AcDbLinetypeTableRecord
  2
BY_STANDARD
 70
     0
  3
By Standard ____________    ____    ____   _
 72
    65
 73
     6
 40
1.240299999999999
 49
0.6614
 74
     0
 49
-0.0827
 74
     0
 49
0.1654
 74
     0
 49
-0.0827
 74
     0
 49
0.1654
 74
     0
 49
-0.0827
 74
     0
  0
LTYPE
  5
7D
330
5
100
AcDbSymbolTableRecord
100
AcDbLinetypeTableRecord
  2
CHAIN
 70
     0
  3
Chain ____ _ ____ _ ____ _ ____ _ ____ _ ____
 72
    65
 73
     4
 40
0.7087
 49
0.4724000000000001
 74
     0
 49
-0.0591
 74
     0
 49
0.1181
 74
     0
 49
-0.0591
 74
     0
  0
LTYPE
  5
7E
330
5
100
AcDbSymbolTableRecord
100
AcDbLinetypeTableRecord
  2
DASH_DOT
 70
     0
  3
Dash dot __ . __ . __ . __ . __ . __ . __ . __
 72
    65
 73
     4
 40
0.37
 49
0.24
 74
     0
 49
-0.06
 74
     0
 49
0.01
 74
     0
 49
-0.06
 74
     0
  0
LTYPE
  5
7F
330
5
100
AcDbSymbolTableRecord
100
AcDbLinetypeTableRecord
  2
DOUBLE_DASH_DOT
 70
     0
  3
Double-Dash Dot __ __ . __ __ . __ __ . __ _
 72
    65
 73
     6
 40
0.4398
 49
0.24
 74
     0
 49
-0.06
 74
     0
 49
0.0098
 74
     0
 49
-0.06
 74
     0
 49
0.01
 74
     0
 49
-0.06
 74
     0
  0
LTYPE
  5
80
330
5
100
AcDbSymbolTableRecord
100
AcDbLinetypeTableRecord
  2
DASH_TRIPLE_DOT
 70
     0
  3
Dash Triple-Dot _ . . . _ . . . _ . . . _
 72
    65
 73
     8
 40
0.51
 49
0.24
 74
     0
 49
-0.06
 74
     0
 49
0.01
 74
     0
 49
-0.06
 74
     0
 49
0.01
 74
     0
 49
-0.06
 74
     0
 49
0.01
 74
     0
 49
-0.06
 74
     0
  0
LTYPE
  5
81
330
5
100
AcDbSymbolTableRecord
100
AcDbLinetypeTableRecord
  2
DASHED
 70
     0
  3
Dashed __ __ __ __ __ __ __ __ __ __ __ __ __ _
 72
    65
 73
     2
 40
0.2067
 49
0.1654
 74
     0
 49
-0.0413
 74
     0
  0
LTYPE
  5
82
330
5
100
AcDbSymbolTableRecord
100
AcDbLinetypeTableRecord
  2
DASH_DOUBLE_DOT
 70
     0
  3
Dash Double-Dot __ . . __ . . __ . . __ . .
 72
    65
 73
     6
 40
0.4398
 49
0.24
 74
     0
 49
-0.06
 74
     0
 49
0.0098
 74
     0
 49
-0.06
 74
     0
 49
0.01
 74
     0
 49
-0.06
 74
     0
  0
LTYPE
  5
83
330
5
100
AcDbSymbolTableRecord
100
AcDbLinetypeTableRecord
  2
DASHED_SPACE
 70
     0
  3
Dashed Space __ __ __ __ __ __ __ __ __ __ __ _
 72
    65
 73
     2
 40
0.2067
 49
0.1654
 74
     0
 49
-0.0413
 74
     0
  0
LTYPE
  5
84
330
5
100
AcDbSymbolTableRecord
100
AcDbLinetypeTableRecord
  2
DOTTED
 70
     0
  3
Dotted . . . . . . . . . . . . . . . . . . . . 
 72
    65
 73
     2
 40
0.0482
 49
0.0069
 74
     0
 49
-0.0413
 74
     0
  0
LTYPE
  5
85
330
5
100
AcDbSymbolTableRecord
100
AcDbLinetypeTableRecord
  2
DOUBLE_DASH_CHAIN
 70
     0
  3
Double-Dash Chain ______  __  __  ______  __  _
 72
    65
 73
     6
 40
1.240299999999999
 49
0.6614
 74
     0
 49
-0.0827
 74
     0
 49
0.1654
 74
     0
 49
-0.0827
 74
     0
 49
0.1654
 74
     0
 49
-0.0827
 74
     0
  0
LTYPE
  5
87
330
5
100
AcDbSymbolTableRecord
100
AcDbLinetypeTableRecord
  2
DOUBLE_DASH_DOUBLE_DOT
 70
     0
  3
Double-Dash Double-dot _ _ . . _ _ . . _
 72
    65
 73
     8
 40
0.7400000000000001
 49
0.24
 74
     0
 49
-0.06
 74
     0
 49
0.24
 74
     0
 49
-0.06
 74
     0
 49
0.01
 74
     0
 49
-0.06
 74
     0
 49
0.01
 74
     0
 49
-0.06
 74
     0
  0
LTYPE
  5
88
330
5
100
AcDbSymbolTableRecord
100
AcDbLinetypeTableRecord
  2
DOUBLE_DASH_TRIPLE_DOT
 70
     0
  3
Double Dash Triple Dot __ __ . . . __ __ . .
 72
    65
 73
    10
 40
0.8100000000000001
 49
0.24
 74
     0
 49
-0.06
 74
     0
 49
0.24
 74
     0
 49
-0.06
 74
     0
 49
0.01
 74
     0
 49
-0.06
 74
     0
 49
0.01
 74
     0
 49
-0.06
 74
     0
 49
0.01
 74
     0
 49
-0.06
 74
     0
  0
LTYPE
  5
89
330
5
100
AcDbSymbolTableRecord
100
AcDbLinetypeTableRecord
  2
LONG_DASH_DOTTED
 70
     0
  3
Long Dash Dotted ____ . ____ . ____ . ____ . _
 72
    65
 73
     4
 40
0.3543
 49
0.2362
 74
     0
 49
-0.0295
 74
     0
 49
0.0591
 74
     0
 49
-0.0295
 74
     0
  0
LTYPE
  5
8A
330
5
100
AcDbSymbolTableRecord
100
AcDbLinetypeTableRecord
  2
LONG_DASH_DOUBLE_DOT
 70
     0
  3
Long Dash Double Dot ________  .  .  ________  
 72
    65
 73
     6
 40
0.6799999999999999
 49
0.48
 74
     0
 49
-0.06
 74
     0
 49
0.01
 74
     0
 49
-0.06
 74
     0
 49
0.01
 74
     0
 49
-0.06
 74
     0
  0
LTYPE
  5
8B
330
5
100
AcDbSymbolTableRecord
100
AcDbLinetypeTableRecord
  2
LONG_DASH_TRIPLE_DOT
 70
     0
  3
Long Dash Triple Dot ____ ... ____ ... ____
 72
    65
 73
     8
 40
0.3689
 49
0.2362
 74
     0
 49
-0.0295
 74
     0
 49
0.0049
 74
     0
 49
-0.0295
 74
     0
 49
0.0049
 74
     0
 49
-0.0295
 74
     0
 49
0.0049
 74
     0
 49
-0.0295
 74
     0
  0
LTYPE
  5
8C
330
5
100
AcDbSymbolTableRecord
100
AcDbLinetypeTableRecord
  2
BORDER
 70
     0
  3
Border __ __ . __ __ . __ __ . __ __ . __ __ .
 72
    65
 73
     6
 40
1.75
 49
0.5
 74
     0
 49
-0.25
 74
     0
 49
0.5
 74
     0
 49
-0.25
 74
     0
 49
0.0
 74
     0
 49
-0.25
 74
     0
  0
LTYPE
  5
8D
330
5
100
AcDbSymbolTableRecord
100
AcDbLinetypeTableRecord
  2
BORDER2
 70
     0
  3
Border (.5x) __.__.__.__.__.__.__.__.__.__.__.
 72
    65
 73
     6
 40
0.875
 49
0.25
 74
     0
 49
-0.125
 74
     0
 49
0.25
 74
     0
 49
-0.125
 74
     0
 49
0.0
 74
     0
 49
-0.125
 74
     0
  0
LTYPE
  5
8E
330
5
100
AcDbSymbolTableRecord
100
AcDbLinetypeTableRecord
  2
BORDERX2
 70
     0
  3
Border (2x) ____  ____  .  ____  ____  .  ___
 72
    65
 73
     6
 40
3.5
 49
1.0
 74
     0
 49
-0.5
 74
     0
 49
1.0
 74
     0
 49
-0.5
 74
     0
 49
0.0
 74
     0
 49
-0.5
 74
     0
  0
LTYPE
  5
8F
330
5
100
AcDbSymbolTableRecord
100
AcDbLinetypeTableRecord
  2
CENTER
 70
     0
  3
Center ____ _ ____ _ ____ _ ____ _ ____ _ ____
 72
    65
 73
     4
 40
2.0
 49
1.25
 74
     0
 49
-0.25
 74
     0
 49
0.25
 74
     0
 49
-0.25
 74
     0
  0
LTYPE
  5
90
330
5
100
AcDbSymbolTableRecord
100
AcDbLinetypeTableRecord
  2
CENTER2
 70
     0
  3
Center (.5x) ___ _ ___ _ ___ _ ___ _ ___ _ ___
 72
    65
 73
     4
 40
1.125
 49
0.75
 74
     0
 49
-0.125
 74
     0
 49
0.125
 74
     0
 49
-0.125
 74
     0
  0
LTYPE
  5
91
330
5
100
AcDbSymbolTableRecord
100
AcDbLinetypeTableRecord
  2
CENTERX2
 70
     0
  3
Center (2x) ________  __  ________  __  _____
 72
    65
 73
     4
 40
4.0
 49
2.5
 74
     0
 49
-0.5
 74
     0
 49
0.5
 74
     0
 49
-0.5
 74
     0
  0
LTYPE
  5
92
330
5
100
AcDbSymbolTableRecord
100
AcDbLinetypeTableRecord
  2
DASHDOT2
 70
     0
  3
Dash dot (.5x) _._._._._._._._._._._._._._._.
 72
    65
 73
     4
 40
0.5
 49
0.25
 74
     0
 49
-0.125
 74
     0
 49
0.0
 74
     0
 49
-0.125
 74
     0
  0
LTYPE
  5
93
330
5
100
AcDbSymbolTableRecord
100
AcDbLinetypeTableRecord
  2
DASHDOTX2
 70
     0
  3
Dash dot (2x) ____  .  ____  .  ____  .  ___
 72
    65
 73
     4
 40
2.0
 49
1.0
 74
     0
 49
-0.5
 74
     0
 49
0.0
 74
     0
 49
-0.5
 74
     0
  0
LTYPE
  5
95
330
5
100
AcDbSymbolTableRecord
100
AcDbLinetypeTableRecord
  2
DASHED2
 70
     0
  3
Dashed (.5x) _ _ _ _ _ _ _ _ _ _ _ _ _ _ _ _ _
 72
    65
 73
     2
 40
0.375
 49
0.25
 74
     0
 49
-0.125
 74
     0
  0
LTYPE
  5
96
330
5
100
AcDbSymbolTableRecord
100
AcDbLinetypeTableRecord
  2
DASHEDX2
 70
     0
  3
Dashed (2x) ____  ____  ____  ____  ____  ___
 72
    65
 73
     2
 40
1.5
 49
1.0
 74
     0
 49
-0.5
 74
     0
  0
LTYPE
  5
97
330
5
100
AcDbSymbolTableRecord
100
AcDbLinetypeTableRecord
  2
DIVIDE
 70
     0
  3
Divide ____ . . ____ . . ____ . . ____ . . ____
 72
    65
 73
     6
 40
1.25
 49
0.5
 74
     0
 49
-0.25
 74
     0
 49
0.0
 74
     0
 49
-0.25
 74
     0
 49
0.0
 74
     0
 49
-0.25
 74
     0
  0
LTYPE
  5
98
330
5
100
AcDbSymbolTableRecord
100
AcDbLinetypeTableRecord
  2
DIVIDE2
 70
     0
  3
Divide (.5x) __..__..__..__..__..__..__..__.._
 72
    65
 73
     6
 40
0.625
 49
0.25
 74
     0
 49
-0.125
 74
     0
 49
0.0
 74
     0
 49
-0.125
 74
     0
 49
0.0
 74
     0
 49
-0.125
 74
     0
  0
LTYPE
  5
99
330
5
100
AcDbSymbolTableRecord
100
AcDbLinetypeTableRecord
  2
DIVIDEX2
 70
     0
  3
Divide (2x) ________  .  .  ________  .  .  _
 72
    65
 73
     6
 40
2.5
 49
1.0
 74
     0
 49
-0.5
 74
     0
 49
0.0
 74
     0
 49
-0.5
 74
     0
 49
0.0
 74
     0
 49
-0.5
 74
     0
  0
LTYPE
  5
9A
330
5
100
AcDbSymbolTableRecord
100
AcDbLinetypeTableRecord
  2
DOT
 70
     0
  3
Dot . . . . . . . . . . . . . . . . . . . . . .
 72
    65
 73
     2
 40
0.25
 49
0.0
 74
     0
 49
-0.25
 74
     0
  0
LTYPE
  5
9B
330
5
100
AcDbSymbolTableRecord
100
AcDbLinetypeTableRecord
  2
DOT2
 70
     0
  3
Dot (.5x) .....................................
 72
    65
 73
     2
 40
0.125
 49
0.0
 74
     0
 49
-0.125
 74
     0
  0
LTYPE
  5
9C
330
5
100
AcDbSymbolTableRecord
100
AcDbLinetypeTableRecord
  2
DOTX2
 70
     0
  3
Dot (2x) .  .  .  .  .  .  .  .  .  .  .  .  . 
 72
    65
 73
     2
 40
0.5
 49
0.0
 74
     0
 49
-0.5
 74
     0
  0
LTYPE
  5
9D
330
5
100
AcDbSymbolTableRecord
100
AcDbLinetypeTableRecord
  2
HIDDEN
 70
     0
  3
Hidden __ __ __ __ __ __ __ __ __ __ __ __ __ _
 72
    65
 73
     2
 40
0.375
 49
0.25
 74
     0
 49
-0.125
 74
     0
  0
LTYPE
  5
9E
330
5
100
AcDbSymbolTableRecord
100
AcDbLinetypeTableRecord
  2
HIDDEN2
 70
     0
  3
Hidden (.5x) _ _ _ _ _ _ _ _ _ _ _ _ _ _ _ _ _
 72
    65
 73
     2
 40
0.1875
 49
0.125
 74
     0
 49
-0.0625
 74
     0
  0
LTYPE
  5
9F
330
5
100
AcDbSymbolTableRecord
100
AcDbLinetypeTableRecord
  2
HIDDENX2
 70
     0
  3
Hidden (2x) ____ ____ ____ ____ ____ ____ ____
 72
    65
 73
     2
 40
0.75
 49
0.5
 74
     0
 49
-0.25
 74
     0
  0
LTYPE
  5
A0
330
5
100
AcDbSymbolTableRecord
100
AcDbLinetypeTableRecord
  2
PHANTOM
 70
     0
  3
Phantom ______  __  __  ______  __  __  ______
 72
    65
 73
     6
 40
2.5
 49
1.25
 74
     0
 49
-0.25
 74
     0
 49
0.25
 74
     0
 49
-0.25
 74
     0
 49
0.25
 74
     0
 49
-0.25
 74
     0
  0
LTYPE
  5
A1
330
5
100
AcDbSymbolTableRecord
100
AcDbLinetypeTableRecord
  2
PHANTOM2
 70
     0
  3
Phantom (.5x) ___ _ _ ___ _ _ ___ _ _ ___ _ _
 72
    65
 73
     6
 40
1.25
 49
0.625
 74
     0
 49
-0.125
 74
     0
 49
0.125
 74
     0
 49
-0.125
 74
     0
 49
0.125
 74
     0
 49
-0.125
 74
     0
  0
LTYPE
  5
A2
330
5
100
AcDbSymbolTableRecord
100
AcDbLinetypeTableRecord
  2
PHANTOMX2
 70
     0
  3
Phantom (2x) ____________    ____    ____   _
 72
    65
 73
     6
 40
5.0
 49
2.5
 74
     0
 49
-0.5
 74
     0
 49
0.5
 74
     0
 49
-0.5
 74
     0
 49
0.5
 74
     0
 49
-0.5
 74
     0
  0
LTYPE
  5
A3
330
5
100
AcDbSymbolTableRecord
100
AcDbLinetypeTableRecord
  2
ACAD_ISO02W100
 70
     0
  3
ISO dash __ __ __ __ __ __ __ __ __ __ __ __ __
 72
    65
 73
     2
 40
0.59
 49
0.47
 74
     0
 49
-0.12
 74
     0
  0
LTYPE
  5
A4
330
5
100
AcDbSymbolTableRecord
100
AcDbLinetypeTableRecord
  2
ACAD_ISO03W100
 70
     0
  3
ISO dash space __    __    __    __    __    __
 72
    65
 73
     2
 40
1.179999999999999
 49
0.47
 74
     0
 49
-0.71
 74
     0
  0
LTYPE
  5
A5
330
5
100
AcDbSymbolTableRecord
100
AcDbLinetypeTableRecord
  2
ACAD_ISO04W100
 70
     0
  3
ISO long-dash dot ____ . ____ . ____ . ____ . _
 72
    65
 73
     4
 40
1.179999999999999
 49
0.9399999999999998
 74
     0
 49
-0.12
 74
     0
 49
0.0
 74
     0
 49
-0.12
 74
     0
  0
LTYPE
  5
A6
330
5
100
AcDbSymbolTableRecord
100
AcDbLinetypeTableRecord
  2
ACAD_ISO05W100
 70
     0
  3
ISO long-dash double-dot ____ .. ____ .. ____ .
 72
    65
 73
     6
 40
1.299999999999999
 49
0.9399999999999998
 74
     0
 49
-0.12
 74
     0
 49
0.0
 74
     0
 49
-0.12
 74
     0
 49
0.0
 74
     0
 49
-0.12
 74
     0
  0
LTYPE
  5
A7
330
5
100
AcDbSymbolTableRecord
100
AcDbLinetypeTableRecord
  2
ACAD_ISO06W100
 70
     0
  3
ISO long-dash triple-dot ____ ... ____ ... ____
 72
    65
 73
     8
 40
1.419999999999999
 49
0.9399999999999998
 74
     0
 49
-0.12
 74
     0
 49
0.0
 74
     0
 49
-0.12
 74
     0
 49
0.0
 74
     0
 49
-0.12
 74
     0
 49
0.0
 74
     0
 49
-0.12
 74
     0
  0
LTYPE
  5
A8
330
5
100
AcDbSymbolTableRecord
100
AcDbLinetypeTableRecord
  2
ACAD_ISO07W100
 70
     0
  3
ISO dot . . . . . . . . . . . . . . . . . . . .
 72
    65
 73
     2
 40
0.12
 49
0.0
 74
     0
 49
-0.12
 74
     0
  0
LTYPE
  5
A9
330
5
100
AcDbSymbolTableRecord
100
AcDbLinetypeTableRecord
  2
ACAD_ISO08W100
 70
     0
  3
ISO long-dash short-dash ____ __ ____ __ ____ _
 72
    65
 73
     4
 40
0.95
 49
0.47
 74
     0
 49
-0.12
 74
     0
 49
0.24
 74
     0
 49
-0.12
 74
     0
  0
LTYPE
  5
AA
330
5
100
AcDbSymbolTableRecord
100
AcDbLinetypeTableRecord
  2
ACAD_ISO09W100
 70
     0
  3
ISO long-dash double-short-dash ____ __ __ ____
 72
    65
 73
     6
 40
1.31
 49
0.47
 74
     0
 49
-0.12
 74
     0
 49
0.24
 74
     0
 49
-0.12
 74
     0
 49
0.24
 74
     0
 49
-0.12
 74
     0
  0
LTYPE
  5
AB
330
5
100
AcDbSymbolTableRecord
100
AcDbLinetypeTableRecord
  2
ACAD_ISO10W100
 70
     0
  3
ISO dash dot __ . __ . __ . __ . __ . __ . __ .
 72
    65
 73
     4
 40
0.71
 49
0.47
 74
     0
 49
-0.12
 74
     0
 49
0.0
 74
     0
 49
-0.12
 74
     0
  0
LTYPE
  5
AC
330
5
100
AcDbSymbolTableRecord
100
AcDbLinetypeTableRecord
  2
ACAD_ISO11W100
 70
     0
  3
ISO double-dash dot __ __ . __ __ . __ __ . __ 
 72
    65
 73
     6
 40
1.299999999999999
 49
0.47
 74
     0
 49
-0.12
 74
     0
 49
0.47
 74
     0
 49
-0.12
 74
     0
 49
0.0
 74
     0
 49
-0.12
 74
     0
  0
LTYPE
  5
AD
330
5
100
AcDbSymbolTableRecord
100
AcDbLinetypeTableRecord
  2
ACAD_ISO12W100
 70
     0
  3
ISO dash double-dot __ . . __ . . __ . . __ . .
 72
    65
 73
     6
 40
0.8299999999999998
 49
0.47
 74
     0
 49
-0.12
 74
     0
 49
0.0
 74
     0
 49
-0.12
 74
     0
 49
0.0
 74
     0
 49
-0.12
 74
     0
  0
LTYPE
  5
AE
330
5
100
AcDbSymbolTableRecord
100
AcDbLinetypeTableRecord
  2
ACAD_ISO13W100
 70
     0
  3
ISO double-dash double-dot __ __ . . __ __ . . 
 72
    65
 73
     8
 40
1.419999999999999
 49
0.47
 74
     0
 49
-0.12
 74
     0
 49
0.47
 74
     0
 49
-0.12
 74
     0
 49
0.0
 74
     0
 49
-0.12
 74
     0
 49
0.0
 74
     0
 49
-0.12
 74
     0
  0
LTYPE
  5
AF
330
5
100
AcDbSymbolTableRecord
100
AcDbLinetypeTableRecord
  2
ACAD_ISO14W100
 70
     0
  3
ISO dash triple-dot __ . . . __ . . . __ . . . 
 72
    65
 73
     8
 40
0.95
 49
0.47
 74
     0
 49
-0.12
 74
     0
 49
0.0
 74
     0
 49
-0.12
 74
     0
 49
0.0
 74
     0
 49
-0.12
 74
     0
 49
0.0
 74
     0
 49
-0.12
 74
     0
  0
LTYPE
  5
B0
330
5
100
AcDbSymbolTableRecord
100
AcDbLinetypeTableRecord
  2
ACAD_ISO15W100
 70
     0
  3
ISO double-dash triple-dot __ __ . . . __ __ . 
 72
    65
 73
    10
 40
1.539999999999999
 49
0.47
 74
     0
 49
-0.12
 74
     0
 49
0.47
 74
     0
 49
-0.12
 74
     0
 49
0.0
 74
     0
 49
-0.12
 74
     0
 49
0.0
 74
     0
 49
-0.12
 74
     0
 49
0.0
 74
     0
 49
-0.12
 74
     0
  0
LTYPE
  5
B3
330
5
100
AcDbSymbolTableRecord
100
AcDbLinetypeTableRecord
  2
FENCELINE1
 70
     0
  3
Fenceline circle ----0-----0----0-----0----0---
 72
    65
 73
     4
 40
1.45
 49
0.25
 74
     0
 49
-0.1
 74
     4
 75
   133
340
B2
 46
0.1
 50
0.0
 44
-0.1
 45
0.0
 49
-0.1
 74
     0
 49
1.0
 74
     0
  0
LTYPE
  5
B4
330
5
100
AcDbSymbolTableRecord
100
AcDbLinetypeTableRecord
  2
FENCELINE2
 70
     0
  3
Fenceline square ----[]-----[]----[]-----[]----
 72
    65
 73
     4
 40
1.45
 49
0.25
 74
     0
 49
-0.1
 74
     4
 75
   132
340
B2
 46
0.1
 50
0.0
 44
-0.1
 45
0.0
 49
-0.1
 74
     0
 49
1.0
 74
     0
  0
LTYPE
  5
B5
330
5
100
AcDbSymbolTableRecord
100
AcDbLinetypeTableRecord
  2
TRACKS
 70
     0
  3
Tracks -|-|-|-|-|-|-|-|-|-|-|-|-|-|-|-|-|-|-|-|
 72
    65
 73
     2
 40
0.3
 49
0.15
 74
     4
 75
   130
340
B2
 46
0.25
 50
0.0
 44
0.0
 45
0.0
 49
0.15
 74
     0
  0
LTYPE
  5
B6
330
5
100
AcDbSymbolTableRecord
100
AcDbLinetypeTableRecord
  2
BATTING
 70
     0
  3
Batting SSSSSSSSSSSSSSSSSSSSSSSSSSSSSSSSSSSSSSS
 72
    65
 73
     4
 40
0.4001000000000001
 49
0.0001
 74
     0
 49
-0.1
 74
     4
 75
   134
340
B2
 46
0.1
 50
0.0
 44
-0.1
 45
0.0
 49
-0.2
 74
     4
 75
   134
340
B2
 46
0.1
 50
180.0
 44
0.1
 45
0.0
 49
-0.1
 74
     0
  0
LTYPE
  5
B7
330
5
100
AcDbSymbolTableRecord
100
AcDbLinetypeTableRecord
  2
HOT_WATER_SUPPLY
 70
     0
  3
Hot water supply ---- HW ---- HW ---- HW ----
 72
    65
 73
     3
 40
0.9
 49
0.5
 74
     0
 49
-0.2
 74
     2
 75
     0
340
55
 46
0.1
 50
0.0
 44
-0.1
 45
-0.05
  9
HW
 49
-0.2
 74
     0
  0
LTYPE
  5
B8
330
5
100
AcDbSymbolTableRecord
100
AcDbLinetypeTableRecord
  2
GAS_LINE
 70
     0
  3
Gas line ----GAS----GAS----GAS----GAS----GAS---
 72
    65
 73
     3
 40
0.95
 49
0.5
 74
     0
 49
-0.2
 74
     2
 75
     0
340
55
 46
0.1
 50
0.0
 44
-0.1
 45
-0.05
  9
GAS
 49
-0.25
 74
     0
  0
LTYPE
  5
B9
330
5
100
AcDbSymbolTableRecord
100
AcDbLinetypeTableRecord
  2
ZIGZAG
 70
     0
  3
Zig zag /\/\/\/\/\/\/\/\/\/\/\/\/\/\/\/\/\/\/\/
 72
    65
 73
     4
 40
0.8001000000000001
 49
0.0001
 74
     0
 49
-0.2
 74
     4
 75
   131
340
B2
 46
0.2
 50
0.0
 44
-0.2
 45
0.0
 49
-0.4
 74
     4
 75
   131
340
B2
 46
0.2
 50
180.0
 44
0.2
 45
0.0
 49
-0.2
 74
     0
  0
ENDTAB
  0
TABLE
  2
LAYER
  5
2
330
0
100
AcDbSymbolTable
 70
     4
  0
LAYER
  5
54
330
2
100
AcDbSymbolTableRecord
100
AcDbLayerTableRecord
  2
0
 70
     0
 62
     7
  6
Continuous
370
    -3
390
F
  0
LAYER
  5
BF
330
2
100
AcDbSymbolTableRecord
100
AcDbLayerTableRecord
  2
Border (ANSI)
 70
     0
 62
     7
  6
Continuous
370
    25
390
F
  0
LAYER
  5
D1
330
2
100
AcDbSymbolTableRecord
100
AcDbLayerTableRecord
  2
Visible (ANSI)
 70
     0
 62
     7
  6
Continuous
370
    18
390
F
  0
LAYER
  5
D2
330
2
100
AcDbSymbolTableRecord
100
AcDbLayerTableRecord
  2
Visible Narrow (ANSI)
 70
     0
 62
     7
  6
Continuous
370
     9
390
F
  0
ENDTAB
  0
TABLE
  2
STYLE
  5
3
330
0
100
AcDbSymbolTable
 70
     5
  0
STYLE
  5
55
330
3
100
AcDbSymbolTableRecord
100
AcDbTextStyleTableRecord
  2
Standard
 70
     0
 40
0.0
 41
0.899999976158142
 50
0.0
 71
     0
 42
0.2
  3
txt
  4

  0
STYLE
  5
5A
330
3
100
AcDbSymbolTableRecord
100
AcDbTextStyleTableRecord
  2
Annotative
 70
     0
 40
0.0
 41
1.0
 50
0.0
 71
     0
 42
0.2
  3
txt
  4

1001
AcadAnnotative
1000
AnnotativeData
1002
{
1070
     1
1070
     1
1002
}
  0
STYLE
  5
B2
330
3
100
AcDbSymbolTableRecord
100
AcDbTextStyleTableRecord
  2

 70
     1
 40
0.0
 41
1.0
 50
0.0
 71
     0
 42
0.2
  3
ltypeshp.shx
  4

  0
STYLE
  5
D6
330
3
100
AcDbSymbolTableRecord
100
AcDbTextStyleTableRecord
  2
Label Text (ANSI)
 70
     0
 40
0.0
 41
0.899999976158142
 50
0.0
 71
     0
 42
0.2
  3
Txt.shx
  4

  0
STYLE
  5
D7
330
3
100
AcDbSymbolTableRecord
100
AcDbTextStyleTableRecord
  2
Note Text (ANSI)
 70
     0
 40
0.0
 41
0.899999976158142
 50
0.0
 71
     0
 42
0.2
  3
Txt.shx
  4

  0
ENDTAB
  0
TABLE
  2
VIEW
  5
6
330
0
100
AcDbSymbolTable
 70
     0
  0
ENDTAB
  0
TABLE
  2
UCS
  5
7
330
0
100
AcDbSymbolTable
 70
     0
  0
ENDTAB
  0
TABLE
  2
APPID
  5
9
330
0
100
AcDbSymbolTable
 70
     4
  0
APPID
  5
56
330
9
100
AcDbSymbolTableRecord
100
AcDbRegAppTableRecord
  2
ACAD
 70
     0
  0
APPID
  5
5E
330
9
100
AcDbSymbolTableRecord
100
AcDbRegAppTableRecord
  2
AcadAnnotative
 70
     0
  0
APPID
  5
37D
330
9
100
AcDbSymbolTableRecord
100
AcDbRegAppTableRecord
  2
ACAD_MLEADERVER
 70
     0
  0
APPID
  5
394
330
9
100
AcDbSymbolTableRecord
100
AcDbRegAppTableRecord
  2
ACAD_NAV_VCDISPLAY
 70
     0
  0
ENDTAB
  0
TABLE
  2
DIMSTYLE
  5
A
330
0
100
AcDbSymbolTable
 70
    21
100
AcDbDimStyleTable
 71
     0
  0
DIMSTYLE
105
58
330
A
100
AcDbSymbolTableRecord
100
AcDbDimStyleTableRecord
  2
Standard
 70
     0
340
55
  0
DIMSTYLE
105
59
330
A
100
AcDbSymbolTableRecord
100
AcDbDimStyleTableRecord
  2
Annotative
 70
     0
340
55
1001
AcadAnnotative
1000
AnnotativeData
1002
{
1070
     1
1070
     1
1002
}
  0
DIMSTYLE
105
D8
330
A
100
AcDbSymbolTableRecord
100
AcDbDimStyleTableRecord
  2
Architectural (ANSI)
 70
     0
 41
0.0984251946210861
 43
0.2362204724409449
 44
0.125
 45
0.00000001
 46
0.3937007874015748
 78
     3
 79
     3
140
0.0799999982118607
146
1.500000119209289
147
0.031496062992126
171
     1
176
   256
177
   256
178
     5
272
     2
274
     1
276
     2
277
     4
284
    12
285
     4
286
    12
340
D7
371
    -1
372
    -1
  0
DIMSTYLE
105
D9
330
A
100
AcDbSymbolTableRecord
100
AcDbDimStyleTableRecord
  2
Architectural (ANSI)$7
 70
     0
 41
0.0984251946210861
 43
0.2362204724409449
 44
0.125
 45
0.00000001
 46
0.3937007874015748
 78
     3
 79
     3
140
0.0799999982118607
146
1.500000119209289
147
0.031496062992126
171
     1
176
     5
177
   256
178
     5
272
     2
274
     1
276
     2
277
     4
284
    12
285
     4
286
    12
340
D7
371
    -1
372
    -1
  0
DIMSTYLE
105
DA
330
A
100
AcDbSymbolTableRecord
100
AcDbDimStyleTableRecord
  2
Default - Fraction (ANSI)
 70
     0
 41
0.0984251946210861
 43
0.2362204724409449
 44
0.125
 45
0.00000001
 46
0.3937007874015748
 79
     3
140
0.0799999982118607
146
1.500000119209289
147
0.031496062992126
171
     1
176
   256
177
   256
178
     5
272
     2
274
     1
276
     2
277
     5
284
    12
285
     4
286
    12
340
D7
371
    -1
372
    -1
  0
DIMSTYLE
105
DB
330
A
100
AcDbSymbolTableRecord
100
AcDbDimStyleTableRecord
  2
Default - Fraction (ANSI)$7
 70
     0
 41
0.0984251946210861
 43
0.2362204724409449
 44
0.125
 45
0.00000001
 46
0.3937007874015748
 79
     3
140
0.0799999982118607
146
1.500000119209289
147
0.031496062992126
171
     1
176
     5
177
   256
178
     5
272
     2
274
     1
276
     2
277
     5
284
    12
285
     4
286
    12
340
D7
371
    -1
372
    -1
  0
DIMSTYLE
105
DC
330
A
100
AcDbSymbolTableRecord
100
AcDbDimStyleTableRecord
  2
Default - mm (ANSI)
 70
     0
 41
0.0984251946210861
 42
0.063
 43
0.2362204724409449
 44
0.125
 45
0.00000001
 46
0.3937007874015748
 73
     0
 78
     4
 79
     1
140
0.0799999982118607
143
1.0
144
25.4
146
1.500000119209289
147
0.031496062992126
171
     1
176
   256
177
   256
178
     5
179
     1
271
     2
272
     2
274
     1
284
     4
285
     4
340
D7
371
    -1
372
    -1
  0
DIMSTYLE
105
DD
330
A
100
AcDbSymbolTableRecord
100
AcDbDimStyleTableRecord
  2
Default - mm (ANSI)$7
 70
     0
 41
0.0984251946210861
 42
0.063
 43
0.2362204724409449
 44
0.125
 45
0.00000001
 46
0.3937007874015748
 73
     0
 78
     4
 79
     1
140
0.0799999982118607
143
1.0
144
25.4
146
1.500000119209289
147
0.031496062992126
171
     1
176
     5
177
   256
178
     5
179
     1
271
     2
272
     2
274
     1
284
     4
285
     4
340
D7
371
    -1
372
    -1
  0
DIMSTYLE
105
DE
330
A
100
AcDbSymbolTableRecord
100
AcDbDimStyleTableRecord
  2
Default - mm [in] (ANSI)
 70
     0
  4
 in
 41
0.0984251946210861
 42
0.063
 43
0.25
 44
0.125
 45
0.00000001
 46
0.3937007874015748
 73
     0
 78
     4
 79
     1
140
0.0799999982118607
143
0.03937
144
25.4
146
1.500000119209289
147
0.031496062992126
170
     1
171
     3
176
   256
177
   256
178
     5
179
     1
271
     2
272
     2
274
     3
284
     4
285
     4
286
     4
340
D7
371
    -1
372
    -1
  0
DIMSTYLE
105
DF
330
A
100
AcDbSymbolTableRecord
100
AcDbDimStyleTableRecord
  2
Default - mm [in] (ANSI)$7
 70
     0
  4
 in
 41
0.0984251946210861
 42
0.063
 43
0.25
 44
0.125
 45
0.00000001
 46
0.3937007874015748
 73
     0
 78
     4
 79
     1
140
0.0799999982118607
143
0.03937
144
25.4
146
1.500000119209289
147
0.031496062992126
170
     1
171
     3
176
     5
177
   256
178
     5
179
     1
271
     2
272
     2
274
     3
284
     4
285
     4
286
     4
340
D7
371
    -1
372
    -1
  0
DIMSTYLE
105
E0
330
A
100
AcDbSymbolTableRecord
100
AcDbDimStyleTableRecord
  2
Default (ANSI)
 70
     0
 41
0.0984251946210861
 43
0.2362204724409449
 44
0.125
 45
0.00000001
 46
0.3937007874015748
 78
     4
 79
     1
140
0.0799999982118607
146
1.500000119209289
147
0.031496062992126
171
     1
176
   256
177
   256
178
     5
271
     2
272
     2
274
     1
284
     4
285
     4
340
D7
371
    -1
372
    -1
  0
DIMSTYLE
105
E1
330
A
100
AcDbSymbolTableRecord
100
AcDbDimStyleTableRecord
  2
Default (ANSI)$7
 70
     0
 41
0.0984251946210861
 43
0.2362204724409449
 44
0.125
 45
0.00000001
 46
0.3937007874015748
 78
     4
 79
     1
140
0.0799999982118607
146
1.500000119209289
147
0.031496062992126
171
     1
176
     5
177
   256
178
     5
271
     2
272
     2
274
     1
284
     4
285
     4
340
D7
371
    -1
372
    -1
  0
DIMSTYLE
105
E2
330
A
100
AcDbSymbolTableRecord
100
AcDbDimStyleTableRecord
  2
SST-STANDARD DIMEN
 70
     0
 41
0.0984251946210861
 43
0.2362204724409449
 44
0.062
 45
0.00000001
 46
0.3937007874015748
140
0.0799999982118607
147
0.031496062992126
171
     1
176
     5
177
     5
178
     5
271
     3
272
     3
274
     1
286
    12
340
D7
371
     9
372
     9
  0
DIMSTYLE
105
E3
330
A
100
AcDbSymbolTableRecord
100
AcDbDimStyleTableRecord
  2
SST-STANDARD DIMEN$7
 70
     0
 41
0.0984251946210861
 43
0.2362204724409449
 44
0.062
 45
0.00000001
 46
0.3937007874015748
140
0.0799999982118607
147
0.031496062992126
171
     1
176
     5
177
     5
178
     5
271
     3
272
     3
274
     1
286
    12
340
D7
371
    -1
372
     9
  0
DIMSTYLE
105
E4
330
A
100
AcDbSymbolTableRecord
100
AcDbDimStyleTableRecord
  2
SST-STANDARD DIMENSION-METRIC
 70
     0
 41
0.0984251946210861
 43
0.2362204724409449
 44
0.062
 45
0.00000001
 46
0.3937007874015748
140
0.0799999982118607
143
0.03937
144
25.4
147
0.031496062992126
171
     3
176
     5
177
     5
178
     5
271
     1
272
     1
274
     3
286
    12
340
D7
371
    25
372
    25
  0
DIMSTYLE
105
E5
330
A
100
AcDbSymbolTableRecord
100
AcDbDimStyleTableRecord
  2
SST-STANDARD DIMENSION-METRIC$7
 70
     0
 41
0.0984251946210861
 43
0.2362204724409449
 44
0.062
 45
0.00000001
 46
0.3937007874015748
140
0.0799999982118607
143
0.03937
144
25.4
147
0.031496062992126
171
     3
176
     5
177
     5
178
     5
271
     1
272
     1
274
     3
286
    12
340
D7
371
    -1
372
    25
  0
DIMSTYLE
105
E6
330
A
100
AcDbSymbolTableRecord
100
AcDbDimStyleTableRecord
  2
SST-STANDARD DIMENSIONS-FRACTION
 70
     0
 41
0.0984251946210861
 43
0.2362204724409449
 44
0.062
 45
0.00000001
 46
0.3937007874015748
 78
     1
140
0.0799999982118607
147
0.031496062992126
171
     1
176
     5
177
     5
178
     5
271
     5
272
     3
274
     1
276
     2
277
     5
286
    12
340
D7
371
     9
372
     9
  0
DIMSTYLE
105
E7
330
A
100
AcDbSymbolTableRecord
100
AcDbDimStyleTableRecord
  2
SST-STANDARD DIMENSIONS-FRACTION$7
 70
     0
 41
0.0984251946210861
 43
0.2362204724409449
 44
0.062
 45
0.00000001
 46
0.3937007874015748
 78
     1
140
0.0799999982118607
147
0.031496062992126
171
     1
176
     5
177
     5
178
     5
271
     5
272
     3
274
     1
276
     2
277
     5
286
    12
340
D7
371
    -1
372
     9
  0
DIMSTYLE
105
E8
330
A
100
AcDbSymbolTableRecord
100
AcDbDimStyleTableRecord
  2
Alternate (ANSI)
 70
     0
 41
0.0979999974370003
340
55
342
E9
  0
DIMSTYLE
105
FB
330
A
100
AcDbSymbolTableRecord
100
AcDbDimStyleTableRecord
  2
Datum (ANSI)
 70
     0
 41
0.0979999974370003
340
55
342
E9
  0
DIMSTYLE
105
10A
330
A
100
AcDbSymbolTableRecord
100
AcDbDimStyleTableRecord
  2
Large (ANSI)
 70
     0
 41
0.1959999948740005
340
55
342
E9
  0
ENDTAB
  0
TABLE
  2
BLOCK_RECORD
  5
1
330
0
100
AcDbSymbolTable
 70
     5
  0
BLOCK_RECORD
  5
6C
330
1
100
AcDbSymbolTableRecord
100
AcDbBlockTableRecord
  2
*Model_Space
340
6F
  0
BLOCK_RECORD
  5
68
330
1
100
AcDbSymbolTableRecord
100
AcDbBlockTableRecord
  2
*Paper_Space
340
6B
  0
BLOCK_RECORD
  5
70
330
1
100
AcDbSymbolTableRecord
100
AcDbBlockTableRecord
  2
*Paper_Space0
340
73
  0
BLOCK_RECORD
  5
E9
330
1
100
AcDbSymbolTableRecord
100
AcDbBlockTableRecord
  2
_Closed
340
0
  0
BLOCK_RECORD
  5
F0
330
1
100
AcDbSymbolTableRecord
100
AcDbBlockTableRecord
  2
DatumFilled45
340
0
  0
BLOCK_RECORD
  5
FC
330
1
100
AcDbSymbolTableRecord
100
AcDbBlockTableRecord
  2
Filled-1
340
0
  0
BLOCK_RECORD
  5
10B
330
1
100
AcDbSymbolTableRecord
100
AcDbBlockTableRecord
  2
Borders SST-LAND
340
0
102
{BLKREFS
331
112
102
}
  0
ENDTAB
  0
ENDSEC
  0
SECTION
  2
BLOCKS
  0
BLOCK
  5
6D
330
6C
100
AcDbEntity
  8
0
100
AcDbBlockBegin
  2
*Model_Space
 70
     0
 10
0.0
 20
0.0
 30
0.0
  3
*Model_Space
  1

  0
ENDBLK
  5
6E
330
6C
100
AcDbEntity
  8
0
100
AcDbBlockEnd
  0
BLOCK
  5
69
330
68
100
AcDbEntity
 67
     1
  8
0
100
AcDbBlockBegin
  2
*Paper_Space
 70
     0
 10
0.0
 20
0.0
 30
0.0
  3
*Paper_Space
  1

  0
ENDBLK
  5
6A
330
68
100
AcDbEntity
 67
     1
  8
0
100
AcDbBlockEnd
  0
BLOCK
  5
71
330
70
100
AcDbEntity
 67
     1
  8
0
100
AcDbBlockBegin
  2
*Paper_Space0
 70
     0
 10
0.0
 20
0.0
 30
0.0
  3
*Paper_Space0
  1

  0
ENDBLK
  5
72
330
70
100
AcDbEntity
 67
     1
  8
0
100
AcDbBlockEnd
  0
BLOCK
  5
EE
330
E9
100
AcDbEntity
  8
0
100
AcDbBlockBegin
  2
_Closed
 70
     0
 10
0.0
 20
0.0
 30
0.0
  3
_Closed
  1

  0
LINE
  5
EA
330
E9
100
AcDbEntity
  8
0
  6
ByBlock
 62
     0
370
    -2
100
AcDbLine
 10
-1.0
 20
0.1666666666666666
 30
0.0
 11
0.0
 21
0.0
 31
0.0
  0
LINE
  5
EB
330
E9
100
AcDbEntity
  8
0
  6
ByBlock
 62
     0
370
    -2
100
AcDbLine
 10
0.0
 20
0.0
 30
0.0
 11
-1.0
 21
-0.1666666666666666
 31
0.0
  0
LINE
  5
EC
330
E9
100
AcDbEntity
  8
0
  6
ByBlock
 62
     0
370
    -2
100
AcDbLine
 10
-1.0
 20
0.1666666666666666
 30
0.0
 11
-1.0
 21
-0.1666666666666666
 31
0.0
  0
LINE
  5
ED
330
E9
100
AcDbEntity
  8
0
  6
ByBlock
 62
     0
370
    -2
100
AcDbLine
 10
0.0
 20
0.0
 30
0.0
 11
-1.0
 21
0.0
 31
0.0
  0
ENDBLK
  5
EF
330
E9
100
AcDbEntity
  8
0
100
AcDbBlockEnd
  0
BLOCK
  5
F1
330
F0
100
AcDbEntity
  8
0
100
AcDbBlockBegin
  2
DatumFilled45
 70
     0
 10
0.0
 20
0.0
 30
0.0
  3
DatumFilled45
  1

  0
POLYLINE
  5
F3
330
F0
100
AcDbEntity
  8
0
 62
     0
100
AcDb2dPolyline
 66
     1
 10
0.0
 20
0.0
 30
0.0
 70
   128
  0
VERTEX
  5
F4
330
F3
100
AcDbEntity
  8
0
 62
     0
100
AcDbVertex
100
AcDb2dVertex
 10
0.0
 20
0.9999999999999998
 30
0.0
  0
VERTEX
  5
F5
330
F3
100
AcDbEntity
  8
0
 62
     0
100
AcDbVertex
100
AcDb2dVertex
 10
0.0
 20
-0.9999999999999998
 30
0.0
  0
VERTEX
  5
F7
330
F3
100
AcDbEntity
  8
0
 62
     0
100
AcDbVertex
100
AcDb2dVertex
 10
-0.9999999999999998
 20
0.0
 30
0.0
  0
VERTEX
  5
F8
330
F3
100
AcDbEntity
  8
0
 62
     0
100
AcDbVertex
100
AcDb2dVertex
 10
0.0
 20
0.9999999999999998
 30
0.0
  0
SEQEND
  5
F6
330
F3
100
AcDbEntity
  8
0
 62
     0
  0
SOLID
  5
FA
330
F0
100
AcDbEntity
  8
0
 62
     0
100
AcDbTrace
 10
0.0
 20
0.9999999999999998
 30
0.0
 11
0.0
 21
-0.9999999999999998
 31
0.0
 12
-0.9999999999999998
 22
0.0
 32
0.0
 13
0.0
 23
0.9999999999999998
 33
0.0
  0
ENDBLK
  5
F2
330
F0
100
AcDbEntity
  8
0
100
AcDbBlockEnd
  0
BLOCK
  5
FD
330
FC
100
AcDbEntity
  8
0
100
AcDbBlockBegin
  2
Filled-1
 70
     0
 10
0.0
 20
0.0
 30
0.0
  3
Filled-1
  1

  0
LINE
  5
FF
330
FC
100
AcDbEntity
  8
0
 62
     0
100
AcDbLine
 10
-0.9999999999999998
 20
0.0
 30
0.0
 11
0.0
 21
0.0
 31
0.0
  0
POLYLINE
  5
100
330
FC
100
AcDbEntity
  8
0
 62
     0
100
AcDb2dPolyline
 66
     1
 10
0.0
 20
0.0
 30
0.0
 70
   128
  0
VERTEX
  5
101
330
100
100
AcDbEntity
  8
0
 62
     0
100
AcDbVertex
100
AcDb2dVertex
 10
-0.9999999999999998
 20
-0.0994897959183674
 30
0.0
  0
VERTEX
  5
102
330
100
100
AcDbEntity
  8
0
 62
     0
100
AcDbVertex
100
AcDb2dVertex
 10
0.0
 20
0.0
 30
0.0
  0
VERTEX
  5
104
330
100
100
AcDbEntity
  8
0
 62
     0
100
AcDbVertex
100
AcDb2dVertex
 10
-0.9999999999999998
 20
0.0994897959183674
 30
0.0
  0
VERTEX
  5
105
330
100
100
AcDbEntity
  8
0
 62
     0
100
AcDbVertex
100
AcDb2dVertex
 10
-0.9999999999999998
 20
-0.0994897959183674
 30
0.0
  0
SEQEND
  5
103
330
100
100
AcDbEntity
  8
0
 62
     0
  0
SOLID
  5
106
330
FC
100
AcDbEntity
  8
0
 62
     0
100
AcDbTrace
 10
-0.9999999999999998
 20
-0.0994897959183674
 30
0.0
 11
0.0
 21
0.0
 31
0.0
 12
-0.9999999999999998
 22
0.0994897959183674
 32
0.0
 13
-0.9999999999999998
 23
-0.0994897959183674
 33
0.0
  0
LINE
  5
107
330
FC
100
AcDbEntity
  8
0
 62
     0
100
AcDbLine
 10
-0.9999999999999998
 20
-0.0994897959183674
 30
0.0
 11
0.0
 21
0.0
 31
0.0
  0
LINE
  5
108
330
FC
100
AcDbEntity
  8
0
 62
     0
100
AcDbLine
 10
0.0
 20
0.0
 30
0.0
 11
-0.9999999999999998
 21
0.0994897959183674
 31
0.0
  0
LINE
  5
109
330
FC
100
AcDbEntity
  8
0
 62
     0
100
AcDbLine
 10
-0.9999999999999998
 20
0.0994897959183674
 30
0.0
 11
-0.9999999999999998
 21
-0.0994897959183674
 31
0.0
  0
ENDBLK
  5
FE
330
FC
100
AcDbEntity
  8
0
100
AcDbBlockEnd
  0
BLOCK
  5
10C
330
10B
100
AcDbEntity
  8
0
100
AcDbBlockBegin
  2
Borders SST-LAND
 70
     0
 10
0.0
 20
0.0
 30
0.0
  3
Borders SST-LAND
  1

  0
LINE
  5
10E
330
10B
100
AcDbEntity
  8
Border (ANSI)
 62
     7
370
    50
100
AcDbLine
 10
0.4999999999999999
 20
16.5
 30
0.0
 11
0.500000000000005
 21
0.5000000000000013
 31
0.0
  0
LINE
  5
10F
330
10B
100
AcDbEntity
  8
Border (ANSI)
 62
     7
370
    50
100
AcDbLine
 10
21.5
 20
16.5
 30
0.0
 11
0.4999999999999984
 21
16.5
 31
0.0
  0
LINE
  5
110
330
10B
100
AcDbEntity
  8
Border (ANSI)
 62
     7
370
    50
100
AcDbLine
 10
21.5
 20
0.4999999999999999
 30
0.0
 11
21.5
 21
16.49999999999999
 31
0.0
  0
LINE
  5
111
330
10B
100
AcDbEntity
  8
Border (ANSI)
 62
     7
370
    50
100
AcDbLine
 10
0.500000000000005
 20
0.4999999999999999
 30
0.0
 11
21.5
 21
0.4999999999999999
 31
0.0
  0
ENDBLK
  5
10D
330
10B
100
AcDbEntity
  8
0
100
AcDbBlockEnd
  0
ENDSEC
  0
SECTION
  2
ENTITIES
  0
INSERT
  5
112
330
6C
100
AcDbEntity
  8
0
100
AcDbBlockReference
  2
Borders SST-LAND
 10
0.0
 20
0.0
 30
0.0
  0
SPLINE
  5
113
330
6C
100
AcDbEntity
  8
Visible (ANSI)
100
AcDbSpline
210
0.0
220
0.0
230
1.0
 70
     8
 71
     3
 72
    12
 73
     8
 74
     0
 42
0.0000000001
 43
0.0000000001
 40
0.2150237208379529
 40
0.2150237208379529
 40
0.2150237208379529
 40
0.2150237208379529
 40
0.2750881306777902
 40
0.2750881306777902
 40
0.3422257193793499
 40
0.3422257193793499
 40
0.359112393269192
 40
0.359112393269192
 40
0.359112393269192
 40
0.359112393269192
 10
9.659350046850775
 20
7.231298315040311
 30
0.0
 10
9.656328054923033
 20
7.231298315040311
 30
0.0
 10
9.652104718466715
 20
7.232617734870111
 30
0.0
 10
9.642437503376262
 20
7.23717848811397
 30
0.0
 10
9.635999024683593
 20
7.240978384293682
 30
0.0
 10
9.627088097554729
 20
7.246633894467521
 30
0.0
 10
9.625256191706318
 20
7.2478129840041
 30
0.0
 10
9.623399283346691
 20
7.249018329827886
 30
0.0
  0
SPLINE
  5
114
330
6C
100
AcDbEntity
  8
Visible (ANSI)
100
AcDbSpline
210
0.0
220
0.0
230
1.0
 70
     8
 71
     3
 72
    12
 73
     8
 74
     0
 42
0.0000000001
 43
0.0000000001
 40
2.466043470984506
 40
2.466043470984506
 40
2.466043470984506
 40
2.466043470984506
 40
2.486042468444811
 40
2.486042468444811
 40
2.556409122045179
 40
2.556409122045179
 40
2.610533610397303
 40
2.610533610397303
 40
2.610533610397303
 40
2.610533610397303
 10
9.623399283346724
 20
7.739828300252749
 30
0.0
 10
9.625591018128378
 20
7.741250986704783
 30
0.0
 10
9.627747872543928
 20
7.742637070444207
 30
0.0
 10
9.637222267332747
 20
7.748617500489504
 30
0.0
 10
9.643819838379929
 20
7.752445286488236
 30
0.0
 10
9.652928394015585
 20
7.756486731690107
 30
0.0
 10
9.65658895535096
 20
7.757548315040311
 30
0.0
 10
9.659350046850784
 20
7.757548315040311
 30
0.0
  0
LINE
  5
115
330
6C
100
AcDbEntity
  8
Visible (ANSI)
100
AcDbLine
 10
9.514054492467769
 20
7.590477633558024
 30
0.0
 11
9.55673922464207
 21
7.667548315040312
 31
0.0
  0
ELLIPSE
  5
116
330
6C
100
AcDbEntity
  8
Visible (ANSI)
100
AcDbEllipse
 10
9.622623797322995
 20
7.667548315040312
 30
0.0
 11
0.0717872913679623
 21
0.0827067049141863
 31
0.0
210
0.0
220
0.0
230
0.9999999999999998
 40
0.4943891428341829
 41
1.043650780134663
 42
1.976148980260639
  0
ELLIPSE
  5
117
330
6C
100
AcDbEntity
  8
Visible (ANSI)
100
AcDbEllipse
 10
9.583761629341337
 20
7.494423315040179
 30
0.0
 11
0.0
 21
-0.1459999999999999
 31
0.0
210
0.0
220
0.0
230
1.0
 40
0.6339745962170904
 41
3.994353728665632
 42
5.430424232103753
  0
ELLIPSE
  5
118
330
6C
100
AcDbEntity
  8
Visible (ANSI)
100
AcDbEllipse
 10
9.622623797322916
 20
7.321298315040311
 30
0.0
 11
0.0717872913680385
 21
-0.0827067049141834
 31
0.0
210
0.0
220
0.0
230
1.0
 40
0.4943891428337517
 41
4.307036326918865
 42
5.239534527044612
  0
LINE
  5
119
330
6C
100
AcDbEntity
  8
Visible (ANSI)
100
AcDbLine
 10
9.556739224641992
 20
7.321298315040311
 30
0.0
 11
9.514054492467769
 21
7.398368996522331
 31
0.0
  0
ELLIPSE
  5
11A
330
6C
100
AcDbEntity
  8
Visible (ANSI)
100
AcDbEllipse
 10
9.666398445662826
 20
7.321298315040311
 30
0.0
 11
0.0717872913680385
 21
-0.0827067049141834
 31
0.0
210
0.0
220
0.0
230
1.0
 40
0.4943891428337517
 41
4.307036326918865
 42
5.206784855408064
  0
LINE
  5
11B
330
6C
100
AcDbEntity
  8
Visible Narrow (ANSI)
100
AcDbLine
 10
9.600513872981903
 20
7.321298315040311
 30
0.0
 11
9.556739224641992
 21
7.321298315040311
 31
0.0
  0
LINE
  5
11C
330
6C
100
AcDbEntity
  8
Visible (ANSI)
100
AcDbLine
 10
9.53888169190222
 20
7.43258012366562
 30
0.0
 11
9.600513872981903
 21
7.321298315040311
 31
0.0
  0
ELLIPSE
  5
11D
330
6C
100
AcDbEntity
  8
Visible (ANSI)
100
AcDbEllipse
 10
9.583761629341337
 20
7.494423315040179
 30
0.0
 11
0.0
 21
-0.094
 31
0.0
210
0.0
220
0.0
230
1.0
 40
0.6339745962170904
 41
3.994353728663821
 42
5.430424232104538
  0
LINE
  5
11E
330
6C
100
AcDbEntity
  8
Visible (ANSI)
100
AcDbLine
 10
9.600513872981951
 20
7.667548315040312
 30
0.0
 11
9.538881691902259
 21
7.55626650641481
 31
0.0
  0
LINE
  5
11F
330
6C
100
AcDbEntity
  8
Visible Narrow (ANSI)
100
AcDbLine
 10
9.55673922464207
 20
7.667548315040312
 30
0.0
 11
9.600513872981951
 21
7.667548315040312
 31
0.0
  0
ELLIPSE
  5
120
330
6C
100
AcDbEntity
  8
Visible (ANSI)
100
AcDbEllipse
 10
9.666398445662876
 20
7.667548315040312
 30
0.0
 11
0.0717872913679623
 21
0.0827067049141863
 31
0.0
210
0.0
220
0.0
230
0.9999999999999998
 40
0.4943891428341828
 41
1.076400451771636
 42
1.976148980260639
  0
LINE
  5
121
330
6C
100
AcDbEntity
  8
Visible Narrow (ANSI)
100
AcDbLine
 10
9.538881691902259
 20
7.55626650641481
 30
0.0
 11
9.67320133829364
 21
7.55626650641481
 31
0.0
  0
LINE
  5
122
330
6C
100
AcDbEntity
  8
Visible Narrow (ANSI)
100
AcDbLine
 10
9.53888169190222
 20
7.43258012366562
 30
0.0
 11
9.67320133829364
 21
7.43258012366562
 31
0.0
  0
LINE
  5
123
330
6C
100
AcDbEntity
  8
Visible (ANSI)
100
AcDbLine
 10
9.72520133829364
 20
13.07456261608263
 30
0.0
 11
9.72520133829364
 21
12.99347338712211
 31
0.0
  0
LINE
  5
124
330
6C
100
AcDbEntity
  8
Visible (ANSI)
100
AcDbLine
 10
9.72520133829364
 20
12.91471881934356
 30
0.0
 11
9.72520133829364
 21
12.99347338712211
 31
0.0
  0
LINE
  5
125
330
6C
100
AcDbEntity
  8
Visible (ANSI)
100
AcDbLine
 10
9.72520133829364
 20
12.91471881934355
 30
0.0
 11
9.72520133829364
 21
12.72101422360448
 31
0.0
  0
LINE
  5
126
330
6C
100
AcDbEntity
  8
Visible (ANSI)
100
AcDbLine
 10
9.72520133829364
 20
12.72101422360448
 30
0.0
 11
9.72520133829364
 21
12.32012331504031
 31
0.0
  0
LINE
  5
127
330
6C
100
AcDbEntity
  8
Visible (ANSI)
100
AcDbLine
 10
9.72520133829364
 20
12.32012331504031
 30
0.0
 11
9.72520133829364
 21
11.95690847732779
 31
0.0
  0
LINE
  5
128
330
6C
100
AcDbEntity
  8
Visible (ANSI)
100
AcDbLine
 10
9.72520133829364
 20
11.95690847732779
 30
0.0
 11
9.72520133829364
 21
11.90500615893521
 31
0.0
  0
LINE
  5
129
330
6C
100
AcDbEntity
  8
Visible (ANSI)
100
AcDbLine
 10
9.72520133829364
 20
11.54372331504031
 30
0.0
 11
9.72520133829364
 21
11.90500615893521
 31
0.0
  0
LINE
  5
12A
330
6C
100
AcDbEntity
  8
Visible (ANSI)
100
AcDbLine
 10
9.72520133829364
 20
11.54372331504031
 30
0.0
 11
9.72520133829364
 21
11.19512331504031
 31
0.0
  0
LINE
  5
12B
330
6C
100
AcDbEntity
  8
Visible (ANSI)
100
AcDbLine
 10
9.72520133829364
 20
10.83384047114545
 30
0.0
 11
9.72520133829364
 21
11.19512331504031
 31
0.0
  0
LINE
  5
12C
330
6C
100
AcDbEntity
  8
Visible (ANSI)
100
AcDbLine
 10
9.72520133829364
 20
10.83384047114539
 30
0.0
 11
9.72520133829364
 21
10.78193815275283
 31
0.0
  0
LINE
  5
12D
330
6C
100
AcDbEntity
  8
Visible (ANSI)
100
AcDbLine
 10
9.72520133829364
 20
10.78193815275276
 30
0.0
 11
9.72520133829364
 21
10.4187233150405
 31
0.0
  0
LINE
  5
12E
330
6C
100
AcDbEntity
  8
Visible (ANSI)
100
AcDbLine
 10
9.72520133829364
 20
10.4187233150405
 30
0.0
 11
9.72520133829364
 21
10.0701233150405
 31
0.0
  0
LINE
  5
12F
330
6C
100
AcDbEntity
  8
Visible (ANSI)
100
AcDbLine
 10
9.72520133829364
 20
10.0701233150405
 30
0.0
 11
9.72520133829364
 21
9.706908477327779
 31
0.0
  0
LINE
  5
130
330
6C
100
AcDbEntity
  8
Visible (ANSI)
100
AcDbLine
 10
9.72520133829364
 20
9.706908477327779
 30
0.0
 11
9.72520133829364
 21
9.655006158935226
 31
0.0
  0
LINE
  5
131
330
6C
100
AcDbEntity
  8
Visible (ANSI)
100
AcDbLine
 10
9.72520133829364
 20
9.293723315040313
 30
0.0
 11
9.72520133829364
 21
9.655006158935226
 31
0.0
  0
LINE
  5
132
330
6C
100
AcDbEntity
  8
Visible (ANSI)
100
AcDbLine
 10
9.72520133829364
 20
9.293723315040312
 30
0.0
 11
9.72520133829364
 21
9.19512331504031
 31
0.0
  0
LINE
  5
133
330
6C
100
AcDbEntity
  8
Visible (ANSI)
100
AcDbLine
 10
9.72520133829364
 20
8.833840471145366
 30
0.0
 11
9.72520133829364
 21
9.19512331504031
 31
0.0
  0
LINE
  5
134
330
6C
100
AcDbEntity
  8
Visible (ANSI)
100
AcDbLine
 10
9.72520133829364
 20
8.833840471145412
 30
0.0
 11
9.72520133829364
 21
8.781938152752832
 31
0.0
  0
LINE
  5
135
330
6C
100
AcDbEntity
  8
Visible (ANSI)
100
AcDbLine
 10
9.72520133829364
 20
8.781938152752831
 30
0.0
 11
9.72520133829364
 21
8.41872331504031
 31
0.0
  0
LINE
  5
136
330
6C
100
AcDbEntity
  8
Visible (ANSI)
100
AcDbLine
 10
9.72520133829364
 20
8.418723315040312
 30
0.0
 11
9.72520133829364
 21
8.320123315040312
 31
0.0
  0
LINE
  5
137
330
6C
100
AcDbEntity
  8
Visible (ANSI)
100
AcDbLine
 10
9.72520133829364
 20
8.320123315040312
 30
0.0
 11
9.72520133829364
 21
7.956666334108843
 31
0.0
  0
LINE
  5
138
330
6C
100
AcDbEntity
  8
Visible (ANSI)
100
AcDbLine
 10
9.72520133829364
 20
7.956666334082013
 30
0.0
 11
9.72520133829364
 21
7.905730334618027
 31
0.0
  0
LINE
  5
139
330
6C
100
AcDbEntity
  8
Visible (ANSI)
100
AcDbLine
 10
9.72520133829364
 20
7.543723315040258
 30
0.0
 11
9.72520133829364
 21
7.905730334618012
 31
0.0
  0
LINE
  5
13A
330
6C
100
AcDbEntity
  8
Visible (ANSI)
100
AcDbLine
 10
9.72520133829364
 20
7.543723315040258
 30
0.0
 11
9.72520133829364
 21
7.181423315040261
 31
0.0
  0
LINE
  5
13B
330
6C
100
AcDbEntity
  8
Visible (ANSI)
100
AcDbLine
 10
9.72520133829364
 20
7.181423315040261
 30
0.0
 11
9.72520133829364
 21
7.056923315040311
 31
0.0
  0
LINE
  5
13C
330
6C
100
AcDbEntity
  8
Visible (ANSI)
100
AcDbLine
 10
9.72520133829364
 20
7.056923315040311
 30
0.0
 11
9.72520133829364
 21
7.03027184231225
 31
0.0
  0
LINE
  5
13D
330
6C
100
AcDbEntity
  8
Visible (ANSI)
100
AcDbLine
 10
9.72520133829364
 20
7.030271842312252
 30
0.0
 11
9.72520133829364
 21
6.521074787768375
 31
0.0
  0
LINE
  5
13E
330
6C
100
AcDbEntity
  8
Visible (ANSI)
100
AcDbLine
 10
9.72520133829364
 20
6.494423315040312
 30
0.0
 11
9.72520133829364
 21
6.52107478776838
 31
0.0
  0
LINE
  5
13F
330
6C
100
AcDbEntity
  8
Visible (ANSI)
100
AcDbLine
 10
9.72520133829364
 20
6.494423315040312
 30
0.0
 11
9.72520133829364
 21
6.491326972658203
 31
0.0
  0
LINE
  5
140
330
6C
100
AcDbEntity
  8
Visible (ANSI)
100
AcDbLine
 10
9.67320133829364
 20
6.494423315040312
 30
0.0
 11
9.67320133829364
 21
6.491326972658203
 31
0.0
  0
LINE
  5
141
330
6C
100
AcDbEntity
  8
Visible (ANSI)
100
AcDbLine
 10
9.67320133829364
 20
6.494423315040312
 30
0.0
 11
9.67320133829364
 21
6.52107478776838
 31
0.0
  0
LINE
  5
142
330
6C
100
AcDbEntity
  8
Visible (ANSI)
100
AcDbLine
 10
9.67320133829364
 20
7.030271842312252
 30
0.0
 11
9.67320133829364
 21
6.521074787768375
 31
0.0
  0
LINE
  5
143
330
6C
100
AcDbEntity
  8
Visible (ANSI)
100
AcDbLine
 10
9.67320133829364
 20
7.056923315040311
 30
0.0
 11
9.67320133829364
 21
7.03027184231225
 31
0.0
  0
LINE
  5
144
330
6C
100
AcDbEntity
  8
Visible (ANSI)
100
AcDbLine
 10
9.67320133829364
 20
7.181423315040261
 30
0.0
 11
9.67320133829364
 21
7.056923315040311
 31
0.0
  0
LINE
  5
145
330
6C
100
AcDbEntity
  8
Visible (ANSI)
100
AcDbLine
 10
9.67320133829364
 20
7.543723315040258
 30
0.0
 11
9.67320133829364
 21
7.181423315040261
 31
0.0
  0
LINE
  5
146
330
6C
100
AcDbEntity
  8
Visible (ANSI)
100
AcDbLine
 10
9.67320133829364
 20
7.543723315040258
 30
0.0
 11
9.67320133829364
 21
7.905730334618012
 31
0.0
  0
LINE
  5
147
330
6C
100
AcDbEntity
  8
Visible (ANSI)
100
AcDbLine
 10
9.67320133829364
 20
7.956666334082013
 30
0.0
 11
9.67320133829364
 21
7.905730334618027
 31
0.0
  0
LINE
  5
148
330
6C
100
AcDbEntity
  8
Visible (ANSI)
100
AcDbLine
 10
9.67320133829364
 20
8.320123315040312
 30
0.0
 11
9.67320133829364
 21
7.956666334108843
 31
0.0
  0
LINE
  5
149
330
6C
100
AcDbEntity
  8
Visible (ANSI)
100
AcDbLine
 10
9.67320133829364
 20
8.418723315040312
 30
0.0
 11
9.67320133829364
 21
8.320123315040312
 31
0.0
  0
LINE
  5
14A
330
6C
100
AcDbEntity
  8
Visible (ANSI)
100
AcDbLine
 10
9.67320133829364
 20
8.781938152752831
 30
0.0
 11
9.67320133829364
 21
8.41872331504031
 31
0.0
  0
LINE
  5
14B
330
6C
100
AcDbEntity
  8
Visible (ANSI)
100
AcDbLine
 10
9.67320133829364
 20
8.833840471145412
 30
0.0
 11
9.67320133829364
 21
8.781938152752832
 31
0.0
  0
LINE
  5
14C
330
6C
100
AcDbEntity
  8
Visible (ANSI)
100
AcDbLine
 10
9.673201338293639
 20
8.833840471145366
 30
0.0
 11
9.673201338293639
 21
9.19512331504031
 31
0.0
  0
LINE
  5
14D
330
6C
100
AcDbEntity
  8
Visible (ANSI)
100
AcDbLine
 10
9.67320133829364
 20
9.293723315040312
 30
0.0
 11
9.67320133829364
 21
9.19512331504031
 31
0.0
  0
LINE
  5
14E
330
6C
100
AcDbEntity
  8
Visible (ANSI)
100
AcDbLine
 10
9.673201338293639
 20
9.293723315040313
 30
0.0
 11
9.673201338293639
 21
9.655006158935226
 31
0.0
  0
LINE
  5
14F
330
6C
100
AcDbEntity
  8
Visible (ANSI)
100
AcDbLine
 10
9.673201338293639
 20
9.706908477327779
 30
0.0
 11
9.673201338293639
 21
9.655006158935226
 31
0.0
  0
LINE
  5
150
330
6C
100
AcDbEntity
  8
Visible (ANSI)
100
AcDbLine
 10
9.673201338293639
 20
10.0701233150405
 30
0.0
 11
9.673201338293639
 21
9.706908477327779
 31
0.0
  0
LINE
  5
151
330
6C
100
AcDbEntity
  8
Visible (ANSI)
100
AcDbLine
 10
9.673201338293639
 20
10.4187233150405
 30
0.0
 11
9.673201338293639
 21
10.0701233150405
 31
0.0
  0
LINE
  5
152
330
6C
100
AcDbEntity
  8
Visible (ANSI)
100
AcDbLine
 10
9.673201338293639
 20
10.78193815275276
 30
0.0
 11
9.673201338293639
 21
10.4187233150405
 31
0.0
  0
LINE
  5
153
330
6C
100
AcDbEntity
  8
Visible (ANSI)
100
AcDbLine
 10
9.673201338293639
 20
10.83384047114539
 30
0.0
 11
9.673201338293639
 21
10.78193815275283
 31
0.0
  0
LINE
  5
154
330
6C
100
AcDbEntity
  8
Visible (ANSI)
100
AcDbLine
 10
9.673201338293639
 20
10.83384047114545
 30
0.0
 11
9.673201338293639
 21
11.19512331504031
 31
0.0
  0
LINE
  5
155
330
6C
100
AcDbEntity
  8
Visible (ANSI)
100
AcDbLine
 10
9.673201338293639
 20
11.54372331504031
 30
0.0
 11
9.673201338293639
 21
11.19512331504031
 31
0.0
  0
LINE
  5
156
330
6C
100
AcDbEntity
  8
Visible (ANSI)
100
AcDbLine
 10
9.673201338293639
 20
11.54372331504031
 30
0.0
 11
9.673201338293639
 21
11.90500615893521
 31
0.0
  0
LINE
  5
157
330
6C
100
AcDbEntity
  8
Visible (ANSI)
100
AcDbLine
 10
9.673201338293639
 20
11.95690847732779
 30
0.0
 11
9.673201338293639
 21
11.90500615893521
 31
0.0
  0
LINE
  5
158
330
6C
100
AcDbEntity
  8
Visible (ANSI)
100
AcDbLine
 10
9.673201338293639
 20
12.32012331504031
 30
0.0
 11
9.673201338293639
 21
11.95690847732779
 31
0.0
  0
LINE
  5
159
330
6C
100
AcDbEntity
  8
Visible (ANSI)
100
AcDbLine
 10
9.673201338293639
 20
12.72101422360448
 30
0.0
 11
9.673201338293639
 21
12.32012331504031
 31
0.0
  0
LINE
  5
15A
330
6C
100
AcDbEntity
  8
Visible (ANSI)
100
AcDbLine
 10
9.673201338293639
 20
12.91471881934355
 30
0.0
 11
9.673201338293639
 21
12.72101422360448
 31
0.0
  0
LINE
  5
15B
330
6C
100
AcDbEntity
  8
Visible (ANSI)
100
AcDbLine
 10
9.673201338293639
 20
12.91471881934356
 30
0.0
 11
9.673201338293639
 21
12.99347338712211
 31
0.0
  0
LINE
  5
15C
330
6C
100
AcDbEntity
  8
Visible (ANSI)
100
AcDbLine
 10
9.673201338293639
 20
13.07456261608263
 30
0.0
 11
9.673201338293639
 21
12.99347338712211
 31
0.0
  0
LINE
  5
15D
330
6C
100
AcDbEntity
  8
Visible (ANSI)
100
AcDbLine
 10
11.29290221499571
 20
6.491326972658203
 30
0.0
 11
11.29290221499571
 21
6.494423315040312
 31
0.0
  0
LINE
  5
15E
330
6C
100
AcDbEntity
  8
Visible (ANSI)
100
AcDbLine
 10
11.29290221499571
 20
6.551476081118584
 30
0.0
 11
11.29290221499571
 21
6.494423315040312
 31
0.0
  0
LINE
  5
15F
330
6C
100
AcDbEntity
  8
Visible (ANSI)
100
AcDbLine
 10
11.29290221499571
 20
6.551476081118584
 30
0.0
 11
11.29290221499571
 21
7.017654577991227
 31
0.0
  0
LINE
  5
160
330
6C
100
AcDbEntity
  8
Visible (ANSI)
100
AcDbLine
 10
11.29290221499571
 20
7.017654577991227
 30
0.0
 11
11.29290221499571
 21
7.056401517893657
 31
0.0
  0
LINE
  5
161
330
6C
100
AcDbEntity
  8
Visible (ANSI)
100
AcDbLine
 10
11.29290221499571
 20
7.056401517893657
 30
0.0
 11
11.29290221499571
 21
7.18142331504036
 31
0.0
  0
LINE
  5
162
330
6C
100
AcDbEntity
  8
Visible (ANSI)
100
AcDbLine
 10
11.29290221499571
 20
7.18142331504036
 30
0.0
 11
11.29290221499571
 21
7.54320403641501
 31
0.0
  0
LINE
  5
163
330
6C
100
AcDbEntity
  8
Visible (ANSI)
100
AcDbLine
 10
11.29290221499571
 20
7.54320403641501
 30
0.0
 11
11.29290221499571
 21
7.906938152752831
 31
0.0
  0
LINE
  5
164
330
6C
100
AcDbEntity
  8
Visible (ANSI)
100
AcDbLine
 10
11.29290221499571
 20
7.906938152752832
 30
0.0
 11
11.29290221499571
 21
7.958840471145413
 31
0.0
  0
LINE
  5
165
330
6C
100
AcDbEntity
  8
Visible (ANSI)
100
AcDbLine
 10
11.29290221499571
 20
8.32012331504031
 30
0.0
 11
11.29290221499571
 21
7.958840471145411
 31
0.0
  0
LINE
  5
166
330
6C
100
AcDbEntity
  8
Visible (ANSI)
100
AcDbLine
 10
11.29290221499571
 20
8.320123315040312
 30
0.0
 11
11.29290221499571
 21
8.418723315040312
 31
0.0
  0
LINE
  5
167
330
6C
100
AcDbEntity
  8
Visible (ANSI)
100
AcDbLine
 10
11.29290221499571
 20
8.780006158935213
 30
0.0
 11
11.29290221499571
 21
8.418723315040313
 31
0.0
  0
LINE
  5
168
330
6C
100
AcDbEntity
  8
Visible (ANSI)
100
AcDbLine
 10
11.29290221499571
 20
8.780006158935213
 30
0.0
 11
11.29290221499571
 21
8.831908477327791
 31
0.0
  0
LINE
  5
169
330
6C
100
AcDbEntity
  8
Visible (ANSI)
100
AcDbLine
 10
11.29290221499571
 20
8.831908477327749
 30
0.0
 11
11.29290221499571
 21
9.19512331504031
 31
0.0
  0
LINE
  5
16A
330
6C
100
AcDbEntity
  8
Visible (ANSI)
100
AcDbLine
 10
11.29290221499571
 20
9.19512331504031
 30
0.0
 11
11.29290221499571
 21
9.293723315040312
 31
0.0
  0
LINE
  5
16B
330
6C
100
AcDbEntity
  8
Visible (ANSI)
100
AcDbLine
 10
11.29290221499571
 20
9.293723315040312
 30
0.0
 11
11.29290221499571
 21
9.656938152752847
 31
0.0
  0
LINE
  5
16C
330
6C
100
AcDbEntity
  8
Visible (ANSI)
100
AcDbLine
 10
11.29290221499571
 20
9.656938152752848
 30
0.0
 11
11.29290221499571
 21
9.708840471145396
 31
0.0
  0
LINE
  5
16D
330
6C
100
AcDbEntity
  8
Visible (ANSI)
100
AcDbLine
 10
11.29290221499571
 20
10.0701233150417
 30
0.0
 11
11.29290221499571
 21
9.708840471145398
 31
0.0
  0
LINE
  5
16E
330
6C
100
AcDbEntity
  8
Visible (ANSI)
100
AcDbLine
 10
11.29290221499571
 20
10.0701233150417
 30
0.0
 11
11.29290221499571
 21
10.4187233150417
 31
0.0
  0
LINE
  5
16F
330
6C
100
AcDbEntity
  8
Visible (ANSI)
100
AcDbLine
 10
11.29290221499571
 20
10.78000615893516
 30
0.0
 11
11.29290221499571
 21
10.4187233150417
 31
0.0
  0
LINE
  5
170
330
6C
100
AcDbEntity
  8
Visible (ANSI)
100
AcDbLine
 10
11.29290221499571
 20
10.78000615893521
 30
0.0
 11
11.29290221499571
 21
10.83190847732779
 31
0.0
  0
LINE
  5
171
330
6C
100
AcDbEntity
  8
Visible (ANSI)
100
AcDbLine
 10
11.29290221499571
 20
10.8319084773278
 30
0.0
 11
11.29290221499571
 21
11.19512331504031
 31
0.0
  0
LINE
  5
172
330
6C
100
AcDbEntity
  8
Visible (ANSI)
100
AcDbLine
 10
11.29290221499571
 20
11.19512331504031
 30
0.0
 11
11.29290221499571
 21
11.54372331504031
 31
0.0
  0
LINE
  5
173
330
6C
100
AcDbEntity
  8
Visible (ANSI)
100
AcDbLine
 10
11.29290221499571
 20
11.54372331504031
 30
0.0
 11
11.29290221499571
 21
11.90693815275283
 31
0.0
  0
LINE
  5
174
330
6C
100
AcDbEntity
  8
Visible (ANSI)
100
AcDbLine
 10
11.29290221499571
 20
11.90693815275283
 30
0.0
 11
11.29290221499571
 21
11.95884047114541
 31
0.0
  0
LINE
  5
175
330
6C
100
AcDbEntity
  8
Visible (ANSI)
100
AcDbLine
 10
11.29290221499571
 20
12.32012331504031
 30
0.0
 11
11.29290221499571
 21
11.95884047114541
 31
0.0
  0
LINE
  5
176
330
6C
100
AcDbEntity
  8
Visible (ANSI)
100
AcDbLine
 10
11.29290221499571
 20
12.32012331504031
 30
0.0
 11
11.29290221499571
 21
12.72101422360448
 31
0.0
  0
LINE
  5
177
330
6C
100
AcDbEntity
  8
Visible (ANSI)
100
AcDbLine
 10
11.29290221499571
 20
12.72101422360448
 30
0.0
 11
11.29290221499571
 21
12.82413346553384
 31
0.0
  0
LINE
  5
178
330
6C
100
AcDbEntity
  8
Visible (ANSI)
100
AcDbLine
 10
11.29290221499571
 20
12.93508021109596
 30
0.0
 11
11.29290221499571
 21
12.82413346553384
 31
0.0
  0
LINE
  5
179
330
6C
100
AcDbEntity
  8
Visible (ANSI)
100
AcDbLine
 10
11.29290221499571
 20
12.93508021109597
 30
0.0
 11
11.29290221499571
 21
13.07620450039215
 31
0.0
  0
LINE
  5
17A
330
6C
100
AcDbEntity
  8
Visible (ANSI)
100
AcDbLine
 10
11.34490221499571
 20
12.93508021109597
 30
0.0
 11
11.34490221499571
 21
13.07620450039215
 31
0.0
  0
LINE
  5
17B
330
6C
100
AcDbEntity
  8
Visible (ANSI)
100
AcDbLine
 10
11.34490221499571
 20
12.93508021109596
 30
0.0
 11
11.34490221499571
 21
12.82413346553384
 31
0.0
  0
LINE
  5
17C
330
6C
100
AcDbEntity
  8
Visible (ANSI)
100
AcDbLine
 10
11.34490221499571
 20
12.72101422360448
 30
0.0
 11
11.34490221499571
 21
12.82413346553384
 31
0.0
  0
LINE
  5
17D
330
6C
100
AcDbEntity
  8
Visible (ANSI)
100
AcDbLine
 10
11.34490221499571
 20
12.32012331504031
 30
0.0
 11
11.34490221499571
 21
12.72101422360448
 31
0.0
  0
LINE
  5
17E
330
6C
100
AcDbEntity
  8
Visible (ANSI)
100
AcDbLine
 10
11.34490221499571
 20
12.32012331504031
 30
0.0
 11
11.34490221499571
 21
11.95884047114541
 31
0.0
  0
LINE
  5
17F
330
6C
100
AcDbEntity
  8
Visible (ANSI)
100
AcDbLine
 10
11.34490221499571
 20
11.90693815275283
 30
0.0
 11
11.34490221499571
 21
11.95884047114541
 31
0.0
  0
LINE
  5
180
330
6C
100
AcDbEntity
  8
Visible (ANSI)
100
AcDbLine
 10
11.34490221499571
 20
11.54372331504031
 30
0.0
 11
11.34490221499571
 21
11.90693815275283
 31
0.0
  0
LINE
  5
181
330
6C
100
AcDbEntity
  8
Visible (ANSI)
100
AcDbLine
 10
11.34490221499571
 20
11.19512331504031
 30
0.0
 11
11.34490221499571
 21
11.54372331504031
 31
0.0
  0
LINE
  5
182
330
6C
100
AcDbEntity
  8
Visible (ANSI)
100
AcDbLine
 10
11.34490221499571
 20
10.8319084773278
 30
0.0
 11
11.34490221499571
 21
11.19512331504031
 31
0.0
  0
LINE
  5
183
330
6C
100
AcDbEntity
  8
Visible (ANSI)
100
AcDbLine
 10
11.34490221499571
 20
10.78000615893521
 30
0.0
 11
11.34490221499571
 21
10.83190847732779
 31
0.0
  0
LINE
  5
184
330
6C
100
AcDbEntity
  8
Visible (ANSI)
100
AcDbLine
 10
11.34490221499571
 20
10.78000615893516
 30
0.0
 11
11.34490221499571
 21
10.4187233150417
 31
0.0
  0
LINE
  5
185
330
6C
100
AcDbEntity
  8
Visible (ANSI)
100
AcDbLine
 10
11.34490221499571
 20
10.0701233150417
 30
0.0
 11
11.34490221499571
 21
10.4187233150417
 31
0.0
  0
LINE
  5
186
330
6C
100
AcDbEntity
  8
Visible (ANSI)
100
AcDbLine
 10
11.34490221499571
 20
10.0701233150417
 30
0.0
 11
11.34490221499571
 21
9.708840471145398
 31
0.0
  0
LINE
  5
187
330
6C
100
AcDbEntity
  8
Visible (ANSI)
100
AcDbLine
 10
11.34490221499571
 20
9.656938152752848
 30
0.0
 11
11.34490221499571
 21
9.708840471145396
 31
0.0
  0
LINE
  5
188
330
6C
100
AcDbEntity
  8
Visible (ANSI)
100
AcDbLine
 10
11.34490221499571
 20
9.293723315040312
 30
0.0
 11
11.34490221499571
 21
9.656938152752847
 31
0.0
  0
LINE
  5
189
330
6C
100
AcDbEntity
  8
Visible (ANSI)
100
AcDbLine
 10
11.34490221499571
 20
9.19512331504031
 30
0.0
 11
11.34490221499571
 21
9.293723315040312
 31
0.0
  0
LINE
  5
18A
330
6C
100
AcDbEntity
  8
Visible (ANSI)
100
AcDbLine
 10
11.34490221499571
 20
8.831908477327749
 30
0.0
 11
11.34490221499571
 21
9.19512331504031
 31
0.0
  0
LINE
  5
18B
330
6C
100
AcDbEntity
  8
Visible (ANSI)
100
AcDbLine
 10
11.34490221499571
 20
8.780006158935213
 30
0.0
 11
11.34490221499571
 21
8.831908477327791
 31
0.0
  0
LINE
  5
18C
330
6C
100
AcDbEntity
  8
Visible (ANSI)
100
AcDbLine
 10
11.34490221499571
 20
8.780006158935213
 30
0.0
 11
11.34490221499571
 21
8.418723315040313
 31
0.0
  0
LINE
  5
18D
330
6C
100
AcDbEntity
  8
Visible (ANSI)
100
AcDbLine
 10
11.34490221499571
 20
8.320123315040312
 30
0.0
 11
11.34490221499571
 21
8.418723315040312
 31
0.0
  0
LINE
  5
18E
330
6C
100
AcDbEntity
  8
Visible (ANSI)
100
AcDbLine
 10
11.34490221499571
 20
8.32012331504031
 30
0.0
 11
11.34490221499571
 21
7.958840471145411
 31
0.0
  0
LINE
  5
18F
330
6C
100
AcDbEntity
  8
Visible (ANSI)
100
AcDbLine
 10
11.34490221499571
 20
7.906938152752832
 30
0.0
 11
11.34490221499571
 21
7.958840471145413
 31
0.0
  0
LINE
  5
190
330
6C
100
AcDbEntity
  8
Visible (ANSI)
100
AcDbLine
 10
11.34490221499571
 20
7.54320403641501
 30
0.0
 11
11.34490221499571
 21
7.906938152752831
 31
0.0
  0
LINE
  5
191
330
6C
100
AcDbEntity
  8
Visible (ANSI)
100
AcDbLine
 10
11.34490221499571
 20
7.18142331504036
 30
0.0
 11
11.34490221499571
 21
7.54320403641501
 31
0.0
  0
LINE
  5
192
330
6C
100
AcDbEntity
  8
Visible (ANSI)
100
AcDbLine
 10
11.34490221499571
 20
7.056401517893657
 30
0.0
 11
11.34490221499571
 21
7.18142331504036
 31
0.0
  0
LINE
  5
193
330
6C
100
AcDbEntity
  8
Visible (ANSI)
100
AcDbLine
 10
11.34490221499571
 20
7.017654577991227
 30
0.0
 11
11.34490221499571
 21
7.056401517893657
 31
0.0
  0
LINE
  5
194
330
6C
100
AcDbEntity
  8
Visible (ANSI)
100
AcDbLine
 10
11.34490221499571
 20
6.551476081118584
 30
0.0
 11
11.34490221499571
 21
7.017654577991227
 31
0.0
  0
LINE
  5
195
330
6C
100
AcDbEntity
  8
Visible (ANSI)
100
AcDbLine
 10
11.34490221499571
 20
6.551476081118584
 30
0.0
 11
11.34490221499571
 21
6.494423315040312
 31
0.0
  0
LINE
  5
196
330
6C
100
AcDbEntity
  8
Visible (ANSI)
100
AcDbLine
 10
11.34490221499571
 20
6.491326972658203
 30
0.0
 11
11.34490221499571
 21
6.494423315040312
 31
0.0
  0
LINE
  5
197
330
6C
100
AcDbEntity
  8
Visible (ANSI)
100
AcDbLine
 10
9.696081338293639
 20
13.07456261608263
 30
0.0
 11
9.673201338293639
 21
13.07456261608263
 31
0.0
  0
LINE
  5
198
330
6C
100
AcDbEntity
  8
Visible (ANSI)
100
AcDbLine
 10
9.72520133829364
 20
13.07456261608263
 30
0.0
 11
9.696081338293639
 21
13.07456261608263
 31
0.0
  0
LINE
  5
199
330
6C
100
AcDbEntity
  8
Visible (ANSI)
100
AcDbLine
 10
9.696081338293641
 20
6.491326972658203
 30
0.0
 11
9.72520133829364
 21
6.491326972658203
 31
0.0
  0
LINE
  5
19A
330
6C
100
AcDbEntity
  8
Visible (ANSI)
100
AcDbLine
 10
9.67320133829364
 20
6.491326972658203
 30
0.0
 11
9.696081338293641
 21
6.491326972658203
 31
0.0
  0
LINE
  5
19B
330
6C
100
AcDbEntity
  8
Visible Narrow (ANSI)
100
AcDbLine
 10
9.634201338293641
 20
6.375536255703747
 30
0.0
 11
9.634201338293641
 21
7.242176563799423
 31
0.0
  0
LINE
  5
19C
330
6C
100
AcDbEntity
  8
Visible Narrow (ANSI)
100
AcDbLine
 10
9.634201338293641
 20
7.746670066281192
 30
0.0
 11
9.634201338293641
 21
8.992176563799421
 31
0.0
  0
LINE
  5
19D
330
6C
100
AcDbEntity
  8
Visible Narrow (ANSI)
100
AcDbLine
 10
9.634201338293641
 20
9.496670066281193
 30
0.0
 11
9.634201338293641
 21
10.99217656379942
 31
0.0
  0
LINE
  5
19E
330
6C
100
AcDbEntity
  8
Visible Narrow (ANSI)
100
AcDbLine
 10
9.634201338293641
 20
11.49667006628119
 30
0.0
 11
9.634201338293639
 21
13.23208453380055
 31
0.0
  0
ARC
  5
19F
330
6C
100
AcDbEntity
  8
Visible (ANSI)
100
AcDbCircle
 10
9.347801776644686
 20
6.70817331504031
 30
0.0
 40
0.1299999999999907
100
AcDbArc
 50
0.0
 51
90.0
  0
LINE
  5
1A0
330
6C
100
AcDbEntity
  8
Visible (ANSI)
100
AcDbLine
 10
9.477801776644689
 20
6.70817331504031
 30
0.0
 11
9.477801776644675
 21
5.530673315040311
 31
0.0
  0
ARC
  5
1A1
330
6C
100
AcDbEntity
  8
Visible (ANSI)
100
AcDbCircle
 10
9.347801776644686
 20
5.530673315040313
 30
0.0
 40
0.1299999999999909
100
AcDbArc
 50
270.0
 51
0.0
  0
LINE
  5
1A2
330
6C
100
AcDbEntity
  8
Visible (ANSI)
100
AcDbLine
 10
9.347801776644686
 20
5.400673315040314
 30
0.0
 11
9.107801776644677
 21
5.400673315040295
 31
0.0
  0
ARC
  5
1A3
330
6C
100
AcDbEntity
  8
Visible (ANSI)
100
AcDbCircle
 10
9.107801776644677
 20
5.530673315040313
 30
0.0
 40
0.1300000000000002
100
AcDbArc
 50
180.0
 51
270.0
  0
LINE
  5
1A4
330
6C
100
AcDbEntity
  8
Visible (ANSI)
100
AcDbLine
 10
8.97780177664466
 20
5.530673315040314
 30
0.0
 11
8.977801776644675
 21
6.708173315040314
 31
0.0
  0
ARC
  5
1A5
330
6C
100
AcDbEntity
  8
Visible (ANSI)
100
AcDbCircle
 10
9.107801776644677
 20
6.70817331504031
 30
0.0
 40
0.13
100
AcDbArc
 50
89.99999999999939
 51
180.0
  0
LINE
  5
1A6
330
6C
100
AcDbEntity
  8
Visible (ANSI)
100
AcDbLine
 10
9.107801776644677
 20
6.838173315040304
 30
0.0
 11
9.347801776644686
 21
6.838173315040304
 31
0.0
  0
LINE
  5
1A7
330
6C
100
AcDbEntity
  8
Visible (ANSI)
100
AcDbLine
 10
9.063710899508798
 20
10.95492331504031
 30
0.0
 11
9.142574508482375
 21
10.95492331504031
 31
0.0
  0
ARC
  5
1A8
330
6C
100
AcDbEntity
  8
Visible (ANSI)
100
AcDbCircle
 10
9.142574508482377
 20
10.8694233150403
 30
0.0
 40
0.0854999999999998
100
AcDbArc
 50
270.0
 51
90.0
  0
LINE
  5
1A9
330
6C
100
AcDbEntity
  8
Visible (ANSI)
100
AcDbLine
 10
9.142574508482375
 20
10.78392331504031
 30
0.0
 11
9.063710899508798
 21
10.78392331504031
 31
0.0
  0
ARC
  5
1AA
330
6C
100
AcDbEntity
  8
Visible (ANSI)
100
AcDbCircle
 10
9.063710899508798
 20
10.8694233150403
 30
0.0
 40
0.0854999999999998
100
AcDbArc
 50
90.0
 51
270.0
  0
ARC
  5
1AB
330
6C
100
AcDbEntity
  8
Visible (ANSI)
100
AcDbCircle
 10
9.063710899508798
 20
9.494423315040313
 30
0.0
 40
0.0854999999999998
100
AcDbArc
 50
90.0
 51
270.0
  0
LINE
  5
1AC
330
6C
100
AcDbEntity
  8
Visible (ANSI)
100
AcDbLine
 10
9.063710899508798
 20
9.579923315040312
 30
0.0
 11
9.142574508482375
 21
9.579923315040312
 31
0.0
  0
ARC
  5
1AD
330
6C
100
AcDbEntity
  8
Visible (ANSI)
100
AcDbCircle
 10
9.142574508482377
 20
9.494423315040313
 30
0.0
 40
0.0854999999999998
100
AcDbArc
 50
270.0
 51
90.0
  0
LINE
  5
1AE
330
6C
100
AcDbEntity
  8
Visible (ANSI)
100
AcDbLine
 10
9.142574508482375
 20
9.408923315040313
 30
0.0
 11
9.063710899508798
 21
9.408923315040313
 31
0.0
  0
LINE
  5
1AF
330
6C
100
AcDbEntity
  8
Visible (ANSI)
100
AcDbLine
 10
9.063710899508798
 20
13.26742331504031
 30
0.0
 11
9.142574508482375
 21
13.26742331504031
 31
0.0
  0
ARC
  5
1B0
330
6C
100
AcDbEntity
  8
Visible (ANSI)
100
AcDbCircle
 10
9.142574508482377
 20
13.18192331504031
 30
0.0
 40
0.0854999999999998
100
AcDbArc
 50
270.0000000000009
 51
90.00000000000087
  0
LINE
  5
1B1
330
6C
100
AcDbEntity
  8
Visible (ANSI)
100
AcDbLine
 10
9.142574508482375
 20
13.0964233150403
 30
0.0
 11
9.063710899508798
 21
13.0964233150403
 31
0.0
  0
ARC
  5
1B2
330
6C
100
AcDbEntity
  8
Visible (ANSI)
100
AcDbCircle
 10
9.063710899508798
 20
13.18192331504031
 30
0.0
 40
0.0854999999999998
100
AcDbArc
 50
90.0000000000009
 51
270.0000000000009
  0
LINE
  5
1B3
330
6C
100
AcDbEntity
  8
Visible (ANSI)
100
AcDbLine
 10
9.481888956183903
 20
13.49589731824351
 30
0.0
 11
9.634201338293639
 21
13.23208453380055
 31
0.0
  0
LINE
  5
1B4
330
6C
100
AcDbEntity
  8
Visible (ANSI)
100
AcDbLine
 10
8.981888956183778
 20
13.49589731823668
 30
0.0
 11
9.481888956183903
 21
13.49589731824351
 31
0.0
  0
LINE
  5
1B5
330
6C
100
AcDbEntity
  8
Visible (ANSI)
100
AcDbLine
 10
8.759355395871812
 20
13.27567332001992
 30
0.0
 11
8.981888956183778
 21
13.49589731823668
 31
0.0
  0
LINE
  5
1B6
330
6C
100
AcDbEntity
  8
Visible (ANSI)
100
AcDbLine
 10
8.759355395871812
 20
11.48123837668553
 30
0.0
 11
8.759355395871812
 21
13.27567332001992
 31
0.0
  0
ARC
  5
1B7
330
6C
100
AcDbEntity
  8
Visible (ANSI)
100
AcDbCircle
 10
8.759350810972239
 20
11.29373837668553
 30
0.0
 40
0.1875000000000002
100
AcDbArc
 50
270.0014010421072
 51
89.99859895804066
  0
LINE
  5
1B8
330
6C
100
AcDbEntity
  8
Visible (ANSI)
100
AcDbLine
 10
8.759355395871812
 20
7.056923270681591
 30
0.0
 11
8.759355395871812
 21
11.10623837674049
 31
0.0
  0
ARC
  5
1B9
330
6C
100
AcDbEntity
  8
Visible (ANSI)
100
AcDbCircle
 10
8.759356037497163
 20
6.971422815512421
 30
0.0
 40
0.0855004551691697
100
AcDbArc
 50
0.0
 51
90.00042996758891
  0
LINE
  5
1BA
330
6C
100
AcDbEntity
  8
Visible (ANSI)
100
AcDbLine
 10
8.844856492666332
 20
6.921481180231884
 30
0.0
 11
8.844856492666332
 21
6.971422815512421
 31
0.0
  0
ARC
  5
1BB
330
6C
100
AcDbEntity
  8
Visible (ANSI)
100
AcDbCircle
 10
8.759356037497163
 20
6.921481178581439
 30
0.0
 40
0.0855004551691698
100
AcDbArc
 50
269.7961075238957
 51
0.0000008537736118
  0
LINE
  5
1BC
330
6C
100
AcDbEntity
  8
Visible (ANSI)
100
AcDbLine
 10
8.759051776644675
 20
5.338745479886327
 30
0.0
 11
8.759051776644675
 21
6.83598126478342
 31
0.0
  0
LINE
  5
1BD
330
6C
100
AcDbEntity
  8
Visible Narrow (ANSI)
100
AcDbLine
 10
8.759051776644675
 20
5.338745479886327
 30
0.0
 11
9.682801776644687
 21
5.338745479886327
 31
0.0
  0
LINE
  5
1BE
330
6C
100
AcDbEntity
  8
Visible (ANSI)
100
AcDbLine
 10
9.682801776644687
 20
5.494423315040312
 30
0.0
 11
9.682801776644687
 21
5.338745479886327
 31
0.0
  0
ARC
  5
1BF
330
6C
100
AcDbEntity
  8
Visible (ANSI)
100
AcDbCircle
 10
9.432801776644772
 20
5.494423315040185
 30
0.0
 40
0.2499999999999135
100
AcDbArc
 50
0.0
 51
5.000000000030791
  0
LINE
  5
1C0
330
6C
100
AcDbEntity
  8
Visible (ANSI)
100
AcDbLine
 10
9.635003102121737
 20
6.05167990056727
 30
0.0
 11
9.681850451167612
 21
5.516212250727225
 31
0.0
  0
ARC
  5
1C1
330
6C
100
AcDbEntity
  8
Visible (ANSI)
100
AcDbCircle
 10
9.884051776644746
 20
6.073468836254185
 30
0.0
 40
0.2500000000000702
100
AcDbArc
 50
180.0
 51
184.9999999999987
  0
LINE
  5
1C2
330
6C
100
AcDbEntity
  8
Visible (ANSI)
100
AcDbLine
 10
9.634051776644675
 20
6.369423315040312
 30
0.0
 11
9.634051776644675
 21
6.073468836254183
 31
0.0
  0
ARC
  5
1C3
330
6C
100
AcDbEntity
  8
Visible (ANSI)
100
AcDbCircle
 10
9.7590517766443
 20
6.369423315040321
 30
0.0
 40
0.1249999999996245
100
AcDbArc
 50
177.1969163505308
 51
180.0
  0
LINE
  5
1C4
330
6C
100
AcDbEntity
  8
Visible (ANSI)
100
AcDbLine
 10
11.32202221499571
 20
6.491326972658203
 30
0.0
 11
11.34490221499571
 21
6.491326972658203
 31
0.0
  0
LINE
  5
1C5
330
6C
100
AcDbEntity
  8
Visible (ANSI)
100
AcDbLine
 10
11.29290221499571
 20
6.491326972658203
 30
0.0
 11
11.32202221499571
 21
6.491326972658203
 31
0.0
  0
LINE
  5
1C6
330
6C
100
AcDbEntity
  8
Visible (ANSI)
100
AcDbLine
 10
11.32202221499571
 20
13.07620450039215
 30
0.0
 11
11.29290221499571
 21
13.07620450039215
 31
0.0
  0
LINE
  5
1C7
330
6C
100
AcDbEntity
  8
Visible (ANSI)
100
AcDbLine
 10
11.34490221499571
 20
13.07620450039215
 30
0.0
 11
11.32202221499571
 21
13.07620450039215
 31
0.0
  0
LINE
  5
1C8
330
6C
100
AcDbEntity
  8
Visible Narrow (ANSI)
100
AcDbLine
 10
11.3839022149957
 20
13.23615889726661
 30
0.0
 11
11.3839022149957
 21
12.74664861503093
 31
0.0
  0
LINE
  5
1C9
330
6C
100
AcDbEntity
  8
Visible Narrow (ANSI)
100
AcDbLine
 10
11.3839022149957
 20
12.2422708919712
 30
0.0
 11
11.3839022149957
 21
10.37164861503093
 31
0.0
  0
LINE
  5
1CA
330
6C
100
AcDbEntity
  8
Visible Narrow (ANSI)
100
AcDbLine
 10
11.3839022149957
 20
9.8672708919712
 30
0.0
 11
11.3839022149957
 21
8.621648615030935
 31
0.0
  0
LINE
  5
1CB
330
6C
100
AcDbEntity
  8
Visible Narrow (ANSI)
100
AcDbLine
 10
11.3839022149957
 20
8.1172708919712
 30
0.0
 11
11.3839022149957
 21
6.375536255703732
 31
0.0
  0
LINE
  5
1CC
330
6C
100
AcDbEntity
  8
Visible (ANSI)
100
AcDbLine
 10
11.29290221499571
 20
12.93508021109597
 30
0.0
 11
11.34490221499571
 21
12.93508021109597
 31
0.0
  0
LINE
  5
1CD
330
6C
100
AcDbEntity
  8
Visible Narrow (ANSI)
100
AcDbLine
 10
11.29290221499571
 20
12.82413346553384
 30
0.0
 11
11.34490221499571
 21
12.82413346553384
 31
0.0
  0
LINE
  5
1CE
330
6C
100
AcDbEntity
  8
Visible (ANSI)
100
AcDbLine
 10
11.29290221499571
 20
12.72101422360448
 30
0.0
 11
11.34490221499571
 21
12.72101422360448
 31
0.0
  0
LINE
  5
1CF
330
6C
100
AcDbEntity
  8
Visible Narrow (ANSI)
100
AcDbLine
 10
11.29290221499571
 20
12.32012331504031
 30
0.0
 11
11.34490221499571
 21
12.32012331504031
 31
0.0
  0
LINE
  5
1D0
330
6C
100
AcDbEntity
  8
Visible Narrow (ANSI)
100
AcDbLine
 10
11.29290221499571
 20
11.95884047114541
 30
0.0
 11
11.34490221499571
 21
11.95884047114541
 31
0.0
  0
LINE
  5
1D1
330
6C
100
AcDbEntity
  8
Visible Narrow (ANSI)
100
AcDbLine
 10
11.29290221499571
 20
11.90693815275283
 30
0.0
 11
11.34490221499571
 21
11.90693815275283
 31
0.0
  0
LINE
  5
1D2
330
6C
100
AcDbEntity
  8
Visible Narrow (ANSI)
100
AcDbLine
 10
11.29290221499571
 20
11.54372331504031
 30
0.0
 11
11.34490221499571
 21
11.54372331504031
 31
0.0
  0
LINE
  5
1D3
330
6C
100
AcDbEntity
  8
Visible Narrow (ANSI)
100
AcDbLine
 10
11.29290221499571
 20
11.19512331504031
 30
0.0
 11
11.34490221499571
 21
11.19512331504031
 31
0.0
  0
LINE
  5
1D4
330
6C
100
AcDbEntity
  8
Visible Narrow (ANSI)
100
AcDbLine
 10
11.29290221499571
 20
10.83190847732779
 30
0.0
 11
11.34490221499571
 21
10.83190847732779
 31
0.0
  0
LINE
  5
1D5
330
6C
100
AcDbEntity
  8
Visible Narrow (ANSI)
100
AcDbLine
 10
11.29290221499571
 20
10.78000615893521
 30
0.0
 11
11.34490221499571
 21
10.78000615893521
 31
0.0
  0
LINE
  5
1D6
330
6C
100
AcDbEntity
  8
Visible Narrow (ANSI)
100
AcDbLine
 10
11.29290221499571
 20
10.4187233150417
 30
0.0
 11
11.34490221499571
 21
10.4187233150417
 31
0.0
  0
LINE
  5
1D7
330
6C
100
AcDbEntity
  8
Visible Narrow (ANSI)
100
AcDbLine
 10
11.29290221499571
 20
10.0701233150417
 30
0.0
 11
11.34490221499571
 21
10.0701233150417
 31
0.0
  0
LINE
  5
1D8
330
6C
100
AcDbEntity
  8
Visible Narrow (ANSI)
100
AcDbLine
 10
11.29290221499571
 20
9.708840471145396
 30
0.0
 11
11.34490221499571
 21
9.708840471145396
 31
0.0
  0
LINE
  5
1D9
330
6C
100
AcDbEntity
  8
Visible Narrow (ANSI)
100
AcDbLine
 10
11.29290221499571
 20
9.656938152752848
 30
0.0
 11
11.34490221499571
 21
9.656938152752848
 31
0.0
  0
LINE
  5
1DA
330
6C
100
AcDbEntity
  8
Visible Narrow (ANSI)
100
AcDbLine
 10
11.29290221499571
 20
9.293723315040312
 30
0.0
 11
11.34490221499571
 21
9.293723315040312
 31
0.0
  0
LINE
  5
1DB
330
6C
100
AcDbEntity
  8
Visible Narrow (ANSI)
100
AcDbLine
 10
11.29290221499571
 20
9.19512331504031
 30
0.0
 11
11.34490221499571
 21
9.19512331504031
 31
0.0
  0
LINE
  5
1DC
330
6C
100
AcDbEntity
  8
Visible Narrow (ANSI)
100
AcDbLine
 10
11.29290221499571
 20
8.831908477327791
 30
0.0
 11
11.34490221499571
 21
8.831908477327791
 31
0.0
  0
LINE
  5
1DD
330
6C
100
AcDbEntity
  8
Visible Narrow (ANSI)
100
AcDbLine
 10
11.29290221499571
 20
8.780006158935213
 30
0.0
 11
11.34490221499571
 21
8.780006158935213
 31
0.0
  0
LINE
  5
1DE
330
6C
100
AcDbEntity
  8
Visible Narrow (ANSI)
100
AcDbLine
 10
11.29290221499571
 20
8.418723315040312
 30
0.0
 11
11.34490221499571
 21
8.418723315040312
 31
0.0
  0
LINE
  5
1DF
330
6C
100
AcDbEntity
  8
Visible Narrow (ANSI)
100
AcDbLine
 10
11.29290221499571
 20
8.320123315040312
 30
0.0
 11
11.34490221499571
 21
8.320123315040312
 31
0.0
  0
LINE
  5
1E0
330
6C
100
AcDbEntity
  8
Visible Narrow (ANSI)
100
AcDbLine
 10
11.29290221499571
 20
7.958840471145413
 30
0.0
 11
11.34490221499571
 21
7.958840471145413
 31
0.0
  0
LINE
  5
1E1
330
6C
100
AcDbEntity
  8
Visible Narrow (ANSI)
100
AcDbLine
 10
11.29290221499571
 20
7.906938152752832
 30
0.0
 11
11.34490221499571
 21
7.906938152752832
 31
0.0
  0
LINE
  5
1E2
330
6C
100
AcDbEntity
  8
Visible Narrow (ANSI)
100
AcDbLine
 10
11.29290221499571
 20
7.54320403641501
 30
0.0
 11
11.34490221499571
 21
7.54320403641501
 31
0.0
  0
LINE
  5
1E3
330
6C
100
AcDbEntity
  8
Visible (ANSI)
100
AcDbLine
 10
11.29290221499571
 20
7.18142331504036
 30
0.0
 11
11.34490221499571
 21
7.18142331504036
 31
0.0
  0
LINE
  5
1E4
330
6C
100
AcDbEntity
  8
Visible Narrow (ANSI)
100
AcDbLine
 10
11.29290221499571
 20
7.056401517893657
 30
0.0
 11
11.34490221499571
 21
7.056401517893657
 31
0.0
  0
LINE
  5
1E5
330
6C
100
AcDbEntity
  8
Visible Narrow (ANSI)
100
AcDbLine
 10
11.29290221499571
 20
7.017654577991227
 30
0.0
 11
11.34490221499571
 21
7.017654577991227
 31
0.0
  0
LINE
  5
1E6
330
6C
100
AcDbEntity
  8
Visible Narrow (ANSI)
100
AcDbLine
 10
11.29290221499571
 20
6.551476081118584
 30
0.0
 11
11.34490221499571
 21
6.551476081118584
 31
0.0
  0
LINE
  5
1E7
330
6C
100
AcDbEntity
  8
Visible (ANSI)
100
AcDbLine
 10
11.29290221499571
 20
6.494423315040312
 30
0.0
 11
11.34490221499571
 21
6.494423315040312
 31
0.0
  0
LINE
  5
1E8
330
6C
100
AcDbEntity
  8
Visible (ANSI)
100
AcDbLine
 10
11.3839022149957
 20
13.23615889726661
 30
0.0
 11
11.53301124899443
 21
13.49442332001992
 31
0.0
  0
ARC
  5
1E9
330
6C
100
AcDbEntity
  8
Visible (ANSI)
100
AcDbCircle
 10
11.87555177664467
 20
11.93192331504031
 30
0.0
 40
0.0854999999999998
100
AcDbArc
 50
90.0
 51
270.0
  0
LINE
  5
1EA
330
6C
100
AcDbEntity
  8
Visible (ANSI)
100
AcDbLine
 10
11.87555177664467
 20
12.0174233150403
 30
0.0
 11
11.95455177664468
 21
12.01742331504031
 31
0.0
  0
ARC
  5
1EB
330
6C
100
AcDbEntity
  8
Visible (ANSI)
100
AcDbCircle
 10
11.95455177664468
 20
11.93192331504031
 30
0.0
 40
0.0854999999999998
100
AcDbArc
 50
270.0
 51
90.0
  0
LINE
  5
1EC
330
6C
100
AcDbEntity
  8
Visible (ANSI)
100
AcDbLine
 10
11.95455177664468
 20
11.8464233150403
 30
0.0
 11
11.87555177664467
 21
11.84642331504031
 31
0.0
  0
ARC
  5
1ED
330
6C
100
AcDbEntity
  8
Visible (ANSI)
100
AcDbCircle
 10
11.87555177664467
 20
9.869423315040311
 30
0.0
 40
0.0854999999999998
100
AcDbArc
 50
90.0
 51
270.0
  0
LINE
  5
1EE
330
6C
100
AcDbEntity
  8
Visible (ANSI)
100
AcDbLine
 10
11.87555177664467
 20
9.954923315040314
 30
0.0
 11
11.95455177664468
 21
9.954923315040323
 31
0.0
  0
ARC
  5
1EF
330
6C
100
AcDbEntity
  8
Visible (ANSI)
100
AcDbCircle
 10
11.95455177664468
 20
9.869423315040313
 30
0.0
 40
0.0854999999999998
100
AcDbArc
 50
270.0
 51
90.0
  0
LINE
  5
1F0
330
6C
100
AcDbEntity
  8
Visible (ANSI)
100
AcDbLine
 10
11.95455177664468
 20
9.783923315040301
 30
0.0
 11
11.87555177664467
 21
9.783923315040308
 31
0.0
  0
ARC
  5
1F1
330
6C
100
AcDbEntity
  8
Visible (ANSI)
100
AcDbCircle
 10
11.87555177664467
 20
12.80692331504031
 30
0.0
 40
0.0854999999999998
100
AcDbArc
 50
90.0
 51
270.0
  0
LINE
  5
1F2
330
6C
100
AcDbEntity
  8
Visible (ANSI)
100
AcDbLine
 10
11.87555177664467
 20
12.89242331504032
 30
0.0
 11
11.95455177664468
 21
12.89242331504031
 31
0.0
  0
ARC
  5
1F3
330
6C
100
AcDbEntity
  8
Visible (ANSI)
100
AcDbCircle
 10
11.95455177664468
 20
12.80692331504031
 30
0.0
 40
0.0854999999999998
100
AcDbArc
 50
270.0
 51
90.0
  0
LINE
  5
1F4
330
6C
100
AcDbEntity
  8
Visible (ANSI)
100
AcDbLine
 10
11.95455177664468
 20
12.7214233150403
 30
0.0
 11
11.87555177664467
 21
12.7214233150403
 31
0.0
  0
ARC
  5
1F5
330
6C
100
AcDbEntity
  8
Visible (ANSI)
100
AcDbCircle
 10
11.91030177664467
 20
5.530673315040313
 30
0.0
 40
0.1300000000000002
100
AcDbArc
 50
270.0
 51
0.0
  0
LINE
  5
1F6
330
6C
100
AcDbEntity
  8
Visible (ANSI)
100
AcDbLine
 10
11.91030177664467
 20
5.400673315040295
 30
0.0
 11
11.67030177664466
 21
5.400673315040314
 31
0.0
  0
ARC
  5
1F7
330
6C
100
AcDbEntity
  8
Visible (ANSI)
100
AcDbCircle
 10
11.67030177664466
 20
5.530673315040313
 30
0.0
 40
0.1299999999999908
100
AcDbArc
 50
180.0
 51
270.0
  0
LINE
  5
1F8
330
6C
100
AcDbEntity
  8
Visible (ANSI)
100
AcDbLine
 10
11.54030177664467
 20
5.530673315040311
 30
0.0
 11
11.54030177664466
 21
6.70817331504031
 31
0.0
  0
ARC
  5
1F9
330
6C
100
AcDbEntity
  8
Visible (ANSI)
100
AcDbCircle
 10
11.67030177664466
 20
6.70817331504031
 30
0.0
 40
0.1299999999999907
100
AcDbArc
 50
90.0
 51
180.0
  0
LINE
  5
1FA
330
6C
100
AcDbEntity
  8
Visible (ANSI)
100
AcDbLine
 10
11.67030177664466
 20
6.838173315040304
 30
0.0
 11
11.91030177664467
 21
6.838173315040304
 31
0.0
  0
ARC
  5
1FB
330
6C
100
AcDbEntity
  8
Visible (ANSI)
100
AcDbCircle
 10
11.91030177664467
 20
6.70817331504031
 30
0.0
 40
0.13
100
AcDbArc
 50
0.0
 51
90.0
  0
LINE
  5
1FC
330
6C
100
AcDbEntity
  8
Visible (ANSI)
100
AcDbLine
 10
12.04030177664467
 20
6.708173315040314
 30
0.0
 11
12.04030177664469
 21
5.530673315040314
 31
0.0
  0
ARC
  5
1FD
330
6C
100
AcDbEntity
  8
Visible (ANSI)
100
AcDbCircle
 10
11.25905177664506
 20
6.369423315040321
 30
0.0
 40
0.1249999999996149
100
AcDbArc
 50
0.0
 51
2.803083649462934
  0
LINE
  5
1FE
330
6C
100
AcDbEntity
  8
Visible (ANSI)
100
AcDbLine
 10
11.38405177664467
 20
6.073468836254183
 30
0.0
 11
11.38405177664467
 21
6.369423315040312
 31
0.0
  0
ARC
  5
1FF
330
6C
100
AcDbEntity
  8
Visible (ANSI)
100
AcDbCircle
 10
11.13405177664466
 20
6.073468836254184
 30
0.0
 40
0.2500000000000084
100
AcDbArc
 50
355.0000000000001
 51
0.0
  0
LINE
  5
200
330
6C
100
AcDbEntity
  8
Visible (ANSI)
100
AcDbLine
 10
11.33625310212173
 20
5.516212250727225
 30
0.0
 11
11.38310045116761
 21
6.051679900567269
 31
0.0
  0
ARC
  5
201
330
6C
100
AcDbEntity
  8
Visible (ANSI)
100
AcDbCircle
 10
11.58530177664466
 20
5.494423315040179
 30
0.0
 40
0.2500000000000011
100
AcDbArc
 50
174.9999999999697
 51
180.0
  0
LINE
  5
202
330
6C
100
AcDbEntity
  8
Visible (ANSI)
100
AcDbLine
 10
11.33530177664468
 20
5.338745479886327
 30
0.0
 11
11.33530177664466
 21
5.494423315040312
 31
0.0
  0
LINE
  5
203
330
6C
100
AcDbEntity
  8
Visible Narrow (ANSI)
100
AcDbLine
 10
11.33530177664468
 20
5.338745479886327
 30
0.0
 11
12.25905177664467
 21
5.338745479886327
 31
0.0
  0
LINE
  5
204
330
6C
100
AcDbEntity
  8
Visible (ANSI)
100
AcDbLine
 10
12.25905177664467
 20
6.83598126478342
 30
0.0
 11
12.25905177664467
 21
5.338745479886327
 31
0.0
  0
ARC
  5
205
330
6C
100
AcDbEntity
  8
Visible (ANSI)
100
AcDbCircle
 10
12.25905177664467
 20
6.921481719952589
 30
0.0
 40
0.0855004551691698
100
AcDbArc
 50
179.9998942698629
 51
270.0000000000009
  0
LINE
  5
206
330
6C
100
AcDbEntity
  8
Visible (ANSI)
100
AcDbLine
 10
12.17355132147544
 20
6.971422973289437
 30
0.0
 11
12.17355132147544
 21
6.921481877729605
 31
0.0
  0
ARC
  5
207
330
6C
100
AcDbEntity
  8
Visible (ANSI)
100
AcDbCircle
 10
12.25905177664467
 20
6.971422815512419
 30
0.0
 40
0.08550045516917
100
AcDbArc
 50
90.00000000004122
 51
179.9998942698629
  0
LINE
  5
208
330
6C
100
AcDbEntity
  8
Visible (ANSI)
100
AcDbLine
 10
12.25905177664461
 20
11.10623837668553
 30
0.0
 11
12.25905177664461
 21
7.056923270681591
 31
0.0
  0
ARC
  5
209
330
6C
100
AcDbEntity
  8
Visible (ANSI)
100
AcDbCircle
 10
12.25905177664461
 20
11.29373837668553
 30
0.0
 40
0.1875000000000001
100
AcDbArc
 50
90.0
 51
270.0
  0
LINE
  5
20A
330
6C
100
AcDbEntity
  8
Visible (ANSI)
100
AcDbLine
 10
12.25905177664461
 20
13.27567332001998
 30
0.0
 11
12.25905177664461
 21
11.48123837668553
 31
0.0
  0
LINE
  5
20B
330
6C
100
AcDbEntity
  8
Visible (ANSI)
100
AcDbLine
 10
12.04030177664467
 20
13.49442332001992
 30
0.0
 11
12.25905177664461
 21
13.27567332001998
 31
0.0
  0
LINE
  5
20C
330
6C
100
AcDbEntity
  8
Visible (ANSI)
100
AcDbLine
 10
11.53301124899443
 20
13.49442332001992
 30
0.0
 11
12.04030177664467
 21
13.49442332001992
 31
0.0
  0
LINE
  5
20D
330
6C
100
AcDbEntity
  8
Visible Narrow (ANSI)
100
AcDbLine
 10
9.682801776644687
 20
5.301975927264626
 30
0.0
 11
8.759051776644675
 21
5.301975927264626
 31
0.0
  0
LINE
  5
20E
330
6C
100
AcDbEntity
  8
Visible Narrow (ANSI)
100
AcDbLine
 10
12.25905177664467
 20
5.301975927264626
 30
0.0
 11
11.33530177664468
 21
5.301975927264626
 31
0.0
  0
LINE
  5
20F
330
6C
100
AcDbEntity
  8
Visible (ANSI)
100
AcDbLine
 10
12.25905177664467
 20
4.643474569939127
 30
0.0
 11
11.72830177664467
 21
4.268177645824366
 31
0.0
  0
LINE
  5
210
330
6C
100
AcDbEntity
  8
Visible (ANSI)
100
AcDbLine
 10
11.72830177664467
 20
4.268177645824366
 30
0.0
 11
11.37580031464387
 21
4.268177645824366
 31
0.0
  0
ELLIPSE
  5
211
330
6C
100
AcDbEntity
  8
Visible (ANSI)
100
AcDbEllipse
 10
11.29030177664468
 20
4.267824092433774
 30
0.0
 11
0.0854999999999983
 21
0.0
 31
0.0
210
0.0
220
0.0
230
1.0
 40
0.7071067811865478
 41
0.0058479865488055
 42
1.017368042251902
  0
ELLIPSE
  5
212
330
6C
100
AcDbEntity
  8
Visible (ANSI)
100
AcDbEllipse
 10
11.29030177664467
 20
4.267824092433773
 30
0.0
 11
-0.0855000000000005
 21
0.0000000000000004
 31
0.0
210
0.0
220
0.0
230
1.0
 40
0.7071067811865494
 41
4.79506341528026
 42
5.974198515998634
  0
LINE
  5
213
330
6C
100
AcDbEntity
  8
Visible (ANSI)
100
AcDbLine
 10
11.23124116216947
 20
3.781688180368022
 30
0.0
 11
9.786862391119875
 21
3.781688180368022
 31
0.0
  0
ELLIPSE
  5
214
330
6C
100
AcDbEntity
  8
Visible (ANSI)
100
AcDbEllipse
 10
9.727801776644675
 20
4.267824092433774
 30
0.0
 11
0.0855
 21
0.0
 31
0.0
210
0.0
220
0.0
230
1.0
 40
0.7071067811865476
 41
0.3089867911809373
 42
1.488121891899312
  0
ELLIPSE
  5
215
330
6C
100
AcDbEntity
  8
Visible (ANSI)
100
AcDbEllipse
 10
9.727801776644676
 20
4.267824092433773
 30
0.0
 11
-0.085500000000001
 21
0.0
 31
0.0
210
0.0
220
0.0
230
0.9999999999999998
 40
0.7071067811865478
 41
5.265817264927679
 42
6.277337320630769
  0
LINE
  5
216
330
6C
100
AcDbEntity
  8
Visible (ANSI)
100
AcDbLine
 10
9.642303238645478
 20
4.268177645824366
 30
0.0
 11
9.289801776644674
 21
4.268177645824366
 31
0.0
  0
LINE
  5
217
330
6C
100
AcDbEntity
  8
Visible (ANSI)
100
AcDbLine
 10
9.289801776644674
 20
4.268177645824366
 30
0.0
 11
8.759051776644675
 21
4.643474569939127
 31
0.0
  0
ELLIPSE
  5
218
330
6C
100
AcDbEntity
  8
Visible (ANSI)
100
AcDbEllipse
 10
10.50905177664467
 20
4.046853223312977
 30
0.0
 11
0.0854999999999999
 21
0.0
 31
0.0
210
0.0
220
0.0
230
1.0
 40
0.7071067811865478
 41
0.3089867911809374
 42
2.832605862408856
  0
LINE
  5
219
330
6C
100
AcDbEntity
  8
Visible (ANSI)
100
AcDbLine
 10
12.25905177664467
 20
5.301975927264626
 30
0.0
 11
12.25905177664467
 21
4.680244122560827
 31
0.0
  0
LINE
  5
21A
330
6C
100
AcDbEntity
  8
Visible (ANSI)
100
AcDbLine
 10
12.25905177664467
 20
4.643474569939127
 30
0.0
 11
12.25905177664467
 21
4.680244122560827
 31
0.0
  0
LINE
  5
21B
330
6C
100
AcDbEntity
  8
Visible Narrow (ANSI)
100
AcDbLine
 10
11.28324116216947
 20
3.855227285611423
 30
0.0
 11
11.33524116216947
 21
3.855227285611423
 31
0.0
  0
LINE
  5
21C
330
6C
100
AcDbEntity
  8
Visible Narrow (ANSI)
100
AcDbLine
 10
11.23124116216947
 20
3.781688180368022
 30
0.0
 11
11.23124116216947
 21
3.818457732989723
 31
0.0
  0
LINE
  5
21D
330
6C
100
AcDbEntity
  8
Visible Narrow (ANSI)
100
AcDbLine
 10
11.23124116216947
 20
3.818457732989723
 30
0.0
 11
11.23124116216947
 21
4.260878122538799
 31
0.0
  0
LINE
  5
21E
330
6C
100
AcDbEntity
  8
Visible (ANSI)
100
AcDbLine
 10
11.23124116216947
 20
3.818457732989723
 30
0.0
 11
9.786862391119875
 21
3.818457732989723
 31
0.0
  0
LINE
  5
21F
330
6C
100
AcDbEntity
  8
Visible Narrow (ANSI)
100
AcDbLine
 10
9.786862391119875
 20
3.818457732989723
 30
0.0
 11
9.786862391119875
 21
3.781688180368022
 31
0.0
  0
LINE
  5
220
330
6C
100
AcDbEntity
  8
Visible Narrow (ANSI)
100
AcDbLine
 10
9.682862391119876
 20
3.855227285611422
 30
0.0
 11
9.734862391119875
 21
3.855227285611422
 31
0.0
  0
LINE
  5
221
330
6C
100
AcDbEntity
  8
Visible Narrow (ANSI)
100
AcDbLine
 10
9.786862391119877
 20
4.2608781225388
 30
0.0
 11
9.786862391119875
 21
3.818457732989723
 31
0.0
  0
ELLIPSE
  5
222
330
6C
100
AcDbEntity
  8
Visible (ANSI)
100
AcDbEllipse
 10
9.727801776644675
 20
4.304593645055474
 30
0.0
 11
0.0855000000000002
 21
0.0
 31
0.0
210
0.0
220
0.0
230
0.9999999999999998
 40
0.7071067811865476
 41
5.474938822285905
 42
7.771307199078899
  0
ELLIPSE
  5
223
330
6C
100
AcDbEntity
  8
Visible (ANSI)
100
AcDbEllipse
 10
9.727801776644676
 20
4.304593645055473
 30
0.0
 11
-0.085500000000001
 21
0.0
 31
0.0
210
0.0
220
0.0
230
0.9999999999999998
 40
0.7071067811865478
 41
5.265817264927679
 42
6.277337320630769
  0
LINE
  5
224
330
6C
100
AcDbEntity
  8
Visible (ANSI)
100
AcDbLine
 10
9.642303238645478
 20
4.268177645824366
 30
0.0
 11
9.642303238645478
 21
4.304947198446066
 31
0.0
  0
ELLIPSE
  5
225
330
6C
100
AcDbEntity
  8
Visible (ANSI)
100
AcDbEllipse
 10
11.67030177664466
 20
4.683779656466759
 30
0.0
 11
-0.1299999999999907
 21
-0.0000000000000045
 31
0.0
210
0.0
220
0.0
230
1.0
 40
0.7071067811865479
 41
0.0
 42
1.570796326794948
  0
LINE
  5
226
330
6C
100
AcDbEntity
  8
Visible (ANSI)
100
AcDbLine
 10
11.91030177664468
 20
4.591855774912509
 30
0.0
 11
11.67030177664466
 21
4.591855774912509
 31
0.0
  0
ELLIPSE
  5
227
330
6C
100
AcDbEntity
  8
Visible (ANSI)
100
AcDbEllipse
 10
11.91030177664467
 20
4.683779656466759
 30
0.0
 11
0.1299999999999907
 21
-0.000000000000002
 31
0.0
210
0.0
220
0.0
230
1.0
 40
0.7071067811865478
 41
4.712388980384755
 42
6.283185307179629
  0
LINE
  5
228
330
6C
100
AcDbEntity
  8
Visible (ANSI)
100
AcDbLine
 10
12.04030177664469
 20
5.162844500720641
 30
0.0
 11
12.04030177664467
 21
4.683779656466757
 31
0.0
  0
LINE
  5
229
330
6C
100
AcDbEntity
  8
Visible (ANSI)
100
AcDbLine
 10
11.54030177664466
 20
4.683779656466762
 30
0.0
 11
11.54030177664467
 21
5.162844500720647
 31
0.0
  0
ELLIPSE
  5
22A
330
6C
100
AcDbEntity
  8
Visible (ANSI)
100
AcDbEllipse
 10
9.107801776644675
 20
4.683779656466759
 30
0.0
 11
-0.1299999999999907
 21
0.000000000000003
 31
0.0
210
0.0
220
0.0
230
1.0
 40
0.7071067811865474
 41
0.0
 42
1.570796326794869
  0
LINE
  5
22B
330
6C
100
AcDbEntity
  8
Visible (ANSI)
100
AcDbLine
 10
9.347801776644683
 20
4.591855774912509
 30
0.0
 11
9.10780177664467
 21
4.591855774912509
 31
0.0
  0
ELLIPSE
  5
22C
330
6C
100
AcDbEntity
  8
Visible (ANSI)
100
AcDbEllipse
 10
9.347801776644688
 20
4.683779656466759
 30
0.0
 11
0.1299999999999907
 21
0.000000000000003
 31
0.0
210
0.0
220
0.0
230
1.0
 40
0.7071067811865478
 41
4.712388980384587
 42
6.283185307179513
  0
LINE
  5
22D
330
6C
100
AcDbEntity
  8
Visible (ANSI)
100
AcDbLine
 10
9.47780177664468
 20
5.162844500720647
 30
0.0
 11
9.477801776644687
 21
4.683779656466762
 31
0.0
  0
LINE
  5
22E
330
6C
100
AcDbEntity
  8
Visible (ANSI)
100
AcDbLine
 10
8.977801776644675
 20
4.683779656466757
 30
0.0
 11
8.977801776644655
 21
5.162844500720641
 31
0.0
  0
ELLIPSE
  5
22F
330
6C
100
AcDbEntity
  8
Visible (ANSI)
100
AcDbEllipse
 10
10.50905177664467
 20
4.083622775934677
 30
0.0
 11
0.0855
 21
0.0
 31
0.0
210
0.0
220
0.0
230
1.0
 40
0.7071067811865474
 41
0.0
 42
6.283185307179586
  0
LINE
  5
230
330
6C
100
AcDbEntity
  8
Visible (ANSI)
100
AcDbLine
 10
9.682801776644687
 20
5.301975927264626
 30
0.0
 11
9.682801776644687
 21
5.276865469186977
 31
0.0
  0
ELLIPSE
  5
231
330
6C
100
AcDbEntity
  8
Visible (ANSI)
100
AcDbEllipse
 10
9.807801776644687
 20
5.276865469186977
 30
0.0
 11
-0.125
 21
0.0
 31
0.0
210
0.0
220
0.0
230
1.0
 40
0.7071067811865475
 41
0.0
 42
1.570796326794672
  0
LINE
  5
232
330
6C
100
AcDbEntity
  8
Visible (ANSI)
100
AcDbLine
 10
9.807801776644659
 20
5.188477121538658
 30
0.0
 11
11.21030177664469
 21
5.188477121538658
 31
0.0
  0
ELLIPSE
  5
233
330
6C
100
AcDbEntity
  8
Visible (ANSI)
100
AcDbEllipse
 10
11.21030177664469
 20
5.276865469186977
 30
0.0
 11
0.125
 21
0.0
 31
0.0
210
0.0
220
0.0
230
1.0
 40
0.7071067811865472
 41
4.712388980384689
 42
6.283185307179586
  0
LINE
  5
234
330
6C
100
AcDbEntity
  8
Visible (ANSI)
100
AcDbLine
 10
11.33530177664469
 20
5.276865469186977
 30
0.0
 11
11.33530177664468
 21
5.301975927264626
 31
0.0
  0
LINE
  5
235
330
6C
100
AcDbEntity
  8
Visible (ANSI)
100
AcDbLine
 10
12.25905177664467
 20
4.680244122560827
 30
0.0
 11
11.72830177664467
 21
4.304947198446067
 31
0.0
  0
LINE
  5
236
330
6C
100
AcDbEntity
  8
Visible (ANSI)
100
AcDbLine
 10
11.72830177664467
 20
4.268177645824366
 30
0.0
 11
11.72830177664467
 21
4.304947198446067
 31
0.0
  0
LINE
  5
237
330
6C
100
AcDbEntity
  8
Visible (ANSI)
100
AcDbLine
 10
11.72830177664467
 20
4.304947198446067
 30
0.0
 11
11.37580031464387
 21
4.304947198446066
 31
0.0
  0
LINE
  5
238
330
6C
100
AcDbEntity
  8
Visible (ANSI)
100
AcDbLine
 10
11.37580031464387
 20
4.268177645824366
 30
0.0
 11
11.37580031464387
 21
4.304947198446066
 31
0.0
  0
ELLIPSE
  5
239
330
6C
100
AcDbEntity
  8
Visible (ANSI)
100
AcDbEllipse
 10
11.29030177664467
 20
4.304593645055474
 30
0.0
 11
0.085499999999999
 21
0.0
 31
0.0
210
0.0
220
0.0
230
1.0
 40
0.7071067811865476
 41
0.0058479865488056
 42
1.017368042251895
  0
ELLIPSE
  5
23A
330
6C
100
AcDbEntity
  8
Visible (ANSI)
100
AcDbEllipse
 10
11.29030177664467
 20
4.304593645055474
 30
0.0
 11
-0.0855
 21
0.0
 31
0.0
210
0.0
220
0.0
230
1.0
 40
0.7071067811865476
 41
4.795063415280257
 42
7.091431792073286
  0
LINE
  5
23B
330
6C
100
AcDbEntity
  8
Visible (ANSI)
100
AcDbLine
 10
9.642303238645478
 20
4.304947198446066
 30
0.0
 11
9.289801776644674
 21
4.304947198446066
 31
0.0
  0
LINE
  5
23C
330
6C
100
AcDbEntity
  8
Visible (ANSI)
100
AcDbLine
 10
9.289801776644674
 20
4.268177645824366
 30
0.0
 11
9.289801776644674
 21
4.304947198446066
 31
0.0
  0
LINE
  5
23D
330
6C
100
AcDbEntity
  8
Visible (ANSI)
100
AcDbLine
 10
9.289801776644674
 20
4.304947198446066
 30
0.0
 11
8.759051776644675
 21
4.680244122560827
 31
0.0
  0
LINE
  5
23E
330
6C
100
AcDbEntity
  8
Visible (ANSI)
100
AcDbLine
 10
8.759051776644675
 20
4.643474569939127
 30
0.0
 11
8.759051776644675
 21
4.680244122560827
 31
0.0
  0
LINE
  5
23F
330
6C
100
AcDbEntity
  8
Visible (ANSI)
100
AcDbLine
 10
8.759051776644675
 20
4.680244122560827
 30
0.0
 11
8.759051776644675
 21
5.301975927264626
 31
0.0
  0
LINE
  5
240
330
6C
100
AcDbEntity
  8
Visible (ANSI)
100
AcDbLine
 10
9.682862391119876
 20
4.609313806840424
 30
0.0
 11
9.734862391119875
 21
4.609313806840424
 31
0.0
  0
LINE
  5
241
330
6C
100
AcDbEntity
  8
Visible (ANSI)
100
AcDbLine
 10
9.734862391119875
 20
4.299954590071308
 30
0.0
 11
9.734862391119875
 21
4.609313806840424
 31
0.0
  0
LINE
  5
242
330
6C
100
AcDbEntity
  8
Visible (ANSI)
100
AcDbLine
 10
9.682862391119876
 20
4.299954590071308
 30
0.0
 11
9.682862391119876
 21
4.609313806840424
 31
0.0
  0
LINE
  5
243
330
6C
100
AcDbEntity
  8
Visible (ANSI)
100
AcDbLine
 10
9.682862391119876
 20
4.299954590071308
 30
0.0
 11
9.734862391119875
 21
4.299954590071308
 31
0.0
  0
LINE
  5
244
330
6C
100
AcDbEntity
  8
Visible (ANSI)
100
AcDbLine
 10
9.734862391119875
 20
4.123177894774672
 30
0.0
 11
9.734862391119875
 21
4.299954590071308
 31
0.0
  0
LINE
  5
245
330
6C
100
AcDbEntity
  8
Visible (ANSI)
100
AcDbLine
 10
9.682862391119876
 20
4.123177894774672
 30
0.0
 11
9.682862391119876
 21
4.299954590071308
 31
0.0
  0
LINE
  5
246
330
6C
100
AcDbEntity
  8
Visible (ANSI)
100
AcDbLine
 10
9.682862391119876
 20
4.123177894774672
 30
0.0
 11
9.734862391119875
 21
4.123177894774672
 31
0.0
  0
LINE
  5
247
330
6C
100
AcDbEntity
  8
Visible (ANSI)
100
AcDbLine
 10
9.734862391119875
 20
3.855227285611422
 30
0.0
 11
9.734862391119875
 21
4.123177894774672
 31
0.0
  0
LINE
  5
248
330
6C
100
AcDbEntity
  8
Visible (ANSI)
100
AcDbLine
 10
9.682862391119876
 20
3.855227285611422
 30
0.0
 11
9.682862391119876
 21
4.123177894774672
 31
0.0
  0
LINE
  5
249
330
6C
100
AcDbEntity
  8
Visible (ANSI)
100
AcDbLine
 10
11.28324116216947
 20
4.299954590071307
 30
0.0
 11
11.28324116216947
 21
4.123177894774671
 31
0.0
  0
LINE
  5
24A
330
6C
100
AcDbEntity
  8
Visible (ANSI)
100
AcDbLine
 10
11.33524116216947
 20
4.123177894774671
 30
0.0
 11
11.28324116216947
 21
4.123177894774671
 31
0.0
  0
LINE
  5
24B
330
6C
100
AcDbEntity
  8
Visible (ANSI)
100
AcDbLine
 10
11.33524116216947
 20
4.299954590071307
 30
0.0
 11
11.33524116216947
 21
4.123177894774671
 31
0.0
  0
LINE
  5
24C
330
6C
100
AcDbEntity
  8
Visible (ANSI)
100
AcDbLine
 10
11.33524116216947
 20
4.299954590071307
 30
0.0
 11
11.28324116216947
 21
4.299954590071307
 31
0.0
  0
LINE
  5
24D
330
6C
100
AcDbEntity
  8
Visible (ANSI)
100
AcDbLine
 10
11.28324116216947
 20
4.609313806840422
 30
0.0
 11
11.28324116216947
 21
4.299954590071307
 31
0.0
  0
LINE
  5
24E
330
6C
100
AcDbEntity
  8
Visible (ANSI)
100
AcDbLine
 10
11.33524116216947
 20
4.609313806840422
 30
0.0
 11
11.33524116216947
 21
4.299954590071307
 31
0.0
  0
LINE
  5
24F
330
6C
100
AcDbEntity
  8
Visible (ANSI)
100
AcDbLine
 10
11.33524116216947
 20
4.609313806840422
 30
0.0
 11
11.28324116216947
 21
4.609313806840422
 31
0.0
  0
LINE
  5
250
330
6C
100
AcDbEntity
  8
Visible (ANSI)
100
AcDbLine
 10
11.33524116216947
 20
4.123177894774671
 30
0.0
 11
11.33524116216947
 21
3.855227285611423
 31
0.0
  0
LINE
  5
251
330
6C
100
AcDbEntity
  8
Visible (ANSI)
100
AcDbLine
 10
11.28324116216947
 20
4.123177894774671
 30
0.0
 11
11.28324116216947
 21
3.855227285611423
 31
0.0
  0
LINE
  5
252
330
6C
100
AcDbEntity
  8
Visible (ANSI)
100
AcDbLine
 10
9.72520133829364
 20
12.99347338712211
 30
0.0
 11
9.673201338293639
 21
12.99347338712211
 31
0.0
  0
LINE
  5
253
330
6C
100
AcDbEntity
  8
Visible Narrow (ANSI)
100
AcDbLine
 10
9.72520133829364
 20
12.91471881934355
 30
0.0
 11
9.673201338293639
 21
12.91471881934355
 31
0.0
  0
LINE
  5
254
330
6C
100
AcDbEntity
  8
Visible (ANSI)
100
AcDbLine
 10
9.72520133829364
 20
12.72101422360448
 30
0.0
 11
9.673201338293639
 21
12.72101422360448
 31
0.0
  0
LINE
  5
255
330
6C
100
AcDbEntity
  8
Visible Narrow (ANSI)
100
AcDbLine
 10
9.72520133829364
 20
12.32012331504031
 30
0.0
 11
9.673201338293639
 21
12.32012331504031
 31
0.0
  0
LINE
  5
256
330
6C
100
AcDbEntity
  8
Visible Narrow (ANSI)
100
AcDbLine
 10
9.72520133829364
 20
11.95690847732779
 30
0.0
 11
9.673201338293639
 21
11.95690847732779
 31
0.0
  0
LINE
  5
257
330
6C
100
AcDbEntity
  8
Visible Narrow (ANSI)
100
AcDbLine
 10
9.72520133829364
 20
11.90500615893521
 30
0.0
 11
9.673201338293639
 21
11.90500615893521
 31
0.0
  0
LINE
  5
258
330
6C
100
AcDbEntity
  8
Visible Narrow (ANSI)
100
AcDbLine
 10
9.72520133829364
 20
11.54372331504031
 30
0.0
 11
9.673201338293639
 21
11.54372331504031
 31
0.0
  0
LINE
  5
259
330
6C
100
AcDbEntity
  8
Visible Narrow (ANSI)
100
AcDbLine
 10
9.72520133829364
 20
11.19512331504031
 30
0.0
 11
9.673201338293639
 21
11.19512331504031
 31
0.0
  0
LINE
  5
25A
330
6C
100
AcDbEntity
  8
Visible Narrow (ANSI)
100
AcDbLine
 10
9.72520133829364
 20
10.83384047114539
 30
0.0
 11
9.673201338293639
 21
10.83384047114539
 31
0.0
  0
LINE
  5
25B
330
6C
100
AcDbEntity
  8
Visible Narrow (ANSI)
100
AcDbLine
 10
9.72520133829364
 20
10.78193815275283
 30
0.0
 11
9.673201338293639
 21
10.78193815275283
 31
0.0
  0
LINE
  5
25C
330
6C
100
AcDbEntity
  8
Visible Narrow (ANSI)
100
AcDbLine
 10
9.72520133829364
 20
10.4187233150405
 30
0.0
 11
9.673201338293639
 21
10.4187233150405
 31
0.0
  0
LINE
  5
25D
330
6C
100
AcDbEntity
  8
Visible Narrow (ANSI)
100
AcDbLine
 10
9.72520133829364
 20
10.0701233150405
 30
0.0
 11
9.673201338293639
 21
10.0701233150405
 31
0.0
  0
LINE
  5
25E
330
6C
100
AcDbEntity
  8
Visible Narrow (ANSI)
100
AcDbLine
 10
9.72520133829364
 20
9.706908477327779
 30
0.0
 11
9.673201338293639
 21
9.706908477327779
 31
0.0
  0
LINE
  5
25F
330
6C
100
AcDbEntity
  8
Visible Narrow (ANSI)
100
AcDbLine
 10
9.72520133829364
 20
9.655006158935226
 30
0.0
 11
9.673201338293639
 21
9.655006158935226
 31
0.0
  0
LINE
  5
260
330
6C
100
AcDbEntity
  8
Visible Narrow (ANSI)
100
AcDbLine
 10
9.72520133829364
 20
9.293723315040312
 30
0.0
 11
9.67320133829364
 21
9.293723315040312
 31
0.0
  0
LINE
  5
261
330
6C
100
AcDbEntity
  8
Visible Narrow (ANSI)
100
AcDbLine
 10
9.72520133829364
 20
9.19512331504031
 30
0.0
 11
9.67320133829364
 21
9.19512331504031
 31
0.0
  0
LINE
  5
262
330
6C
100
AcDbEntity
  8
Visible Narrow (ANSI)
100
AcDbLine
 10
9.72520133829364
 20
8.833840471145412
 30
0.0
 11
9.67320133829364
 21
8.833840471145412
 31
0.0
  0
LINE
  5
263
330
6C
100
AcDbEntity
  8
Visible Narrow (ANSI)
100
AcDbLine
 10
9.72520133829364
 20
8.781938152752832
 30
0.0
 11
9.67320133829364
 21
8.781938152752832
 31
0.0
  0
LINE
  5
264
330
6C
100
AcDbEntity
  8
Visible Narrow (ANSI)
100
AcDbLine
 10
9.72520133829364
 20
8.418723315040312
 30
0.0
 11
9.67320133829364
 21
8.418723315040312
 31
0.0
  0
LINE
  5
265
330
6C
100
AcDbEntity
  8
Visible Narrow (ANSI)
100
AcDbLine
 10
9.72520133829364
 20
8.320123315040312
 30
0.0
 11
9.67320133829364
 21
8.320123315040312
 31
0.0
  0
LINE
  5
266
330
6C
100
AcDbEntity
  8
Visible Narrow (ANSI)
100
AcDbLine
 10
9.72520133829364
 20
7.956666334082013
 30
0.0
 11
9.67320133829364
 21
7.956666334082013
 31
0.0
  0
LINE
  5
267
330
6C
100
AcDbEntity
  8
Visible Narrow (ANSI)
100
AcDbLine
 10
9.72520133829364
 20
7.905730334618027
 30
0.0
 11
9.67320133829364
 21
7.905730334618027
 31
0.0
  0
LINE
  5
268
330
6C
100
AcDbEntity
  8
Visible Narrow (ANSI)
100
AcDbLine
 10
9.72520133829364
 20
7.543723315040258
 30
0.0
 11
9.67320133829364
 21
7.543723315040258
 31
0.0
  0
LINE
  5
269
330
6C
100
AcDbEntity
  8
Visible (ANSI)
100
AcDbLine
 10
9.72520133829364
 20
7.181423315040261
 30
0.0
 11
9.67320133829364
 21
7.181423315040261
 31
0.0
  0
LINE
  5
26A
330
6C
100
AcDbEntity
  8
Visible (ANSI)
100
AcDbLine
 10
9.72520133829364
 20
7.056923315040311
 30
0.0
 11
9.67320133829364
 21
7.056923315040311
 31
0.0
  0
LINE
  5
26B
330
6C
100
AcDbEntity
  8
Visible Narrow (ANSI)
100
AcDbLine
 10
9.72520133829364
 20
7.030271842312252
 30
0.0
 11
9.67320133829364
 21
7.030271842312252
 31
0.0
  0
LINE
  5
26C
330
6C
100
AcDbEntity
  8
Visible Narrow (ANSI)
100
AcDbLine
 10
9.72520133829364
 20
6.521074787768375
 30
0.0
 11
9.67320133829364
 21
6.521074787768375
 31
0.0
  0
LINE
  5
26D
330
6C
100
AcDbEntity
  8
Visible (ANSI)
100
AcDbLine
 10
9.72520133829364
 20
6.4944233150403
 30
0.0
 11
9.67320133829364
 21
6.4944233150403
 31
0.0
  0
LINE
  5
26E
330
6C
100
AcDbEntity
  8
Visible (ANSI)
100
AcDbLine
 10
9.659350046850773
 20
7.231298315040311
 30
0.0
 11
9.67320133829364
 21
7.231298315040311
 31
0.0
  0
ELLIPSE
  5
26F
330
6C
100
AcDbEntity
  8
Visible (ANSI)
100
AcDbEllipse
 10
9.705435966489364
 20
7.321298315040311
 30
0.0
 11
0.0
 21
0.09
 31
0.0
210
0.0
220
0.0
230
0.9999999999999998
 40
0.7320508075658202
 41
2.470544855284085
 42
2.630352598890429
  0
ELLIPSE
  5
270
330
6C
100
AcDbEntity
  8
Visible (ANSI)
100
AcDbEllipse
 10
9.705435966489364
 20
7.667548315040312
 30
0.0
 11
0.0
 21
0.09
 31
0.0
210
0.0
220
0.0
230
0.9999999999999998
 40
0.7320508075658204
 41
0.5112400546993641
 42
0.6710477983060326
  0
LINE
  5
271
330
6C
100
AcDbEntity
  8
Visible (ANSI)
100
AcDbLine
 10
9.659350046850784
 20
7.757548315040311
 30
0.0
 11
9.67320133829364
 21
7.757548315040311
 31
0.0
  0
LINE
  5
272
330
6C
100
AcDbEntity
  8
Visible (ANSI)
100
AcDbLine
 10
9.67320133829364
 20
7.738033666129989
 30
0.0
 11
9.664468482417595
 21
7.738033666129989
 31
0.0
  0
LINE
  5
273
330
6C
100
AcDbEntity
  8
Visible (ANSI)
100
AcDbLine
 10
9.67320133829364
 20
7.250812963950615
 30
0.0
 11
9.664468482417612
 21
7.250812963950615
 31
0.0
  0
LINE
  5
274
330
6C
100
AcDbEntity
  8
Visible (ANSI)
100
AcDbLine
 10
9.659350046850772
 20
10.98129831504031
 30
0.0
 11
9.673201338293639
 21
10.98129831504031
 31
0.0
  0
ELLIPSE
  5
275
330
6C
100
AcDbEntity
  8
Visible (ANSI)
100
AcDbEllipse
 10
9.705435966489364
 20
11.07129831504031
 30
0.0
 11
0.0
 21
0.09
 31
0.0
210
0.0
220
0.0
230
0.9999999999999998
 40
0.7320508075658202
 41
2.470544855284085
 42
2.630352598890421
  0
ELLIPSE
  5
276
330
6C
100
AcDbEntity
  8
Visible (ANSI)
100
AcDbEllipse
 10
9.705435966489364
 20
11.41754831504031
 30
0.0
 11
0.0
 21
0.09
 31
0.0
210
0.0
220
0.0
230
0.9999999999999998
 40
0.7320508075658204
 41
0.5112400546993712
 42
0.6710477983060326
  0
LINE
  5
277
330
6C
100
AcDbEntity
  8
Visible (ANSI)
100
AcDbLine
 10
9.659350046850784
 20
11.50754831504031
 30
0.0
 11
9.673201338293639
 21
11.50754831504031
 31
0.0
  0
LINE
  5
278
330
6C
100
AcDbEntity
  8
Visible (ANSI)
100
AcDbLine
 10
9.673201338293639
 20
11.48803366612999
 30
0.0
 11
9.664468482417595
 21
11.48803366612999
 31
0.0
  0
LINE
  5
279
330
6C
100
AcDbEntity
  8
Visible (ANSI)
100
AcDbLine
 10
9.673201338293639
 20
11.00081296395061
 30
0.0
 11
9.664468482417612
 21
11.00081296395061
 31
0.0
  0
LINE
  5
27A
330
6C
100
AcDbEntity
  8
Visible (ANSI)
100
AcDbLine
 10
9.67320133829364
 20
9.000812963950615
 30
0.0
 11
9.664468482417612
 21
9.000812963950615
 31
0.0
  0
LINE
  5
27B
330
6C
100
AcDbEntity
  8
Visible (ANSI)
100
AcDbLine
 10
9.673201338293639
 20
9.488033666129989
 30
0.0
 11
9.664468482417595
 21
9.488033666129989
 31
0.0
  0
LINE
  5
27C
330
6C
100
AcDbEntity
  8
Visible (ANSI)
100
AcDbLine
 10
9.659350046850772
 20
8.981298315040312
 30
0.0
 11
9.67320133829364
 21
8.981298315040312
 31
0.0
  0
ELLIPSE
  5
27D
330
6C
100
AcDbEntity
  8
Visible (ANSI)
100
AcDbEllipse
 10
9.705435966489364
 20
9.071298315040312
 30
0.0
 11
0.0
 21
0.09
 31
0.0
210
0.0
220
0.0
230
0.9999999999999998
 40
0.7320508075658202
 41
2.470544855284085
 42
2.630352598890421
  0
ELLIPSE
  5
27E
330
6C
100
AcDbEntity
  8
Visible (ANSI)
100
AcDbEllipse
 10
9.705435966489364
 20
9.417548315040312
 30
0.0
 11
0.0
 21
0.09
 31
0.0
210
0.0
220
0.0
230
0.9999999999999998
 40
0.7320508075658204
 41
0.5112400546993641
 42
0.6710477983060326
  0
LINE
  5
27F
330
6C
100
AcDbEntity
  8
Visible (ANSI)
100
AcDbLine
 10
9.659350046850784
 20
9.507548315040311
 30
0.0
 11
9.673201338293639
 21
9.507548315040311
 31
0.0
  0
SPLINE
  5
280
330
6C
100
AcDbEntity
  8
Visible (ANSI)
100
AcDbSpline
210
0.0
220
0.0
230
1.0
 70
     8
 71
     3
 72
    12
 73
     8
 74
     0
 42
0.0000000001
 43
0.0000000001
 40
0.2150237208379536
 40
0.2150237208379536
 40
0.2150237208379536
 40
0.2150237208379536
 40
0.2750881306777925
 40
0.2750881306777925
 40
0.3422257193793513
 40
0.3422257193793513
 40
0.3591123932691957
 40
0.3591123932691957
 40
0.3591123932691957
 40
0.3591123932691957
 10
9.659350046850775
 20
10.98129831504031
 30
0.0
 10
9.656328054923033
 20
10.98129831504031
 30
0.0
 10
9.652104718466715
 20
10.98261773487011
 30
0.0
 10
9.642437503376262
 20
10.98717848811397
 30
0.0
 10
9.635999024683593
 20
10.99097838429368
 30
0.0
 10
9.627088097554727
 20
10.99663389446752
 30
0.0
 10
9.625256191706318
 20
10.9978129840041
 30
0.0
 10
9.623399283346691
 20
10.99901832982788
 30
0.0
  0
SPLINE
  5
281
330
6C
100
AcDbEntity
  8
Visible (ANSI)
100
AcDbSpline
210
0.0
220
0.0
230
1.0
 70
     8
 71
     3
 72
    12
 73
     8
 74
     0
 42
0.0000000001
 43
0.0000000001
 40
2.466043470984515
 40
2.466043470984515
 40
2.466043470984515
 40
2.466043470984515
 40
2.48604246844482
 40
2.48604246844482
 40
2.556409122045188
 40
2.556409122045188
 40
2.610533610397315
 40
2.610533610397315
 40
2.610533610397315
 40
2.610533610397315
 10
9.623399283346724
 20
11.48982830025275
 30
0.0
 10
9.625591018128378
 20
11.49125098670478
 30
0.0
 10
9.627747872543928
 20
11.4926370704442
 30
0.0
 10
9.637222267332745
 20
11.4986175004895
 30
0.0
 10
9.643819838379929
 20
11.50244528648824
 30
0.0
 10
9.652928394015585
 20
11.50648673169011
 30
0.0
 10
9.65658895535096
 20
11.50754831504031
 30
0.0
 10
9.659350046850784
 20
11.50754831504031
 30
0.0
  0
LINE
  5
282
330
6C
100
AcDbEntity
  8
Visible (ANSI)
100
AcDbLine
 10
9.514054492467769
 20
11.34047763355802
 30
0.0
 11
9.55673922464207
 21
11.41754831504031
 31
0.0
  0
ELLIPSE
  5
283
330
6C
100
AcDbEntity
  8
Visible (ANSI)
100
AcDbEllipse
 10
9.622623797322995
 20
11.41754831504031
 30
0.0
 11
0.0717872913679623
 21
0.0827067049141863
 31
0.0
210
0.0
220
0.0
230
0.9999999999999998
 40
0.4943891428341829
 41
1.04365078013468
 42
1.976148980260639
  0
ELLIPSE
  5
284
330
6C
100
AcDbEntity
  8
Visible (ANSI)
100
AcDbEllipse
 10
9.583761629341337
 20
11.24442331504018
 30
0.0
 11
0.0
 21
-0.1459999999999999
 31
0.0
210
0.0
220
0.0
230
1.0
 40
0.6339745962170904
 41
3.994353728665632
 42
5.430424232103753
  0
ELLIPSE
  5
285
330
6C
100
AcDbEntity
  8
Visible (ANSI)
100
AcDbEllipse
 10
9.622623797322916
 20
11.07129831504031
 30
0.0
 11
0.0717872913680385
 21
-0.0827067049141834
 31
0.0
210
0.0
220
0.0
230
1.0
 40
0.4943891428337517
 41
4.307036326918865
 42
5.239534527044595
  0
LINE
  5
286
330
6C
100
AcDbEntity
  8
Visible (ANSI)
100
AcDbLine
 10
9.55673922464199
 20
11.07129831504031
 30
0.0
 11
9.514054492467769
 21
11.14836899652233
 31
0.0
  0
ELLIPSE
  5
287
330
6C
100
AcDbEntity
  8
Visible (ANSI)
100
AcDbEllipse
 10
9.666398445662826
 20
11.07129831504031
 30
0.0
 11
0.0717872913680385
 21
-0.0827067049141834
 31
0.0
210
0.0
220
0.0
230
1.0
 40
0.4943891428337517
 41
4.307036326918865
 42
5.206784855408064
  0
LINE
  5
288
330
6C
100
AcDbEntity
  8
Visible Narrow (ANSI)
100
AcDbLine
 10
9.600513872981903
 20
11.07129831504031
 30
0.0
 11
9.55673922464199
 21
11.07129831504031
 31
0.0
  0
LINE
  5
289
330
6C
100
AcDbEntity
  8
Visible (ANSI)
100
AcDbLine
 10
9.53888169190222
 20
11.18258012366562
 30
0.0
 11
9.600513872981903
 21
11.07129831504031
 31
0.0
  0
ELLIPSE
  5
28A
330
6C
100
AcDbEntity
  8
Visible (ANSI)
100
AcDbEllipse
 10
9.583761629341337
 20
11.24442331504018
 30
0.0
 11
0.0
 21
-0.094
 31
0.0
210
0.0
220
0.0
230
1.0
 40
0.6339745962170904
 41
3.994353728663821
 42
5.430424232104538
  0
LINE
  5
28B
330
6C
100
AcDbEntity
  8
Visible (ANSI)
100
AcDbLine
 10
9.600513872981951
 20
11.41754831504031
 30
0.0
 11
9.538881691902259
 21
11.30626650641481
 31
0.0
  0
LINE
  5
28C
330
6C
100
AcDbEntity
  8
Visible Narrow (ANSI)
100
AcDbLine
 10
9.55673922464207
 20
11.41754831504031
 30
0.0
 11
9.600513872981951
 21
11.41754831504031
 31
0.0
  0
ELLIPSE
  5
28D
330
6C
100
AcDbEntity
  8
Visible (ANSI)
100
AcDbEllipse
 10
9.666398445662876
 20
11.41754831504031
 30
0.0
 11
0.0717872913679623
 21
0.0827067049141863
 31
0.0
210
0.0
220
0.0
230
0.9999999999999998
 40
0.4943891428341828
 41
1.076400451771636
 42
1.976148980260639
  0
LINE
  5
28E
330
6C
100
AcDbEntity
  8
Visible Narrow (ANSI)
100
AcDbLine
 10
9.538881691902259
 20
11.30626650641481
 30
0.0
 11
9.673201338293639
 21
11.30626650641481
 31
0.0
  0
LINE
  5
28F
330
6C
100
AcDbEntity
  8
Visible Narrow (ANSI)
100
AcDbLine
 10
9.53888169190222
 20
11.18258012366562
 30
0.0
 11
9.673201338293639
 21
11.18258012366562
 31
0.0
  0
SPLINE
  5
290
330
6C
100
AcDbEntity
  8
Visible (ANSI)
100
AcDbSpline
210
0.0
220
0.0
230
1.0
 70
     8
 71
     3
 72
    12
 73
     8
 74
     0
 42
0.0000000001
 43
0.0000000001
 40
0.215023720837954
 40
0.215023720837954
 40
0.215023720837954
 40
0.215023720837954
 40
0.2750881306777917
 40
0.2750881306777917
 40
0.3422257193793505
 40
0.3422257193793505
 40
0.3591123932691929
 40
0.3591123932691929
 40
0.3591123932691929
 40
0.3591123932691929
 10
9.659350046850775
 20
8.981298315040312
 30
0.0
 10
9.656328054923033
 20
8.981298315040312
 30
0.0
 10
9.652104718466715
 20
8.982617734870112
 30
0.0
 10
9.642437503376262
 20
8.98717848811397
 30
0.0
 10
9.635999024683593
 20
8.990978384293683
 30
0.0
 10
9.627088097554729
 20
8.996633894467521
 30
0.0
 10
9.625256191706318
 20
8.997812984004101
 30
0.0
 10
9.623399283346691
 20
8.999018329827885
 30
0.0
  0
SPLINE
  5
291
330
6C
100
AcDbEntity
  8
Visible (ANSI)
100
AcDbSpline
210
0.0
220
0.0
230
1.0
 70
     8
 71
     3
 72
    12
 73
     8
 74
     0
 42
0.0000000001
 43
0.0000000001
 40
2.466043470984512
 40
2.466043470984512
 40
2.466043470984512
 40
2.466043470984512
 40
2.486042468444817
 40
2.486042468444817
 40
2.556409122045184
 40
2.556409122045184
 40
2.610533610397311
 40
2.610533610397311
 40
2.610533610397311
 40
2.610533610397311
 10
9.623399283346723
 20
9.489828300252748
 30
0.0
 10
9.625591018128378
 20
9.491250986704782
 30
0.0
 10
9.627747872543928
 20
9.492637070444205
 30
0.0
 10
9.637222267332745
 20
9.498617500489505
 30
0.0
 10
9.643819838379929
 20
9.502445286488235
 30
0.0
 10
9.652928394015585
 20
9.506486731690108
 30
0.0
 10
9.65658895535096
 20
9.507548315040311
 30
0.0
 10
9.659350046850784
 20
9.507548315040311
 30
0.0
  0
LINE
  5
292
330
6C
100
AcDbEntity
  8
Visible (ANSI)
100
AcDbLine
 10
9.514054492467769
 20
9.340477633558023
 30
0.0
 11
9.55673922464207
 21
9.417548315040312
 31
0.0
  0
ELLIPSE
  5
293
330
6C
100
AcDbEntity
  8
Visible (ANSI)
100
AcDbEllipse
 10
9.583761629341337
 20
9.244423315040178
 30
0.0
 11
0.0
 21
-0.1459999999999999
 31
0.0
210
0.0
220
0.0
230
1.0
 40
0.6339745962170904
 41
3.994353728665632
 42
5.430424232103753
  0
LINE
  5
294
330
6C
100
AcDbEntity
  8
Visible (ANSI)
100
AcDbLine
 10
9.556739224641992
 20
9.071298315040312
 30
0.0
 11
9.514054492467769
 21
9.148368996522332
 31
0.0
  0
LINE
  5
295
330
6C
100
AcDbEntity
  8
Visible (ANSI)
100
AcDbLine
 10
9.53888169190222
 20
9.182580123665619
 30
0.0
 11
9.600513872981903
 21
9.071298315040312
 31
0.0
  0
LINE
  5
296
330
6C
100
AcDbEntity
  8
Visible (ANSI)
100
AcDbLine
 10
9.600513872981951
 20
9.417548315040312
 30
0.0
 11
9.538881691902259
 21
9.306266506414809
 31
0.0
  0
ELLIPSE
  5
297
330
6C
100
AcDbEntity
  8
Visible (ANSI)
100
AcDbEllipse
 10
9.583761629341337
 20
9.244423315040178
 30
0.0
 11
0.0
 21
-0.094
 31
0.0
210
0.0
220
0.0
230
1.0
 40
0.6339745962170904
 41
3.994353728663821
 42
5.430424232104538
  0
ELLIPSE
  5
298
330
6C
100
AcDbEntity
  8
Visible (ANSI)
100
AcDbEllipse
 10
9.622623797322995
 20
9.417548315040312
 30
0.0
 11
0.0717872913679623
 21
0.0827067049141863
 31
0.0
210
0.0
220
0.0
230
0.9999999999999998
 40
0.4943891428341829
 41
1.04365078013468
 42
1.976148980260639
  0
ELLIPSE
  5
299
330
6C
100
AcDbEntity
  8
Visible (ANSI)
100
AcDbEllipse
 10
9.622623797322916
 20
9.071298315040312
 30
0.0
 11
0.0717872913680385
 21
-0.0827067049141834
 31
0.0
210
0.0
220
0.0
230
1.0
 40
0.4943891428337517
 41
4.307036326918865
 42
5.239534527044612
  0
ELLIPSE
  5
29A
330
6C
100
AcDbEntity
  8
Visible (ANSI)
100
AcDbEllipse
 10
9.666398445662826
 20
9.071298315040312
 30
0.0
 11
0.0717872913680385
 21
-0.0827067049141834
 31
0.0
210
0.0
220
0.0
230
1.0
 40
0.4943891428337517
 41
4.307036326918865
 42
5.206784855408064
  0
ELLIPSE
  5
29B
330
6C
100
AcDbEntity
  8
Visible (ANSI)
100
AcDbEllipse
 10
9.666398445662876
 20
9.417548315040312
 30
0.0
 11
0.0717872913679623
 21
0.0827067049141863
 31
0.0
210
0.0
220
0.0
230
0.9999999999999998
 40
0.4943891428341828
 41
1.076400451771636
 42
1.976148980260639
  0
LINE
  5
29C
330
6C
100
AcDbEntity
  8
Visible Narrow (ANSI)
100
AcDbLine
 10
9.600513872981903
 20
9.071298315040312
 30
0.0
 11
9.556739224641992
 21
9.071298315040312
 31
0.0
  0
LINE
  5
29D
330
6C
100
AcDbEntity
  8
Visible Narrow (ANSI)
100
AcDbLine
 10
9.55673922464207
 20
9.417548315040312
 30
0.0
 11
9.600513872981951
 21
9.417548315040312
 31
0.0
  0
LINE
  5
29E
330
6C
100
AcDbEntity
  8
Visible Narrow (ANSI)
100
AcDbLine
 10
9.53888169190222
 20
9.182580123665619
 30
0.0
 11
9.673201338293639
 21
9.182580123665619
 31
0.0
  0
LINE
  5
29F
330
6C
100
AcDbEntity
  8
Visible Narrow (ANSI)
100
AcDbLine
 10
9.538881691902259
 20
9.306266506414809
 30
0.0
 11
9.673201338293639
 21
9.306266506414809
 31
0.0
  0
SPLINE
  5
2A0
330
6C
100
AcDbEntity
  8
Visible (ANSI)
100
AcDbSpline
210
0.0
220
0.0
230
1.0
 70
     8
 71
     3
 72
    12
 73
     8
 74
     0
 42
0.0000000001
 43
0.0000000001
 40
0.2150359196811818
 40
0.2150359196811818
 40
0.2150359196811818
 40
0.2150359196811818
 40
0.2751313054488032
 40
0.2751313054488032
 40
0.3422840281604402
 40
0.3422840281604402
 40
0.359237451063495
 40
0.359237451063495
 40
0.359237451063495
 40
0.359237451063495
 10
11.35873307672778
 20
12.75754831504031
 30
0.0
 10
11.3617542060785
 20
12.75754831504031
 30
0.0
 10
11.36597757373923
 20
12.75622764090765
 30
0.0
 10
11.37564503164252
 20
12.75166287710347
 30
0.0
 10
11.38208328241816
 20
12.74786048850774
 30
0.0
 10
11.39100098740735
 20
12.74219715406469
 30
0.0
 10
11.39283991547346
 20
12.74101276385568
 30
0.0
 10
11.3947039850069
 20
12.73980196863194
 30
0.0
  0
SPLINE
  5
2A1
330
6C
100
AcDbEntity
  8
Visible (ANSI)
100
AcDbSpline
210
0.0
220
0.0
230
1.0
 70
     8
 71
     3
 72
    12
 73
     8
 74
     0
 42
0.0000000001
 43
0.0000000001
 40
2.468104024836142
 40
2.468104024836142
 40
2.468104024836142
 40
2.468104024836142
 40
2.488398773589933
 40
2.488398773589933
 40
2.55883186543068
 40
2.55883186543068
 40
2.613093010733118
 40
2.613093010733118
 40
2.613093010733118
 40
2.613093010733118
 10
11.3947039850069
 20
12.2491346966902
 30
0.0
 10
11.39248076247656
 20
12.24768737844554
 30
0.0
 10
11.3902931046518
 20
12.24627738861898
 30
0.0
 10
11.38078971585942
 20
12.24026207893284
 30
0.0
 10
11.37419362273179
 20
12.23642317197828
 30
0.0
 10
11.36508414788982
 20
12.23236497072335
 30
0.0
 10
11.36142252126373
 20
12.23129831504145
 30
0.0
 10
11.35866405147788
 20
12.23129831504031
 30
0.0
  0
LINE
  5
2A2
330
6C
100
AcDbEntity
  8
Visible (ANSI)
100
AcDbLine
 10
11.5039382741892
 20
12.39849474392163
 30
0.0
 11
11.4611844847821
 21
12.32129831504031
 31
0.0
  0
ELLIPSE
  5
2A3
330
6C
100
AcDbEntity
  8
Visible (ANSI)
100
AcDbEllipse
 10
11.3952999121009
 20
12.32129831504031
 30
0.0
 11
-0.0717866343523219
 21
-0.0827067297331837
 31
0.0
210
0.0
220
0.0
230
0.9999999999999998
 40
0.4943928619663867
 41
1.045816943497835
 42
1.976148280953285
  0
ELLIPSE
  5
2A4
330
6C
100
AcDbEntity
  8
Visible (ANSI)
100
AcDbEllipse
 10
11.43423072337999
 20
12.49454831504031
 30
0.0
 11
0.0000000000000011
 21
0.1459999999999999
 31
0.0
210
0.0
220
0.0
230
1.0
 40
0.6339745962155629
 41
3.994360526114229
 42
5.430417434655165
  0
ELLIPSE
  5
2A5
330
6C
100
AcDbEntity
  8
Visible (ANSI)
100
AcDbEllipse
 10
11.39543836989625
 20
12.66754831504031
 30
0.0
 11
-0.0717866343523197
 21
0.0827067297331841
 31
0.0
210
0.0
220
0.0
230
1.0
 40
0.4943928619663909
 41
4.307037026226311
 42
5.23904435301846
  0
LINE
  5
2A6
330
6C
100
AcDbEntity
  8
Visible (ANSI)
100
AcDbLine
 10
11.46132294257745
 20
12.66754831504031
 30
0.0
 11
11.5039382741892
 21
12.59060188615898
 31
0.0
  0
LINE
  5
2A7
330
6C
100
AcDbEntity
  8
Visible Narrow (ANSI)
100
AcDbLine
 10
11.4611844847821
 20
12.32129831504031
 30
0.0
 11
11.41741009638396
 21
12.32129831504031
 31
0.0
  0
ELLIPSE
  5
2A8
330
6C
100
AcDbEntity
  8
Visible (ANSI)
100
AcDbEllipse
 10
11.35152552370276
 20
12.32129831504031
 30
0.0
 11
-0.0717866343523216
 21
-0.0827067297331837
 31
0.0
210
0.0
220
0.0
230
1.0
 40
0.4943928619663878
 41
1.080850954213152
 42
1.976148280953299
  0
LINE
  5
2A9
330
6C
100
AcDbEntity
  8
Visible (ANSI)
100
AcDbLine
 10
11.41741009638396
 20
12.32129831504031
 30
0.0
 11
11.47911092732565
 21
12.43270560486801
 31
0.0
  0
LINE
  5
2AA
330
6C
100
AcDbEntity
  8
Visible Narrow (ANSI)
100
AcDbLine
 10
11.47911092732565
 20
12.43270560486801
 30
0.0
 11
11.34490221499571
 21
12.43270560486801
 31
0.0
  0
LINE
  5
2AB
330
6C
100
AcDbEntity
  8
Visible Narrow (ANSI)
100
AcDbLine
 10
11.41754855417931
 20
12.66754831504031
 30
0.0
 11
11.46132294257745
 21
12.66754831504031
 31
0.0
  0
LINE
  5
2AC
330
6C
100
AcDbEntity
  8
Visible (ANSI)
100
AcDbLine
 10
11.47911092732565
 20
12.55639102521261
 30
0.0
 11
11.41754855417931
 21
12.66754831504031
 31
0.0
  0
ELLIPSE
  5
2AD
330
6C
100
AcDbEntity
  8
Visible (ANSI)
100
AcDbEllipse
 10
11.43423072337999
 20
12.49454831504031
 30
0.0
 11
0.0000000000000007
 21
0.094
 31
0.0
210
0.0
220
0.0
230
1.0
 40
0.6339745962155631
 41
3.994360526114228
 42
5.430417434655169
  0
ELLIPSE
  5
2AE
330
6C
100
AcDbEntity
  8
Visible (ANSI)
100
AcDbEllipse
 10
11.35166398149811
 20
12.66754831504031
 30
0.0
 11
-0.0717866343523195
 21
0.0827067297331841
 31
0.0
210
0.0
220
0.0
230
1.0
 40
0.4943928619663918
 41
4.307037026226311
 42
5.206789157556109
  0
LINE
  5
2AF
330
6C
100
AcDbEntity
  8
Visible Narrow (ANSI)
100
AcDbLine
 10
11.47911092732565
 20
12.55639102521261
 30
0.0
 11
11.34490221499571
 21
12.55639102521261
 31
0.0
  0
ELLIPSE
  5
2B0
330
6C
100
AcDbEntity
  8
Visible (ANSI)
100
AcDbEllipse
 10
11.31262688456717
 20
12.32129831504031
 30
0.0
 11
-0.0000000000000007
 21
-0.09
 31
0.0
210
0.0
220
0.0
230
0.9999999999999998
 40
0.7320508075688746
 41
0.5119485474432049
 42
0.6754990000547503
  0
LINE
  5
2B1
330
6C
100
AcDbEntity
  8
Visible (ANSI)
100
AcDbLine
 10
11.35866405147788
 20
12.23129831504031
 30
0.0
 11
11.34490221499571
 21
12.23129831504031
 31
0.0
  0
LINE
  5
2B2
330
6C
100
AcDbEntity
  8
Visible (ANSI)
100
AcDbLine
 10
11.34490221499571
 20
12.25106276232666
 30
0.0
 11
11.35382363896072
 21
12.25106276232666
 31
0.0
  0
LINE
  5
2B3
330
6C
100
AcDbEntity
  8
Visible (ANSI)
100
AcDbLine
 10
11.35873307672778
 20
12.75754831504031
 30
0.0
 11
11.34490221499571
 21
12.75754831504031
 31
0.0
  0
ELLIPSE
  5
2B4
330
6C
100
AcDbEntity
  8
Visible (ANSI)
100
AcDbEllipse
 10
11.31262688456717
 20
12.66754831504031
 30
0.0
 11
0.0000000000000001
 21
-0.09
 31
0.0
210
0.0
220
0.0
230
0.9999999999999998
 40
0.7320508075688742
 41
2.470548458124696
 42
2.629644106146606
  0
LINE
  5
2B5
330
6C
100
AcDbEntity
  8
Visible (ANSI)
100
AcDbLine
 10
11.34490221499571
 20
12.73803386775396
 30
0.0
 11
11.35359418273637
 21
12.73803386775396
 31
0.0
  0
ELLIPSE
  5
2B6
330
6C
100
AcDbEntity
  8
Visible (ANSI)
100
AcDbEllipse
 10
11.31262688456717
 20
8.196298315040312
 30
0.0
 11
-0.0000000000000007
 21
-0.09
 31
0.0
210
0.0
220
0.0
230
0.9999999999999998
 40
0.7320508075688746
 41
0.5119485474432049
 42
0.6754990000547503
  0
LINE
  5
2B7
330
6C
100
AcDbEntity
  8
Visible (ANSI)
100
AcDbLine
 10
11.35866405147788
 20
8.106298315040312
 30
0.0
 11
11.34490221499571
 21
8.106298315040312
 31
0.0
  0
LINE
  5
2B8
330
6C
100
AcDbEntity
  8
Visible (ANSI)
100
AcDbLine
 10
11.34490221499571
 20
8.126062762326659
 30
0.0
 11
11.35382363896072
 21
8.126062762326659
 31
0.0
  0
LINE
  5
2B9
330
6C
100
AcDbEntity
  8
Visible (ANSI)
100
AcDbLine
 10
11.35873307672778
 20
8.632548315040313
 30
0.0
 11
11.34490221499571
 21
8.632548315040313
 31
0.0
  0
ELLIPSE
  5
2BA
330
6C
100
AcDbEntity
  8
Visible (ANSI)
100
AcDbEllipse
 10
11.31262688456717
 20
8.542548315040313
 30
0.0
 11
0.0000000000000001
 21
-0.09
 31
0.0
210
0.0
220
0.0
230
0.9999999999999998
 40
0.7320508075688742
 41
2.470548458124685
 42
2.629644106146606
  0
LINE
  5
2BB
330
6C
100
AcDbEntity
  8
Visible (ANSI)
100
AcDbLine
 10
11.34490221499571
 20
8.613033867753966
 30
0.0
 11
11.35359418273637
 21
8.613033867753966
 31
0.0
  0
LINE
  5
2BC
330
6C
100
AcDbEntity
  8
Visible (ANSI)
100
AcDbLine
 10
11.34490221499571
 20
10.36303386775396
 30
0.0
 11
11.35359418273637
 21
10.36303386775396
 31
0.0
  0
LINE
  5
2BD
330
6C
100
AcDbEntity
  8
Visible (ANSI)
100
AcDbLine
 10
11.34490221499571
 20
9.876062762326659
 30
0.0
 11
11.35382363896072
 21
9.876062762326659
 31
0.0
  0
ELLIPSE
  5
2BE
330
6C
100
AcDbEntity
  8
Visible (ANSI)
100
AcDbEllipse
 10
11.31262688456717
 20
9.946298315040312
 30
0.0
 11
-0.0000000000000007
 21
-0.09
 31
0.0
210
0.0
220
0.0
230
0.9999999999999998
 40
0.7320508075688746
 41
0.5119485474432049
 42
0.6754990000547503
  0
LINE
  5
2BF
330
6C
100
AcDbEntity
  8
Visible (ANSI)
100
AcDbLine
 10
11.35866405147788
 20
9.856298315040312
 30
0.0
 11
11.34490221499571
 21
9.856298315040312
 31
0.0
  0
LINE
  5
2C0
330
6C
100
AcDbEntity
  8
Visible (ANSI)
100
AcDbLine
 10
11.35873307672778
 20
10.38254831504031
 30
0.0
 11
11.34490221499571
 21
10.38254831504031
 31
0.0
  0
ELLIPSE
  5
2C1
330
6C
100
AcDbEntity
  8
Visible (ANSI)
100
AcDbEllipse
 10
11.31262688456717
 20
10.29254831504031
 30
0.0
 11
0.0000000000000001
 21
-0.09
 31
0.0
210
0.0
220
0.0
230
0.9999999999999998
 40
0.7320508075688742
 41
2.470548458124685
 42
2.629644106146606
  0
SPLINE
  5
2C2
330
6C
100
AcDbEntity
  8
Visible (ANSI)
100
AcDbSpline
210
0.0
220
0.0
230
1.0
 70
     8
 71
     3
 72
    12
 73
     8
 74
     0
 42
0.0000000001
 43
0.0000000001
 40
0.2150359196811841
 40
0.2150359196811841
 40
0.2150359196811841
 40
0.2150359196811841
 40
0.2751313054488058
 40
0.2751313054488058
 40
0.3422840281604428
 40
0.3422840281604428
 40
0.3592374510634971
 40
0.3592374510634971
 40
0.3592374510634971
 40
0.3592374510634971
 10
11.35873307672778
 20
8.632548315040313
 30
0.0
 10
11.3617542060785
 20
8.632548315040313
 30
0.0
 10
11.36597757373923
 20
8.631227640907653
 30
0.0
 10
11.37564503164252
 20
8.626662877103477
 30
0.0
 10
11.38208328241816
 20
8.62286048850774
 30
0.0
 10
11.39100098740735
 20
8.617197154064689
 30
0.0
 10
11.39283991547346
 20
8.616012763855687
 30
0.0
 10
11.3947039850069
 20
8.614801968631942
 30
0.0
  0
SPLINE
  5
2C3
330
6C
100
AcDbEntity
  8
Visible (ANSI)
100
AcDbSpline
210
0.0
220
0.0
230
1.0
 70
     8
 71
     3
 72
    12
 73
     8
 74
     0
 42
0.0000000001
 43
0.0000000001
 40
2.468104024836128
 40
2.468104024836128
 40
2.468104024836128
 40
2.468104024836128
 40
2.488398773589919
 40
2.488398773589919
 40
2.558831865430666
 40
2.558831865430666
 40
2.613093010733103
 40
2.613093010733103
 40
2.613093010733103
 40
2.613093010733103
 10
11.3947039850069
 20
8.124134696690202
 30
0.0
 10
11.39248076247656
 20
8.12268737844554
 30
0.0
 10
11.3902931046518
 20
8.121277388618983
 30
0.0
 10
11.38078971585942
 20
8.115262078932845
 30
0.0
 10
11.37419362273179
 20
8.111423171978277
 30
0.0
 10
11.36508414788982
 20
8.107364970723354
 30
0.0
 10
11.36142252126373
 20
8.106298315041449
 30
0.0
 10
11.35866405147788
 20
8.106298315040312
 30
0.0
  0
LINE
  5
2C4
330
6C
100
AcDbEntity
  8
Visible (ANSI)
100
AcDbLine
 10
11.5039382741892
 20
8.273494743921631
 30
0.0
 11
11.4611844847821
 21
8.196298315040312
 31
0.0
  0
ELLIPSE
  5
2C5
330
6C
100
AcDbEntity
  8
Visible (ANSI)
100
AcDbEllipse
 10
11.39529991210091
 20
8.196298315040312
 30
0.0
 11
-0.0717866343523219
 21
-0.0827067297331837
 31
0.0
210
0.0
220
0.0
230
0.9999999999999998
 40
0.4943928619663867
 41
1.045816943497818
 42
1.976148280953285
  0
ELLIPSE
  5
2C6
330
6C
100
AcDbEntity
  8
Visible (ANSI)
100
AcDbEllipse
 10
11.43423072337999
 20
8.36954831504031
 30
0.0
 11
0.0000000000000011
 21
0.1459999999999999
 31
0.0
210
0.0
220
0.0
230
1.0
 40
0.6339745962155629
 41
3.994360526114229
 42
5.430417434655165
  0
ELLIPSE
  5
2C7
330
6C
100
AcDbEntity
  8
Visible (ANSI)
100
AcDbEllipse
 10
11.39543836989625
 20
8.542548315040313
 30
0.0
 11
-0.0717866343523197
 21
0.0827067297331841
 31
0.0
210
0.0
220
0.0
230
1.0
 40
0.4943928619663909
 41
4.307037026226311
 42
5.23904435301846
  0
LINE
  5
2C8
330
6C
100
AcDbEntity
  8
Visible (ANSI)
100
AcDbLine
 10
11.46132294257745
 20
8.542548315040313
 30
0.0
 11
11.5039382741892
 21
8.465601886158987
 31
0.0
  0
LINE
  5
2C9
330
6C
100
AcDbEntity
  8
Visible Narrow (ANSI)
100
AcDbLine
 10
11.4611844847821
 20
8.196298315040312
 30
0.0
 11
11.41741009638396
 21
8.196298315040312
 31
0.0
  0
ELLIPSE
  5
2CA
330
6C
100
AcDbEntity
  8
Visible (ANSI)
100
AcDbEllipse
 10
11.35152552370276
 20
8.196298315040312
 30
0.0
 11
-0.0717866343523216
 21
-0.0827067297331837
 31
0.0
210
0.0
220
0.0
230
1.0
 40
0.4943928619663878
 41
1.080850954213152
 42
1.976148280953299
  0
LINE
  5
2CB
330
6C
100
AcDbEntity
  8
Visible (ANSI)
100
AcDbLine
 10
11.41741009638396
 20
8.196298315040312
 30
0.0
 11
11.47911092732565
 21
8.30770560486801
 31
0.0
  0
LINE
  5
2CC
330
6C
100
AcDbEntity
  8
Visible Narrow (ANSI)
100
AcDbLine
 10
11.47911092732565
 20
8.30770560486801
 30
0.0
 11
11.34490221499571
 21
8.307705604868012
 31
0.0
  0
LINE
  5
2CD
330
6C
100
AcDbEntity
  8
Visible Narrow (ANSI)
100
AcDbLine
 10
11.41754855417931
 20
8.542548315040313
 30
0.0
 11
11.46132294257745
 21
8.542548315040313
 31
0.0
  0
LINE
  5
2CE
330
6C
100
AcDbEntity
  8
Visible (ANSI)
100
AcDbLine
 10
11.47911092732565
 20
8.431391025212608
 30
0.0
 11
11.41754855417931
 21
8.542548315040313
 31
0.0
  0
ELLIPSE
  5
2CF
330
6C
100
AcDbEntity
  8
Visible (ANSI)
100
AcDbEllipse
 10
11.43423072337999
 20
8.36954831504031
 30
0.0
 11
0.0000000000000007
 21
0.094
 31
0.0
210
0.0
220
0.0
230
1.0
 40
0.6339745962155631
 41
3.994360526114228
 42
5.430417434655154
  0
ELLIPSE
  5
2D0
330
6C
100
AcDbEntity
  8
Visible (ANSI)
100
AcDbEllipse
 10
11.35166398149811
 20
8.542548315040313
 30
0.0
 11
-0.0717866343523195
 21
0.0827067297331841
 31
0.0
210
0.0
220
0.0
230
1.0
 40
0.4943928619663918
 41
4.307037026226311
 42
5.206789157556091
  0
LINE
  5
2D1
330
6C
100
AcDbEntity
  8
Visible Narrow (ANSI)
100
AcDbLine
 10
11.47911092732565
 20
8.431391025212608
 30
0.0
 11
11.34490221499571
 21
8.43139102521261
 31
0.0
  0
SPLINE
  5
2D2
330
6C
100
AcDbEntity
  8
Visible (ANSI)
100
AcDbSpline
210
0.0
220
0.0
230
1.0
 70
     8
 71
     3
 72
    12
 73
     8
 74
     0
 42
0.0000000001
 43
0.0000000001
 40
0.2150359196811836
 40
0.2150359196811836
 40
0.2150359196811836
 40
0.2150359196811836
 40
0.2751313054488056
 40
0.2751313054488056
 40
0.3422840281604428
 40
0.3422840281604428
 40
0.3592374510634985
 40
0.3592374510634985
 40
0.3592374510634985
 40
0.3592374510634985
 10
11.35873307672778
 20
10.38254831504031
 30
0.0
 10
11.3617542060785
 20
10.38254831504031
 30
0.0
 10
11.36597757373923
 20
10.38122764090765
 30
0.0
 10
11.37564503164252
 20
10.37666287710347
 30
0.0
 10
11.38208328241816
 20
10.37286048850774
 30
0.0
 10
11.39100098740735
 20
10.36719715406469
 30
0.0
 10
11.39283991547346
 20
10.36601276385568
 30
0.0
 10
11.3947039850069
 20
10.36480196863194
 30
0.0
  0
SPLINE
  5
2D3
330
6C
100
AcDbEntity
  8
Visible (ANSI)
100
AcDbSpline
210
0.0
220
0.0
230
1.0
 70
     8
 71
     3
 72
    12
 73
     8
 74
     0
 42
0.0000000001
 43
0.0000000001
 40
2.468104024836124
 40
2.468104024836124
 40
2.468104024836124
 40
2.468104024836124
 40
2.488398773589915
 40
2.488398773589915
 40
2.558831865430661
 40
2.558831865430661
 40
2.613093010733099
 40
2.613093010733099
 40
2.613093010733099
 40
2.613093010733099
 10
11.3947039850069
 20
9.874134696690202
 30
0.0
 10
11.39248076247656
 20
9.87268737844554
 30
0.0
 10
11.3902931046518
 20
9.871277388618983
 30
0.0
 10
11.38078971585942
 20
9.865262078932845
 30
0.0
 10
11.37419362273179
 20
9.861423171978277
 30
0.0
 10
11.36508414788982
 20
9.857364970723354
 30
0.0
 10
11.36142252126373
 20
9.856298315041449
 30
0.0
 10
11.35866405147788
 20
9.856298315040312
 30
0.0
  0
LINE
  5
2D4
330
6C
100
AcDbEntity
  8
Visible (ANSI)
100
AcDbLine
 10
11.5039382741892
 20
10.02349474392163
 30
0.0
 11
11.4611844847821
 21
9.946298315040312
 31
0.0
  0
ELLIPSE
  5
2D5
330
6C
100
AcDbEntity
  8
Visible (ANSI)
100
AcDbEllipse
 10
11.43423072337999
 20
10.11954831504031
 30
0.0
 11
0.0000000000000011
 21
0.1459999999999999
 31
0.0
210
0.0
220
0.0
230
1.0
 40
0.6339745962155629
 41
3.994360526114229
 42
5.430417434655165
  0
LINE
  5
2D6
330
6C
100
AcDbEntity
  8
Visible (ANSI)
100
AcDbLine
 10
11.46132294257745
 20
10.29254831504031
 30
0.0
 11
11.5039382741892
 21
10.21560188615898
 31
0.0
  0
LINE
  5
2D7
330
6C
100
AcDbEntity
  8
Visible (ANSI)
100
AcDbLine
 10
11.47911092732565
 20
10.18139102521261
 30
0.0
 11
11.41754855417931
 21
10.29254831504031
 31
0.0
  0
LINE
  5
2D8
330
6C
100
AcDbEntity
  8
Visible (ANSI)
100
AcDbLine
 10
11.41741009638396
 20
9.946298315040312
 30
0.0
 11
11.47911092732565
 21
10.05770560486801
 31
0.0
  0
ELLIPSE
  5
2D9
330
6C
100
AcDbEntity
  8
Visible (ANSI)
100
AcDbEllipse
 10
11.43423072337999
 20
10.11954831504031
 30
0.0
 11
0.0000000000000007
 21
0.094
 31
0.0
210
0.0
220
0.0
230
1.0
 40
0.6339745962155631
 41
3.994360526114228
 42
5.430417434655154
  0
ELLIPSE
  5
2DA
330
6C
100
AcDbEntity
  8
Visible (ANSI)
100
AcDbEllipse
 10
11.39529991210091
 20
9.946298315040312
 30
0.0
 11
-0.0717866343523219
 21
-0.0827067297331837
 31
0.0
210
0.0
220
0.0
230
0.9999999999999998
 40
0.4943928619663867
 41
1.045816943497818
 42
1.976148280953285
  0
ELLIPSE
  5
2DB
330
6C
100
AcDbEntity
  8
Visible (ANSI)
100
AcDbEllipse
 10
11.39543836989625
 20
10.29254831504031
 30
0.0
 11
-0.0717866343523197
 21
0.0827067297331841
 31
0.0
210
0.0
220
0.0
230
1.0
 40
0.4943928619663909
 41
4.307037026226311
 42
5.23904435301846
  0
ELLIPSE
  5
2DC
330
6C
100
AcDbEntity
  8
Visible (ANSI)
100
AcDbEllipse
 10
11.35166398149811
 20
10.29254831504031
 30
0.0
 11
-0.0717866343523195
 21
0.0827067297331841
 31
0.0
210
0.0
220
0.0
230
1.0
 40
0.4943928619663918
 41
4.307037026226311
 42
5.206789157556091
  0
ELLIPSE
  5
2DD
330
6C
100
AcDbEntity
  8
Visible (ANSI)
100
AcDbEllipse
 10
11.35152552370276
 20
9.946298315040312
 30
0.0
 11
-0.0717866343523216
 21
-0.0827067297331837
 31
0.0
210
0.0
220
0.0
230
1.0
 40
0.4943928619663878
 41
1.080850954213152
 42
1.976148280953299
  0
LINE
  5
2DE
330
6C
100
AcDbEntity
  8
Visible Narrow (ANSI)
100
AcDbLine
 10
11.4611844847821
 20
9.946298315040312
 30
0.0
 11
11.41741009638396
 21
9.946298315040312
 31
0.0
  0
LINE
  5
2DF
330
6C
100
AcDbEntity
  8
Visible Narrow (ANSI)
100
AcDbLine
 10
11.41754855417931
 20
10.29254831504031
 30
0.0
 11
11.46132294257745
 21
10.29254831504031
 31
0.0
  0
LINE
  5
2E0
330
6C
100
AcDbEntity
  8
Visible Narrow (ANSI)
100
AcDbLine
 10
11.47911092732565
 20
10.18139102521261
 30
0.0
 11
11.34490221499571
 21
10.18139102521261
 31
0.0
  0
LINE
  5
2E1
330
6C
100
AcDbEntity
  8
Visible Narrow (ANSI)
100
AcDbLine
 10
11.47911092732565
 20
10.05770560486801
 30
0.0
 11
11.34490221499571
 21
10.05770560486801
 31
0.0
  0
SPLINE
  5
2E2
330
6C
100
AcDbEntity
  8
Visible (ANSI)
100
AcDbSpline
210
0.0
220
0.0
230
1.0
 70
     8
 71
     3
 72
    10
 73
     6
 74
     0
 42
0.0000000001
 43
0.0000000001
 40
0.0
 40
0.0
 40
0.0
 40
0.0
 40
0.0619722869969245
 40
0.0619722869969245
 40
0.1075629630867637
 40
0.1075629630867637
 40
0.1075629630867637
 40
0.1075629630867637
 10
9.71012710094425
 20
13.12630383194367
 30
0.0
 10
9.713031119632892
 20
13.12010791733316
 30
0.0
 10
9.717710719979622
 20
13.11002024408341
 30
0.0
 10
9.723684937485533
 20
13.09042398502018
 30
0.0
 10
9.72520133829364
 20
13.08252584041154
 30
0.0
 10
9.72520133829364
 20
13.07456261608263
 30
0.0
  0
LINE
  5
2E3
330
6C
100
AcDbEntity
  8
Visible Narrow (ANSI)
100
AcDbLine
 10
9.666740950858189
 20
13.12630383194366
 30
0.0
 11
9.710127100944252
 21
13.12630383194366
 31
0.0
  0
SPLINE
  5
2E4
330
6C
100
AcDbEntity
  8
Visible (ANSI)
100
AcDbSpline
210
0.0
220
0.0
230
1.0
 70
     8
 71
     3
 72
    10
 73
     6
 74
     0
 42
0.0000000001
 43
0.0000000001
 40
0.0
 40
0.0
 40
0.0
 40
0.0
 40
0.0689759110286879
 40
0.0689759110286879
 40
0.145584785476404
 40
0.145584785476404
 40
0.145584785476404
 40
0.145584785476404
 10
9.673201338293639
 20
13.07456261608263
 30
0.0
 10
9.673201338293639
 20
13.08257508221033
 30
0.0
 10
9.672528917626575
 20
13.09059645712675
 30
0.0
 10
9.67028595013642
 20
13.10776335830437
 30
0.0
 10
9.668672470628496
 20
13.11668121772173
 30
0.0
 10
9.666740950858187
 20
13.12630383194367
 30
0.0
  0
SPLINE
  5
2E5
330
6C
100
AcDbEntity
  8
Visible (ANSI)
100
AcDbSpline
210
0.0
220
0.0
230
1.0
 70
     8
 71
     3
 72
    18
 73
    14
 74
     0
 42
0.0000000001
 43
0.0000000001
 40
0.0
 40
0.0
 40
0.0
 40
0.0
 40
0.0881869190644208
 40
0.0881869190644208
 40
0.1801127479292653
 40
0.1801127479292653
 40
0.2806248460127553
 40
0.2806248460127553
 40
0.3811281995646181
 40
0.3811281995646181
 40
0.4389668742852868
 40
0.4389668742852868
 40
0.5294326630655584
 40
0.5294326630655584
 40
0.5294326630655584
 40
0.5294326630655584
 10
9.72520133829364
 20
6.491326972658203
 30
0.0
 10
9.72520133829364
 20
6.48955436475851
 30
0.0
 10
9.723046303760771
 20
6.487077791496946
 30
0.0
 10
9.714895536382172
 20
6.480298551046137
 30
0.0
 10
9.708853608816795
 20
6.476026883726555
 30
0.0
 10
9.693659080842948
 20
6.464907996779543
 30
0.0
 10
9.684561516626617
 20
6.45807159552984
 30
0.0
 10
9.666337116928982
 20
6.441509293017587
 30
0.0
 10
9.657611165678467
 20
6.432128125036147
 30
0.0
 10
9.646317413514635
 20
6.414999914922674
 30
0.0
 10
9.642788404977098
 20
6.408354650577606
 30
0.0
 10
9.635811756287145
 20
6.390348586619664
 30
0.0
 10
9.634611353939259
 20
6.381224995468679
 30
0.0
 10
9.634201338293641
 20
6.375536255703747
 30
0.0
  0
SPLINE
  5
2E6
330
6C
100
AcDbEntity
  8
Visible (ANSI)
100
AcDbSpline
210
0.0
220
0.0
230
1.0
 70
     8
 71
     3
 72
    20
 73
    16
 74
     0
 42
0.0000000001
 43
0.0000000001
 40
0.0
 40
0.0
 40
0.0
 40
0.0
 40
0.0828978750226437
 40
0.0828978750226437
 40
0.1443472269783452
 40
0.1443472269783452
 40
0.1972601260392316
 40
0.1972601260392316
 40
0.2795039605243549
 40
0.2795039605243549
 40
0.3319584474047274
 40
0.3319584474047274
 40
0.3557496596404072
 40
0.3557496596404072
 40
0.3783712599598918
 40
0.3783712599598918
 40
0.3783712599598918
 40
0.3783712599598918
 10
9.634201338293641
 20
6.375536255703747
 30
0.0
 10
9.634537057331963
 20
6.38641006064853
 30
0.0
 10
9.635807344234944
 20
6.397627726744353
 30
0.0
 10
9.639698548583496
 20
6.416497974132436
 30
0.0
 10
9.641877312738172
 20
6.424353950502364
 30
0.0
 10
9.646874436978093
 20
6.438576641661279
 30
0.0
 10
9.649554386616038
 20
6.444961695000451
 30
0.0
 10
9.657059767859667
 20
6.460589353226666
 30
0.0
 10
9.661563097678218
 20
6.468144624268624
 30
0.0
 10
9.667524937831107
 20
6.478250854526835
 30
0.0
 10
9.669611500481906
 20
6.481783152970568
 30
0.0
 10
9.671760086207539
 20
6.486162318146123
 30
0.0
 10
9.672298261735839
 20
6.487411345070787
 30
0.0
 10
9.673011673970364
 20
6.48959054779105
 30
0.0
 10
9.67320133829364
 20
6.490521134145229
 30
0.0
 10
9.67320133829364
 20
6.491326972658203
 30
0.0
  0
SPLINE
  5
2E7
330
6C
100
AcDbEntity
  8
Visible (ANSI)
100
AcDbSpline
210
0.0
220
0.0
230
1.0
 70
     8
 71
     3
 72
    12
 73
     8
 74
     0
 42
0.0000000001
 43
0.0000000001
 40
0.0
 40
0.0
 40
0.0
 40
0.0
 40
0.0882286125303759
 40
0.0882286125303759
 40
0.2207786515735491
 40
0.2207786515735491
 40
0.3533301784052159
 40
0.3533301784052159
 40
0.3533301784052159
 40
0.3533301784052159
 10
9.634201338293635
 20
13.23208453380056
 30
0.0
 10
9.641695110665844
 20
13.22325807455994
 30
0.0
 10
9.649160358080232
 20
13.21446568188005
 30
0.0
 10
9.667344874307815
 20
13.19237915184545
 30
0.0
 10
9.677657898647725
 20
13.1792318013646
 30
0.0
 10
9.696025306953698
 20
13.15271124167755
 30
0.0
 10
9.703921072808503
 20
13.13956438985178
 30
0.0
 10
9.710127100944253
 20
13.12630383194367
 30
0.0
  0
SPLINE
  5
2E8
330
6C
100
AcDbEntity
  8
Visible (ANSI)
100
AcDbSpline
210
0.0
220
0.0
230
1.0
 70
     8
 71
     3
 72
    10
 73
     6
 74
     0
 42
0.0000000001
 43
0.0000000001
 40
0.0
 40
0.0
 40
0.0
 40
0.0
 40
0.1436811737508989
 40
0.1436811737508989
 40
0.2873623500482826
 40
0.2873623500482826
 40
0.2873623500482826
 40
0.2873623500482826
 10
9.666740950858189
 20
13.12630383194367
 30
0.0
 10
9.663186851587767
 20
13.14402305263811
 30
0.0
 10
9.658353569315295
 20
13.16147499628487
 30
0.0
 10
9.646996889081549
 20
13.19691336884526
 30
0.0
 10
9.640648841917791
 20
13.21436531279206
 30
0.0
 10
9.634201338293639
 20
13.23208453380055
 30
0.0
  0
SPLINE
  5
2E9
330
6C
100
AcDbEntity
  8
Visible (ANSI)
100
AcDbSpline
210
0.0
220
0.0
230
1.0
 70
     8
 71
     3
 72
    18
 73
    14
 74
     0
 42
0.0000000001
 43
0.0000000001
 40
0.0
 40
0.0
 40
0.0
 40
0.0
 40
0.0640647601830239
 40
0.0640647601830239
 40
0.1168863396370407
 40
0.1168863396370407
 40
0.1679713014491374
 40
0.1679713014491374
 40
0.2421034437801242
 40
0.2421034437801242
 40
0.3069427533634468
 40
0.3069427533634468
 40
0.3709055679833023
 40
0.3709055679833023
 40
0.3709055679833023
 40
0.3709055679833023
 10
11.3839022149957
 20
6.375536255703732
 30
0.0
 10
11.38329781635487
 20
6.383921951758874
 30
0.0
 10
11.38130983019627
 20
6.393888604552387
 30
0.0
 10
11.37287727574502
 20
6.413485857573956
 30
0.0
 10
11.36781986249799
 20
6.421658720302754
 30
0.0
 10
11.35628387866386
 20
6.436502007949301
 30
0.0
 10
11.34999669322355
 20
6.443045085997286
 30
0.0
 10
11.33413680768981
 20
6.457625188050578
 30
0.0
 10
11.32471708232296
 20
6.464708176110192
 30
0.0
 10
11.30936298104229
 20
6.475944457753879
 30
0.0
 10
11.30338122472835
 20
6.4801749757836
 30
0.0
 10
11.29512113916989
 20
6.487005288417869
 30
0.0
 10
11.29290221499571
 20
6.489528315200384
 30
0.0
 10
11.29290221499571
 20
6.491326972658203
 30
0.0
  0
SPLINE
  5
2EA
330
6C
100
AcDbEntity
  8
Visible (ANSI)
100
AcDbSpline
210
0.0
220
0.0
230
1.0
 70
     8
 71
     3
 72
    18
 73
    14
 74
     0
 42
0.0000000001
 43
0.0000000001
 40
0.0
 40
0.0
 40
0.0
 40
0.0
 40
0.0179139895799813
 40
0.0179139895799813
 40
0.058144447187783
 40
0.058144447187783
 40
0.1083261450073306
 40
0.1083261450073306
 40
0.1757025030296823
 40
0.1757025030296823
 40
0.2169647996514151
 40
0.2169647996514151
 40
0.2728287623919805
 40
0.2728287623919805
 40
0.2728287623919805
 40
0.2728287623919805
 10
11.34490221499571
 20
6.491326972658203
 30
0.0
 10
11.34490221499571
 20
6.490528115761459
 30
0.0
 10
11.34508858962853
 20
6.489606773846592
 30
0.0
 10
11.34619892225784
 20
6.486195337370237
 30
0.0
 10
11.34772941010113
 20
6.483262669743004
 30
0.0
 10
11.35206539670262
 20
6.475644894800722
 30
0.0
 10
11.35525284563698
 20
6.470470629716903
 30
0.0
 10
11.36366918212607
 20
6.455429342573126
 30
0.0
 10
11.3688615273626
 20
6.445169960943706
 30
0.0
 10
11.37606497887567
 20
6.424896425127621
 30
0.0
 10
11.37828739376282
 20
6.416973290901744
 30
0.0
 10
11.38226266330342
 20
6.397913530967951
 30
0.0
 10
11.38356203494327
 20
6.386554551105525
 30
0.0
 10
11.3839022149957
 20
6.375536255703732
 30
0.0
  0
SPLINE
  5
2EB
330
6C
100
AcDbEntity
  8
Visible (ANSI)
100
AcDbSpline
210
0.0
220
0.0
230
1.0
 70
     8
 71
     3
 72
    12
 73
     8
 74
     0
 42
0.0000000001
 43
0.0000000001
 40
0.0
 40
0.0
 40
0.0
 40
0.0
 40
0.0947511056574864
 40
0.0947511056574864
 40
0.2371340283594931
 40
0.2371340283594931
 40
0.3795187378086742
 40
0.3795187378086742
 40
0.3795187378086742
 40
0.3795187378086742
 10
11.30453089288714
 20
13.12258021109597
 30
0.0
 10
11.3084672650627
 20
13.13205920460415
 30
0.0
 10
11.31331750465132
 20
13.14149605341365
 30
0.0
 10
11.32742554113109
 20
13.16521876203661
 30
0.0
 10
11.33753273102408
 20
13.17932300951795
 30
0.0
 10
11.35983542467092
 20
13.20781094626316
 30
0.0
 10
11.37180868182158
 20
13.22191459116774
 30
0.0
 10
11.38390221499571
 20
13.23615889726661
 30
0.0
  0
LINE
  5
2EC
330
6C
100
AcDbEntity
  8
Visible Narrow (ANSI)
100
AcDbLine
 10
11.34988593409203
 20
13.12258021109597
 30
0.0
 11
11.30453089288714
 21
13.12258021109597
 31
0.0
  0
SPLINE
  5
2ED
330
6C
100
AcDbEntity
  8
Visible (ANSI)
100
AcDbSpline
210
0.0
220
0.0
230
1.0
 70
     8
 71
     3
 72
    10
 73
     6
 74
     0
 42
0.0000000001
 43
0.0000000001
 40
0.0
 40
0.0
 40
0.0
 40
0.0
 40
0.1543908232656084
 40
0.1543908232656084
 40
0.3087816513629164
 40
0.3087816513629164
 40
0.3087816513629164
 40
0.3087816513629164
 10
11.38390221499571
 20
13.23615889726661
 30
0.0
 10
11.37697413739048
 20
13.21711892576383
 30
0.0
 10
11.37016953252282
 20
13.19840948395337
 30
0.0
 10
11.35821314830547
 20
13.16032962557041
 30
0.0
 10
11.35327464704233
 20
13.14162018319461
 30
0.0
 10
11.34988593409203
 20
13.12258021109597
 30
0.0
  0
SPLINE
  5
2EE
330
6C
100
AcDbEntity
  8
Visible (ANSI)
100
AcDbSpline
210
0.0
220
0.0
230
1.0
 70
     8
 71
     3
 72
    10
 73
     6
 74
     0
 42
0.0000000001
 43
0.0000000001
 40
0.0
 40
0.0
 40
0.0
 40
0.0
 40
0.0830257892418959
 40
0.0830257892418959
 40
0.1932781071171972
 40
0.1932781071171972
 40
0.1932781071171972
 40
0.1932781071171972
 10
11.29290221499571
 20
13.07620450039214
 30
0.0
 10
11.29290221499571
 20
13.08327705535739
 30
0.0
 10
11.29402806032875
 20
13.09051524491154
 30
0.0
 10
11.29860653789768
 20
13.10808727582644
 30
0.0
 10
11.30219004449849
 20
13.1169506414799
 30
0.0
 10
11.30453089288714
 20
13.12258021109597
 30
0.0
  0
SPLINE
  5
2EF
330
6C
100
AcDbEntity
  8
Visible (ANSI)
100
AcDbSpline
210
0.0
220
0.0
230
1.0
 70
     8
 71
     3
 72
    10
 73
     6
 74
     0
 42
0.0000000001
 43
0.0000000001
 40
0.0
 40
0.0
 40
0.0
 40
0.0
 40
0.0691409725432826
 40
0.0691409725432826
 40
0.1320716091151738
 40
0.1320716091151738
 40
0.1320716091151738
 40
0.1320716091151738
 10
11.34988593409203
 20
13.12258021109597
 30
0.0
 10
11.3483674947058
 20
13.1140541714703
 30
0.0
 10
11.34712635893244
 20
13.10611205351749
 30
0.0
 10
11.34540960209848
 20
13.09073806905727
 30
0.0
 10
11.34490221499571
 20
13.08347543259515
 30
0.0
 10
11.34490221499571
 20
13.07620450039215
 30
0.0
  0
LINE
  5
2F0
330
6C
100
AcDbEntity
  8
Visible (ANSI)
100
AcDbLine
 10
8.759051776644676
 20
5.338745479886327
 30
0.0
 11
8.759051776644676
 21
5.301975927264626
 31
0.0
  0
LINE
  5
2F1
330
6C
100
AcDbEntity
  8
Visible (ANSI)
100
AcDbLine
 10
9.682801776644687
 20
5.301975927264626
 30
0.0
 11
9.682801776644685
 21
5.338745479886327
 31
0.0
  0
LINE
  5
2F2
330
6C
100
AcDbEntity
  8
Visible (ANSI)
100
AcDbLine
 10
12.25905177664468
 20
5.301975927264626
 30
0.0
 11
12.25905177664467
 21
5.338745479886327
 31
0.0
  0
LINE
  5
2F3
330
6C
100
AcDbEntity
  8
Visible (ANSI)
100
AcDbLine
 10
11.33530177664468
 20
5.338745479886327
 30
0.0
 11
11.33530177664468
 21
5.301975927264626
 31
0.0
  0
LINE
  5
2F4
330
6C
100
AcDbEntity
  8
Visible Narrow (ANSI)
100
AcDbLine
 10
9.02980177664466
 20
5.530673315040314
 30
0.0
 11
9.029801776644674
 21
6.708173315040314
 31
0.0
  0
ARC
  5
2F5
330
6C
100
AcDbEntity
  8
Visible Narrow (ANSI)
100
AcDbCircle
 10
9.107801776644677
 20
5.530673315040314
 30
0.0
 40
0.0780000000000007
100
AcDbArc
 50
180.0
 51
270.0
  0
LINE
  5
2F6
330
6C
100
AcDbEntity
  8
Visible Narrow (ANSI)
100
AcDbLine
 10
9.347801776644681
 20
5.452673315040313
 30
0.0
 11
9.107801776644677
 21
5.452673315040313
 31
0.0
  0
ARC
  5
2F7
330
6C
100
AcDbEntity
  8
Visible Narrow (ANSI)
100
AcDbCircle
 10
9.347801776644686
 20
5.530673315040313
 30
0.0
 40
0.0779999999999909
100
AcDbArc
 50
269.9999999999969
 51
0.0
  0
LINE
  5
2F8
330
6C
100
AcDbEntity
  8
Visible Narrow (ANSI)
100
AcDbLine
 10
9.425801776644689
 20
6.70817331504031
 30
0.0
 11
9.425801776644675
 21
5.530673315040312
 31
0.0
  0
ARC
  5
2F9
330
6C
100
AcDbEntity
  8
Visible Narrow (ANSI)
100
AcDbCircle
 10
9.347801776644686
 20
6.70817331504031
 30
0.0
 40
0.0779999999999912
100
AcDbArc
 50
0.0
 51
90.0
  0
LINE
  5
2FA
330
6C
100
AcDbEntity
  8
Visible Narrow (ANSI)
100
AcDbLine
 10
9.107801776644677
 20
6.786173315040304
 30
0.0
 11
9.347801776644686
 21
6.786173315040302
 31
0.0
  0
ARC
  5
2FB
330
6C
100
AcDbEntity
  8
Visible Narrow (ANSI)
100
AcDbCircle
 10
9.107801776644677
 20
6.708173315040312
 30
0.0
 40
0.0779999999999996
100
AcDbArc
 50
90.0
 51
180.0
  0
LINE
  5
2FC
330
6C
100
AcDbEntity
  8
Visible Narrow (ANSI)
100
AcDbLine
 10
9.107801776644677
 20
6.786173315040304
 30
0.0
 11
9.107801776644677
 21
6.838173315040306
 31
0.0
  0
LINE
  5
2FD
330
6C
100
AcDbEntity
  8
Visible Narrow (ANSI)
100
AcDbLine
 10
8.977801776644675
 20
6.708173315040315
 30
0.0
 11
9.029801776644674
 21
6.708173315040314
 31
0.0
  0
LINE
  5
2FE
330
6C
100
AcDbEntity
  8
Visible Narrow (ANSI)
100
AcDbLine
 10
9.347801776644686
 20
6.786173315040302
 30
0.0
 11
9.347801776644686
 21
6.838173315040304
 31
0.0
  0
LINE
  5
2FF
330
6C
100
AcDbEntity
  8
Visible Narrow (ANSI)
100
AcDbLine
 10
9.425801776644689
 20
6.70817331504031
 30
0.0
 11
9.477801776644689
 21
6.70817331504031
 31
0.0
  0
LINE
  5
300
330
6C
100
AcDbEntity
  8
Visible Narrow (ANSI)
100
AcDbLine
 10
9.425801776644675
 20
5.530673315040312
 30
0.0
 11
9.477801776644675
 21
5.530673315040311
 31
0.0
  0
LINE
  5
301
330
6C
100
AcDbEntity
  8
Visible Narrow (ANSI)
100
AcDbLine
 10
9.347801776644681
 20
5.452673315040313
 30
0.0
 11
9.347801776644686
 21
5.400673315040314
 31
0.0
  0
LINE
  5
302
330
6C
100
AcDbEntity
  8
Visible Narrow (ANSI)
100
AcDbLine
 10
9.107801776644677
 20
5.452673315040313
 30
0.0
 11
9.107801776644677
 21
5.400673315040295
 31
0.0
  0
LINE
  5
303
330
6C
100
AcDbEntity
  8
Visible Narrow (ANSI)
100
AcDbLine
 10
9.02980177664466
 20
5.530673315040314
 30
0.0
 11
8.97780177664466
 21
5.530673315040314
 31
0.0
  0
ELLIPSE
  5
304
330
6C
100
AcDbEntity
  8
Visible Narrow (ANSI)
100
AcDbEllipse
 10
11.59230177664467
 20
4.683779656466761
 30
0.0
 11
-0.0520000000000008
 21
0.0000000000000011
 31
0.0
210
0.0
220
0.0
230
1.0
 40
0.7071067811865467
 41
4.712388980384732
 42
6.283185307179541
  0
LINE
  5
305
330
6C
100
AcDbEntity
  8
Visible Narrow (ANSI)
100
AcDbLine
 10
11.67030177664466
 20
4.665394880155921
 30
0.0
 11
11.67030177664466
 21
4.591855774912509
 31
0.0
  0
ELLIPSE
  5
306
330
6C
100
AcDbEntity
  8
Visible Narrow (ANSI)
100
AcDbEllipse
 10
11.67030177664466
 20
4.72054920908846
 30
0.0
 11
-0.0779999999999907
 21
-0.0000000000000029
 31
0.0
210
0.0
220
0.0
230
1.0
 40
0.7071067811865476
 41
0.0
 42
1.570796326794959
  0
LINE
  5
307
330
6C
100
AcDbEntity
  8
Visible Narrow (ANSI)
100
AcDbLine
 10
11.91030177664468
 20
4.665394880155909
 30
0.0
 11
11.91030177664468
 21
4.591855774912509
 31
0.0
  0
LINE
  5
308
330
6C
100
AcDbEntity
  8
Visible Narrow (ANSI)
100
AcDbLine
 10
11.91030177664468
 20
4.665394880155909
 30
0.0
 11
11.67030177664466
 21
4.665394880155916
 31
0.0
  0
ELLIPSE
  5
309
330
6C
100
AcDbEntity
  8
Visible Narrow (ANSI)
100
AcDbEllipse
 10
11.98830177664466
 20
4.683779656466758
 30
0.0
 11
0.052000000000009
 21
-0.0000000000000008
 31
0.0
210
0.0
220
0.0
230
0.9999999999999998
 40
0.7071067811865461
 41
0.0
 42
1.57079632679488
  0
ELLIPSE
  5
30A
330
6C
100
AcDbEntity
  8
Visible Narrow (ANSI)
100
AcDbEllipse
 10
11.91030177664467
 20
4.72054920908846
 30
0.0
 11
0.077999999999991
 21
-0.0000000000000014
 31
0.0
210
0.0
220
0.0
230
0.9999999999999998
 40
0.7071067811865479
 41
4.712388980384791
 42
6.283185307179634
  0
ELLIPSE
  5
30B
330
6C
100
AcDbEntity
  8
Visible Narrow (ANSI)
100
AcDbEllipse
 10
11.98830177664469
 20
5.162844500720642
 30
0.0
 11
0.0520000000000003
 21
-0.000000000000001
 31
0.0
210
0.0
220
0.0
230
0.9999999999999998
 40
0.7071067811865476
 41
0.0
 42
1.570796326794883
  0
LINE
  5
30C
330
6C
100
AcDbEntity
  8
Visible Narrow (ANSI)
100
AcDbLine
 10
11.98830177664469
 20
5.199614053342343
 30
0.0
 11
11.98830177664466
 21
4.720549209088458
 31
0.0
  0
LINE
  5
30D
330
6C
100
AcDbEntity
  8
Visible Narrow (ANSI)
100
AcDbLine
 10
11.91030177664468
 20
5.254768382274896
 30
0.0
 11
11.91030177664468
 21
5.269998829653198
 31
0.0
  0
ELLIPSE
  5
30E
330
6C
100
AcDbEntity
  8
Visible Narrow (ANSI)
100
AcDbEllipse
 10
11.91030177664469
 20
5.199614053342346
 30
0.0
 11
0.077999999999991
 21
0.0000000000000058
 31
0.0
210
0.0
220
0.0
230
1.0
 40
0.7071067811865476
 41
0.0
 42
1.570796326795005
  0
LINE
  5
30F
330
6C
100
AcDbEntity
  8
Visible Narrow (ANSI)
100
AcDbLine
 10
11.67030177664467
 20
5.254768382274896
 30
0.0
 11
11.67030177664467
 21
5.269998829653196
 31
0.0
  0
LINE
  5
310
330
6C
100
AcDbEntity
  8
Visible Narrow (ANSI)
100
AcDbLine
 10
11.67030177664467
 20
5.254768382274897
 30
0.0
 11
11.91030177664468
 21
5.254768382274891
 31
0.0
  0
ELLIPSE
  5
311
330
6C
100
AcDbEntity
  8
Visible Narrow (ANSI)
100
AcDbEllipse
 10
11.59230177664468
 20
5.162844500720646
 30
0.0
 11
-0.0520000000000101
 21
0.000000000000001
 31
0.0
210
0.0
220
0.0
230
1.0
 40
0.7071067811865474
 41
4.712388980384676
 42
6.283185307179549
  0
ELLIPSE
  5
312
330
6C
100
AcDbEntity
  8
Visible Narrow (ANSI)
100
AcDbEllipse
 10
11.67030177664467
 20
5.199614053342346
 30
0.0
 11
-0.0779999999999907
 21
0.0000000000000014
 31
0.0
210
0.0
220
0.0
230
1.0
 40
0.7071067811865479
 41
4.712388980384737
 42
6.283185307179636
  0
LINE
  5
313
330
6C
100
AcDbEntity
  8
Visible Narrow (ANSI)
100
AcDbLine
 10
11.59230177664467
 20
4.720549209088462
 30
0.0
 11
11.59230177664468
 21
5.199614053342347
 31
0.0
  0
ELLIPSE
  5
314
330
6C
100
AcDbEntity
  8
Visible Narrow (ANSI)
100
AcDbEllipse
 10
9.029801776644685
 20
4.683779656466757
 30
0.0
 11
-0.0520000000000008
 21
-0.0000000000000009
 31
0.0
210
0.0
220
0.0
230
1.0
 40
0.7071067811865467
 41
4.712388980384677
 42
6.283185307179579
  0
LINE
  5
315
330
6C
100
AcDbEntity
  8
Visible Narrow (ANSI)
100
AcDbLine
 10
9.107801776644672
 20
4.665394880155921
 30
0.0
 11
9.10780177664467
 21
4.591855774912509
 31
0.0
  0
ELLIPSE
  5
316
330
6C
100
AcDbEntity
  8
Visible Narrow (ANSI)
100
AcDbEllipse
 10
9.107801776644675
 20
4.72054920908846
 30
0.0
 11
-0.0779999999999911
 21
0.0000000000000019
 31
0.0
210
0.0
220
0.0
230
1.0
 40
0.7071067811865475
 41
0.0
 42
1.570796326794859
  0
LINE
  5
317
330
6C
100
AcDbEntity
  8
Visible Narrow (ANSI)
100
AcDbLine
 10
9.347801776644683
 20
4.665394880155909
 30
0.0
 11
9.347801776644683
 21
4.591855774912509
 31
0.0
  0
LINE
  5
318
330
6C
100
AcDbEntity
  8
Visible Narrow (ANSI)
100
AcDbLine
 10
9.347801776644683
 20
4.665394880155909
 30
0.0
 11
9.107801776644672
 21
4.665394880155916
 31
0.0
  0
ELLIPSE
  5
319
330
6C
100
AcDbEntity
  8
Visible Narrow (ANSI)
100
AcDbEllipse
 10
9.42580177664468
 20
4.683779656466761
 30
0.0
 11
0.052000000000009
 21
0.0000000000000012
 31
0.0
210
0.0
220
0.0
230
0.9999999999999998
 40
0.707106781186548
 41
0.0000000000000761
 42
1.570796326794906
  0
ELLIPSE
  5
31A
330
6C
100
AcDbEntity
  8
Visible Narrow (ANSI)
100
AcDbEllipse
 10
9.347801776644688
 20
4.72054920908846
 30
0.0
 11
0.0779999999999909
 21
0.0000000000000017
 31
0.0
210
0.0
220
0.0
230
1.0
 40
0.7071067811865481
 41
4.712388980384566
 42
6.283185307179533
  0
ELLIPSE
  5
31B
330
6C
100
AcDbEntity
  8
Visible Narrow (ANSI)
100
AcDbEllipse
 10
9.425801776644679
 20
5.162844500720646
 30
0.0
 11
0.0520000000000003
 21
0.0000000000000006
 31
0.0
210
0.0
220
0.0
230
0.9999999999999998
 40
0.7071067811865476
 41
0.0000000000000357
 42
1.570796326794888
  0
LINE
  5
31C
330
6C
100
AcDbEntity
  8
Visible Narrow (ANSI)
100
AcDbLine
 10
9.425801776644679
 20
5.199614053342347
 30
0.0
 11
9.42580177664468
 21
4.720549209088462
 31
0.0
  0
LINE
  5
31D
330
6C
100
AcDbEntity
  8
Visible Narrow (ANSI)
100
AcDbLine
 10
9.347801776644679
 20
5.254768382274896
 30
0.0
 11
9.347801776644679
 21
5.269998829653198
 31
0.0
  0
ELLIPSE
  5
31E
330
6C
100
AcDbEntity
  8
Visible Narrow (ANSI)
100
AcDbEllipse
 10
9.347801776644679
 20
5.199614053342346
 30
0.0
 11
0.0779999999999908
 21
0.0000000000000001
 31
0.0
210
0.0
220
0.0
230
1.0
 40
0.7071067811865471
 41
0.0
 42
1.570796326794895
  0
LINE
  5
31F
330
6C
100
AcDbEntity
  8
Visible Narrow (ANSI)
100
AcDbLine
 10
9.10780177664467
 20
5.254768382274896
 30
0.0
 11
9.10780177664467
 21
5.269998829653196
 31
0.0
  0
LINE
  5
320
330
6C
100
AcDbEntity
  8
Visible Narrow (ANSI)
100
AcDbLine
 10
9.10780177664467
 20
5.254768382274897
 30
0.0
 11
9.347801776644679
 21
5.25476838227489
 31
0.0
  0
ELLIPSE
  5
321
330
6C
100
AcDbEntity
  8
Visible Narrow (ANSI)
100
AcDbEllipse
 10
9.029801776644665
 20
5.162844500720642
 30
0.0
 11
-0.0520000000000092
 21
-0.0000000000000018
 31
0.0
210
0.0
220
0.0
230
0.9999999999999998
 40
0.7071067811865475
 41
4.712388980384719
 42
6.283185307179701
  0
ELLIPSE
  5
322
330
6C
100
AcDbEntity
  8
Visible Narrow (ANSI)
100
AcDbEllipse
 10
9.107801776644656
 20
5.199614053342346
 30
0.0
 11
-0.0779999999999903
 21
-0.0000000000000029
 31
0.0
210
0.0
220
0.0
230
1.0
 40
0.7071067811865478
 41
4.71238898038443
 42
6.283185307179482
  0
LINE
  5
323
330
6C
100
AcDbEntity
  8
Visible Narrow (ANSI)
100
AcDbLine
 10
9.029801776644683
 20
4.720549209088458
 30
0.0
 11
9.029801776644665
 21
5.199614053342344
 31
0.0
  0
LINE
  5
324
330
6C
100
AcDbEntity
  8
Visible Narrow (ANSI)
100
AcDbLine
 10
11.54030177664467
 20
5.530673315040311
 30
0.0
 11
11.59230177664467
 21
5.530673315040312
 31
0.0
  0
LINE
  5
325
330
6C
100
AcDbEntity
  8
Visible Narrow (ANSI)
100
AcDbLine
 10
11.67030177664466
 20
5.452673315040322
 30
0.0
 11
11.67030177664466
 21
5.400673315040314
 31
0.0
  0
ARC
  5
326
330
6C
100
AcDbEntity
  8
Visible Narrow (ANSI)
100
AcDbCircle
 10
11.67030177664466
 20
5.530673315040313
 30
0.0
 40
0.0779999999999907
100
AcDbArc
 50
180.0
 51
270.0
  0
LINE
  5
327
330
6C
100
AcDbEntity
  8
Visible Narrow (ANSI)
100
AcDbLine
 10
11.91030177664467
 20
5.452673315040295
 30
0.0
 11
11.91030177664467
 21
5.400673315040295
 31
0.0
  0
LINE
  5
328
330
6C
100
AcDbEntity
  8
Visible Narrow (ANSI)
100
AcDbLine
 10
11.91030177664467
 20
5.452673315040295
 30
0.0
 11
11.67030177664466
 21
5.452673315040322
 31
0.0
  0
LINE
  5
329
330
6C
100
AcDbEntity
  8
Visible Narrow (ANSI)
100
AcDbLine
 10
11.98830177664467
 20
5.530673315040314
 30
0.0
 11
12.04030177664469
 21
5.530673315040314
 31
0.0
  0
ARC
  5
32A
330
6C
100
AcDbEntity
  8
Visible Narrow (ANSI)
100
AcDbCircle
 10
11.91030177664467
 20
5.530673315040313
 30
0.0
 40
0.0780000000000001
100
AcDbArc
 50
270.0000000000031
 51
0.0
  0
LINE
  5
32B
330
6C
100
AcDbEntity
  8
Visible Narrow (ANSI)
100
AcDbLine
 10
11.98830177664467
 20
6.708173315040314
 30
0.0
 11
12.04030177664467
 21
6.708173315040314
 31
0.0
  0
LINE
  5
32C
330
6C
100
AcDbEntity
  8
Visible Narrow (ANSI)
100
AcDbLine
 10
11.98830177664467
 20
6.708173315040314
 30
0.0
 11
11.98830177664467
 21
5.530673315040314
 31
0.0
  0
LINE
  5
32D
330
6C
100
AcDbEntity
  8
Visible Narrow (ANSI)
100
AcDbLine
 10
11.91030177664467
 20
6.786173315040311
 30
0.0
 11
11.91030177664467
 21
6.838173315040306
 31
0.0
  0
ARC
  5
32E
330
6C
100
AcDbEntity
  8
Visible Narrow (ANSI)
100
AcDbCircle
 10
11.91030177664467
 20
6.70817331504031
 30
0.0
 40
0.0780000000000005
100
AcDbArc
 50
0.0
 51
90.0
  0
LINE
  5
32F
330
6C
100
AcDbEntity
  8
Visible Narrow (ANSI)
100
AcDbLine
 10
11.67030177664466
 20
6.786173315040304
 30
0.0
 11
11.67030177664466
 21
6.838173315040306
 31
0.0
  0
LINE
  5
330
330
6C
100
AcDbEntity
  8
Visible Narrow (ANSI)
100
AcDbLine
 10
11.67030177664466
 20
6.786173315040304
 30
0.0
 11
11.91030177664467
 21
6.786173315040311
 31
0.0
  0
LINE
  5
331
330
6C
100
AcDbEntity
  8
Visible Narrow (ANSI)
100
AcDbLine
 10
11.59230177664467
 20
6.70817331504031
 30
0.0
 11
11.54030177664466
 21
6.70817331504031
 31
0.0
  0
ARC
  5
332
330
6C
100
AcDbEntity
  8
Visible Narrow (ANSI)
100
AcDbCircle
 10
11.67030177664466
 20
6.70817331504031
 30
0.0
 40
0.077999999999991
100
AcDbArc
 50
89.99999999999898
 51
180.0
  0
LINE
  5
333
330
6C
100
AcDbEntity
  8
Visible Narrow (ANSI)
100
AcDbLine
 10
11.59230177664467
 20
5.530673315040312
 30
0.0
 11
11.59230177664467
 21
6.70817331504031
 31
0.0
  0
SPLINE
  5
334
330
6C
100
AcDbEntity
  8
Visible (ANSI)
100
AcDbSpline
210
0.0
220
0.0
230
1.0
 70
     8
 71
     3
 72
    18
 73
    14
 74
     0
 42
0.0000000001
 43
0.0000000001
 40
6.283185307179538
 40
6.283185307179538
 40
6.283185307179538
 40
6.283185307179538
 40
6.529364269791399
 40
6.529364269791399
 40
6.789600489706573
 40
6.789600489706573
 40
7.088176909499425
 40
7.088176909499425
 40
7.402336174858436
 40
7.402336174858436
 40
7.716495440217446
 40
7.716495440217446
 40
7.853981633974591
 40
7.853981633974591
 40
7.853981633974591
 40
7.853981633974591
 10
12.04030177664468
 20
5.162844500720639
 30
0.0
 10
12.04030177664468
 20
5.173405039427437
 30
0.0
 10
12.03841556436254
 20
5.183940536067677
 30
0.0
 10
12.03128316469351
 20
5.204011590051666
 30
0.0
 10
12.02589554057993
 20
5.213443404379151
 30
0.0
 10
12.01200412003816
 20
5.231152790438349
 30
0.0
 10
12.00318162223166
 20
5.239089919995995
 30
0.0
 10
11.98352423183221
 20
5.252455501633265
 30
0.0
 10
11.97259082872495
 20
5.257753812592848
 30
0.0
 10
11.94984137273115
 20
5.265557050439709
 30
0.0
 10
11.93801477221743
 20
5.268061221610382
 30
0.0
 10
11.9208212694955
 20
5.269743341696935
 30
0.0
 10
11.91556151962773
 20
5.269998829653189
 30
0.0
 10
11.91030177664468
 20
5.269998829653189
 30
0.0
  0
LINE
  5
335
330
6C
100
AcDbEntity
  8
Visible (ANSI)
100
AcDbLine
 10
11.91030177664468
 20
5.269998829653196
 30
0.0
 11
11.67030177664467
 21
5.269998829653196
 31
0.0
  0
SPLINE
  5
336
330
6C
100
AcDbEntity
  8
Visible (ANSI)
100
AcDbSpline
210
0.0
220
0.0
230
1.0
 70
     8
 71
     3
 72
    18
 73
    14
 74
     0
 42
0.0000000001
 43
0.0000000001
 40
1.570796326794896
 40
1.570796326794896
 40
1.570796326794896
 40
1.570796326794896
 40
1.88495559215387
 40
1.88495559215387
 40
2.199114857512844
 40
2.199114857512844
 40
2.513274122871818
 40
2.513274122871818
 40
2.827433388230792
 40
2.827433388230792
 40
3.095990979095907
 40
3.095990979095907
 40
3.141592653589766
 40
3.141592653589766
 40
3.141592653589766
 40
3.141592653589766
 10
11.67030177664467
 20
5.269998829653188
 30
0.0
 10
11.65828313719893
 20
5.269998829653188
 30
0.0
 10
11.6462639141149
 20
5.268669222677996
 30
0.0
 10
11.62284541415333
 20
5.263288753916988
 30
0.0
 10
11.61144059377649
 20
5.259240331446601
 30
0.0
 10
11.58994396374169
 20
5.248196585053113
 30
0.0
 10
11.57983347831383
 20
5.241192619425236
 30
0.0
 10
11.56202794137039
 20
5.223863398588102
 30
0.0
 10
11.55432825167093
 20
5.213480636920153
 30
0.0
 10
11.54420219133118
 20
5.191443788997564
 30
0.0
 10
11.54123219930988
 20
5.180195735695336
 30
0.0
 10
11.54036492193513
 20
5.166756918627656
 30
0.0
 10
11.54030177664468
 20
5.164800712752244
 30
0.0
 10
11.54030177664468
 20
5.162844500720648
 30
0.0
  0
SPLINE
  5
337
330
6C
100
AcDbEntity
  8
Visible (ANSI)
100
AcDbSpline
210
0.0
220
0.0
230
1.0
 70
     8
 71
     3
 72
    18
 73
    14
 74
     0
 42
0.0000000001
 43
0.0000000001
 40
0.0000000000000271
 40
0.0000000000000271
 40
0.0000000000000271
 40
0.0000000000000271
 40
0.2461789626118875
 40
0.2461789626118875
 40
0.50641518252707
 40
0.50641518252707
 40
0.8049916023199369
 40
0.8049916023199369
 40
1.11915086767891
 40
1.11915086767891
 40
1.433310133037884
 40
1.433310133037884
 40
1.570796326794896
 40
1.570796326794896
 40
1.570796326794896
 40
1.570796326794896
 10
9.477801776644669
 20
5.162844500720648
 30
0.0
 10
9.477801776644669
 20
5.173405039427446
 30
0.0
 10
9.475915564362528
 20
5.183940536067686
 30
0.0
 10
9.468783164693489
 20
5.204011590051675
 30
0.0
 10
9.463395540579911
 20
5.213443404379159
 30
0.0
 10
9.449504120038142
 20
5.231152790438355
 30
0.0
 10
9.440681622231643
 20
5.239089919996001
 30
0.0
 10
9.421024231832191
 20
5.25245550163327
 30
0.0
 10
9.410090828724936
 20
5.25775381259285
 30
0.0
 10
9.387341372731132
 20
5.26555705043971
 30
0.0
 10
9.375514772217417
 20
5.268061221610382
 30
0.0
 10
9.358321269495487
 20
5.269743341696935
 30
0.0
 10
9.353061519627729
 20
5.269998829653188
 30
0.0
 10
9.347801776644679
 20
5.269998829653188
 30
0.0
  0
LINE
  5
338
330
6C
100
AcDbEntity
  8
Visible (ANSI)
100
AcDbLine
 10
9.347801776644679
 20
5.269998829653196
 30
0.0
 11
9.10780177664467
 21
5.269998829653196
 31
0.0
  0
SPLINE
  5
339
330
6C
100
AcDbEntity
  8
Visible (ANSI)
100
AcDbSpline
210
0.0
220
0.0
230
1.0
 70
     8
 71
     3
 72
    18
 73
    14
 74
     0
 42
0.0000000001
 43
0.0000000001
 40
1.570796326794774
 40
1.570796326794774
 40
1.570796326794774
 40
1.570796326794774
 40
1.884955592153787
 40
1.884955592153787
 40
2.199114857512801
 40
2.199114857512801
 40
2.513274122871814
 40
2.513274122871814
 40
2.827433388230827
 40
2.827433388230827
 40
3.095990979095936
 40
3.095990979095936
 40
3.141592653589841
 40
3.141592653589841
 40
3.141592653589841
 40
3.141592653589841
 10
9.10780177664467
 20
5.269998829653189
 30
0.0
 10
9.095783137198933
 20
5.26999882965319
 30
0.0
 10
9.083763914114893
 20
5.268669222677998
 30
0.0
 10
9.060345414153324
 20
5.263288753916991
 30
0.0
 10
9.048940593776487
 20
5.259240331446604
 30
0.0
 10
9.027443963741683
 20
5.248196585053116
 30
0.0
 10
9.017333478313823
 20
5.241192619425238
 30
0.0
 10
8.999527941370381
 20
5.223863398588102
 30
0.0
 10
8.991828251670913
 20
5.213480636920151
 30
0.0
 10
8.981702191331168
 20
5.191443788997561
 30
0.0
 10
8.978732199309863
 20
5.180195735695332
 30
0.0
 10
8.97786492193512
 20
5.16675691862765
 30
0.0
 10
8.977801776644666
 20
5.164800712752238
 30
0.0
 10
8.977801776644666
 20
5.162844500720639
 30
0.0
  0
ELLIPSE
  5
33A
330
6C
100
AcDbEntity
  8
Visible (ANSI)
100
AcDbEllipse
 10
11.23124116216947
 20
3.855227285611423
 30
0.0
 11
0.1039999999999997
 21
0.0000000000000002
 31
0.0
210
0.0
220
0.0
230
1.0
 40
0.7071067811865478
 41
4.712388980384675
 42
6.283185307179583
  0
ELLIPSE
  5
33B
330
6C
100
AcDbEntity
  8
Visible (ANSI)
100
AcDbEllipse
 10
11.23124116216947
 20
3.855227285611423
 30
0.0
 11
0.052
 21
-0.0000000000000001
 31
0.0
210
0.0
220
0.0
230
1.0
 40
0.7071067811865478
 41
4.71238898038469
 42
6.283185307179589
  0
SPLINE
  5
33C
330
6C
100
AcDbEntity
  8
Visible (ANSI)
100
AcDbSpline
210
0.0
220
0.0
230
1.0
 70
     8
 71
     3
 72
    20
 73
    16
 74
     0
 42
0.0000000001
 43
0.0000000001
 40
0.0
 40
0.0
 40
0.0
 40
0.0
 40
0.0212505109555764
 40
0.0212505109555764
 40
0.050270098744464
 40
0.050270098744464
 40
0.0739596752965666
 40
0.0739596752965666
 40
0.0957274077760154
 40
0.0957274077760154
 40
0.1184632751070246
 40
0.1184632751070246
 40
0.14098148036994
 40
0.14098148036994
 40
0.1732631605020587
 40
0.1732631605020587
 40
0.1732631605020587
 40
0.1732631605020587
 10
11.28324116216947
 20
4.297312633365881
 30
0.0
 10
11.28324116216947
 20
4.294553568826906
 30
0.0
 10
11.28317887178311
 20
4.290607747340388
 30
0.0
 10
11.28208219426735
 20
4.27987089779479
 30
0.0
 10
11.28082043850866
 20
4.27410951883876
 30
0.0
 10
11.27701300205785
 20
4.264898171214587
 30
0.0
 10
11.27474442701265
 20
4.261218102701224
 30
0.0
 10
11.26922798799971
 20
4.255479705215826
 30
0.0
 10
11.26617572143933
 20
4.253423172626581
 30
0.0
 10
11.25933823486662
 20
4.25077550931429
 30
0.0
 10
11.25566571292209
 20
4.250304399463622
 30
0.0
 10
11.24838127328842
 20
4.250898879723229
 30
0.0
 10
11.24486435886266
 20
4.251938768376444
 30
0.0
 10
11.23685408620622
 20
4.255798216928196
 30
0.0
 10
11.23336584620882
 20
4.258824392710125
 30
0.0
 10
11.23124116216947
 20
4.260878122538799
 30
0.0
  0
SPLINE
  5
33D
330
6C
100
AcDbEntity
  8
Visible (ANSI)
100
AcDbSpline
210
0.0
220
0.0
230
1.0
 70
     8
 71
     3
 72
    20
 73
    16
 74
     0
 42
0.0000000001
 43
0.0000000001
 40
0.0
 40
0.0
 40
0.0
 40
0.0
 40
0.0213105760993171
 40
0.0213105760993171
 40
0.0505839085943616
 40
0.0505839085943616
 40
0.074393138297982
 40
0.074393138297982
 40
0.0962051165753124
 40
0.0962051165753124
 40
0.1188954899765604
 40
0.1188954899765604
 40
0.1412884715855229
 40
0.1412884715855229
 40
0.1732751308050511
 40
0.1732751308050511
 40
0.1732751308050511
 40
0.1732751308050511
 10
9.786862391119877
 20
4.2608781225388
 30
0.0
 10
9.785211184366348
 20
4.259282058135703
 30
0.0
 10
9.78274867621922
 20
4.257109184128376
 30
0.0
 10
9.775102679193842
 20
4.252467508231664
 30
0.0
 10
9.770379681678793
 20
4.250877907472431
 30
0.0
 10
9.761832427350642
 20
4.250322170025009
 30
0.0
 10
9.758000873118932
 20
4.250922952732331
 30
0.0
 10
9.751086946857702
 20
4.253924068383837
 30
0.0
 10
9.748099501392042
 20
4.256115218950808
 30
0.0
 10
9.742873313003075
 20
4.261956330776849
 30
0.0
 10
9.740771487548091
 20
4.265542603339749
 30
0.0
 10
9.737605832401836
 20
4.27347143080262
 30
0.0
 10
9.736564451722317
 20
4.277700058192511
 30
0.0
 10
9.734945470072709
 20
4.288271192771049
 30
0.0
 10
9.734862391119875
 20
4.293768366308833
 30
0.0
 10
9.734862391119875
 20
4.29731263336588
 30
0.0
  0
ELLIPSE
  5
33E
330
6C
100
AcDbEntity
  8
Visible (ANSI)
100
AcDbEllipse
 10
9.786862391119877
 20
3.855227285611423
 30
0.0
 11
-0.1040000000000002
 21
-0.0000000000000006
 31
0.0
210
0.0
220
0.0
230
1.0
 40
0.7071067811865493
 41
0.0
 42
1.570796326794893
  0
ELLIPSE
  5
33F
330
6C
100
AcDbEntity
  8
Visible (ANSI)
100
AcDbEllipse
 10
9.786862391119877
 20
3.855227285611423
 30
0.0
 11
-0.0520000000000001
 21
-0.0000000000000017
 31
0.0
210
0.0
220
0.0
230
1.0
 40
0.7071067811865472
 41
0.0
 42
1.570796326794845
  0
ENDSEC
  0
SECTION
  2
OBJECTS
  0
DICTIONARY
  5
C
330
0
100
AcDbDictionary
281
     1
  3
ACAD_CIP_PREVIOUS_PRODUCT_INFO
350
340
  3
ACAD_COLOR
350
63
  3
ACAD_GROUP
350
D
  3
ACAD_LAYOUT
350
62
  3
ACAD_MATERIAL
350
10
  3
ACAD_MLEADERSTYLE
350
66
  3
ACAD_MLINESTYLE
350
5F
  3
ACAD_PLOTSETTINGS
350
61
  3
ACAD_PLOTSTYLENAME
350
E
  3
ACAD_SCALELIST
350
42
  3
ACAD_TABLESTYLE
350
64
  3
ACAD_VISUALSTYLE
350
29
  3
ACDB_RECOMPOSE_DATA
350
398
  3
AcDbVariableDictionary
350
76
  3
DWGPROPS
350
399
  0
DICTIONARY
  5
347
330
8
100
AcDbDictionary
280
     1
281
     1
  0
XRECORD
  5
340
102
{ACAD_REACTORS
330
C
102
}
330
C
100
AcDbXrecord
280
     1
300
AMECH_PP
300
2012
300
85796PDSU_2012_0F
  0
DICTIONARY
  5
63
102
{ACAD_REACTORS
330
C
102
}
330
C
100
AcDbDictionary
281
     1
  0
DICTIONARY
  5
D
102
{ACAD_REACTORS
330
C
102
}
330
C
100
AcDbDictionary
281
     1
  0
DICTIONARY
  5
62
102
{ACAD_REACTORS
330
C
102
}
330
C
100
AcDbDictionary
281
     1
  3
Layout1
350
6B
  3
Layout2
350
73
  3
Model
350
6F
  0
DICTIONARY
  5
10
102
{ACAD_REACTORS
330
C
102
}
330
C
100
AcDbDictionary
281
     1
  3
ByBlock
350
19
  3
ByLayer
350
11
  3
Global
350
21
  0
DICTIONARY
  5
66
102
{ACAD_REACTORS
330
C
102
}
330
C
100
AcDbDictionary
281
     1
  3
Standard
350
67
  0
DICTIONARY
  5
5F
102
{ACAD_REACTORS
330
C
102
}
330
C
100
AcDbDictionary
281
     1
  3
Standard
350
60
  0
DICTIONARY
  5
61
102
{ACAD_REACTORS
330
C
102
}
330
C
100
AcDbDictionary
281
     1
  0
ACDBDICTIONARYWDFLT
  5
E
102
{ACAD_REACTORS
330
C
102
}
330
C
100
AcDbDictionary
281
     1
  3
Normal
350
F
100
AcDbDictionaryWithDefault
340
F
  0
DICTIONARY
  5
42
102
{ACAD_REACTORS
330
C
102
}
330
C
100
AcDbDictionary
281
     1
  3
A0
350
43
  3
A1
350
44
  3
A2
350
45
  3
A3
350
46
  3
A4
350
47
  3
A5
350
48
  3
A6
350
49
  3
A7
350
4A
  3
A8
350
4B
  3
A9
350
4C
  3
B0
350
4D
  3
B1
350
4E
  3
B2
350
4F
  3
B3
350
50
  3
B4
350
51
  3
B5
350
52
  3
B6
350
53
  0
DICTIONARY
  5
64
102
{ACAD_REACTORS
330
C
102
}
330
C
100
AcDbDictionary
281
     1
  3
Standard
350
65
  0
DICTIONARY
  5
29
102
{ACAD_REACTORS
330
C
102
}
330
C
100
AcDbDictionary
281
     1
  3
2dWireframe
350
2F
  3
Basic
350
2E
  3
Brighten
350
35
  3
ColorChange
350
39
  3
Conceptual
350
32
  3
Dim
350
34
  3
EdgeColorOff
350
41
  3
Facepattern
350
38
  3
Flat
350
2A
  3
FlatWithEdges
350
2B
  3
Gouraud
350
2C
  3
GouraudWithEdges
350
2D
  3
Hidden
350
31
  3
JitterOff
350
3F
  3
Linepattern
350
37
  3
OverhangOff
350
40
  3
Realistic
350
33
  3
Shaded
350
3E
  3
Shaded with edges
350
3D
  3
Shades of Gray
350
3A
  3
Sketchy
350
3B
  3
Thicken
350
36
  3
Wireframe
350
30
  3
X-Ray
350
3C
  0
XRECORD
  5
398
102
{ACAD_REACTORS
330
C
102
}
330
C
100
AcDbXrecord
280
     1
 90
        1
330
65
  0
DICTIONARY
  5
76
102
{ACAD_REACTORS
330
C
102
}
330
C
100
AcDbDictionary
281
     1
  3
CANNOSCALE
350
79
  3
CMLEADERSTYLE
350
78
  3
CTABLESTYLE
350
77
  3
DIMASSOC
350
38B
  3
HIDETEXT
350
38A
  3
INDEXCTL
350
389
  3
LAYEREVAL
350
386
  3
LAYERNOTIFY
350
387
  3
LIGHTINGUNITS
350
385
  3
MSLTSCALE
350
384
  3
SORTENTS
350
388
  3
XCLIPFRAME
350
393
  0
XRECORD
  5
399
102
{ACAD_REACTORS
330
C
102
}
330
C
100
AcDbXrecord
280
     1
  1
DWGPROPS COOKIE
  2

  3

  4
JIM WALLS
  6

  7

  8
jwalls
  9

300
Manager=
301
Company=
302
Category=
303
Part Number=
304
Description=
305
Project=
306
Designer=JIM WALLS
307
Engineer=
308
Authority=
309
Cost Center=
 40
0.0012346527777778
 41
2456038.5689586
 42
2456038.590524294
  1

 90
       16
300
Vendor=
300
User Status=
300
Design Status=WorkInProgress
300
Checked by=
300
Engr Approved by=
300
Mfg Approved by=
  0
LAYOUT
  5
6B
102
{ACAD_XDICTIONARY
360
3CE
102
}
102
{ACAD_REACTORS
330
62
102
}
330
62
100
AcDbPlotSettings
  1

  2

  4

  6

 40
0.0
 41
0.0
 42
0.0
 43
0.0
 44
0.0
 45
0.0
 46
0.0
 47
0.0
 48
0.0
 49
0.0
140
0.0
141
0.0
142
1.0
143
1.0
 70
   688
 72
     0
 73
     0
 74
     5
  7

 75
    16
147
1.0
148
0.0
149
0.0
100
AcDbLayout
  1
Layout1
 70
     1
 71
     1
 10
0.0
 20
0.0
 11
22.0
 21
17.0
 12
0.0
 22
0.0
 32
0.0
 14
0.0
 24
0.0
 34
0.0
 15
22.0
 25
17.0
 35
0.0
146
0.0
 13
0.0
 23
0.0
 33
0.0
 16
1.0
 26
0.0
 36
0.0
 17
0.0
 27
1.0
 37
0.0
 76
     0
330
68
  0
LAYOUT
  5
73
102
{ACAD_XDICTIONARY
360
3D2
102
}
102
{ACAD_REACTORS
330
62
102
}
330
62
100
AcDbPlotSettings
  1

  2

  4

  6

 40
0.0
 41
0.0
 42
0.0
 43
0.0
 44
0.0
 45
0.0
 46
0.0
 47
0.0
 48
0.0
 49
0.0
140
0.0
141
0.0
142
1.0
143
1.0
 70
   688
 72
     0
 73
     0
 74
     5
  7

 75
    16
147
1.0
148
0.0
149
0.0
100
AcDbLayout
  1
Layout2
 70
     1
 71
     2
 10
0.0
 20
0.0
 11
12.0
 21
9.0
 12
0.0
 22
0.0
 32
0.0
 14
0.0
 24
0.0
 34
0.0
 15
0.0
 25
0.0
 35
0.0
146
0.0
 13
0.0
 23
0.0
 33
0.0
 16
1.0
 26
0.0
 36
0.0
 17
0.0
 27
1.0
 37
0.0
 76
     0
330
70
  0
LAYOUT
  5
6F
102
{ACAD_XDICTIONARY
360
3D0
102
}
102
{ACAD_REACTORS
330
62
102
}
330
62
100
AcDbPlotSettings
  1

  2

  4

  6

 40
0.0
 41
0.0
 42
0.0
 43
0.0
 44
0.0
 45
0.0
 46
0.0
 47
0.0
 48
0.0
 49
0.0
140
0.0
141
0.0
142
1.0
143
1.0
 70
  1712
 72
     0
 73
     0
 74
     0
  7

 75
     0
147
1.0
148
0.0
149
0.0
100
AcDbLayout
  1
Model
 70
     1
 71
     0
 10
0.0
 20
0.0
 11
12.0
 21
9.0
 12
0.0
 22
0.0
 32
0.0
 14
0.0
 24
0.0
 34
0.0
 15
0.0
 25
0.0
 35
0.0
146
0.0
 13
0.0
 23
0.0
 33
0.0
 16
1.0
 26
0.0
 36
0.0
 17
0.0
 27
1.0
 37
0.0
 76
     0
330
6C
331
57
  0
MATERIAL
  5
19
102
{ACAD_XDICTIONARY
360
1A
102
}
102
{ACAD_REACTORS
330
10
102
}
330
10
100
AcDbMaterial
  1
ByBlock
 72
     0
 43
0.0208333333333333
 43
0.0
 43
0.0
 43
0.0
 43
0.0
 43
0.0208333333333333
 43
0.0
 43
0.0
 43
0.0
 43
0.0
 43
1.0
 43
0.0
 43
0.0
 43
0.0
 43
0.0
 43
1.0
 77
     0
 47
0.0208333333333333
 47
0.0
 47
0.0
 47
0.0
 47
0.0
 47
0.0208333333333333
 47
0.0
 47
0.0
 47
0.0
 47
0.0
 47
1.0
 47
0.0
 47
0.0
 47
0.0
 47
0.0
 47
1.0
171
     0
 49
0.0208333333333333
 49
0.0
 49
0.0
 49
0.0
 49
0.0
 49
0.0208333333333333
 49
0.0
 49
0.0
 49
0.0
 49
0.0
 49
1.0
 49
0.0
 49
0.0
 49
0.0
 49
0.0
 49
1.0
175
     0
142
0.0208333333333333
142
0.0
142
0.0
142
0.0
142
0.0
142
0.0208333333333333
142
0.0
142
0.0
142
0.0
142
0.0
142
1.0
142
0.0
142
0.0
142
0.0
142
0.0
142
1.0
179
     0
144
0.0208333333333333
144
0.0
144
0.0
144
0.0
144
0.0
144
0.0208333333333333
144
0.0
144
0.0
144
0.0
144
0.0
144
1.0
144
0.0
144
0.0
144
0.0
144
0.0
144
1.0
147
0.0208333333333333
147
0.0
147
0.0
147
0.0
147
0.0
147
0.0208333333333333
147
0.0
147
0.0
147
0.0
147
0.0
147
1.0
147
0.0
147
0.0
147
0.0
147
0.0
147
1.0
  0
MATERIAL
  5
11
102
{ACAD_XDICTIONARY
360
12
102
}
102
{ACAD_REACTORS
330
10
102
}
330
10
100
AcDbMaterial
  1
ByLayer
 72
     0
 43
0.0208333333333333
 43
0.0
 43
0.0
 43
0.0
 43
0.0
 43
0.0208333333333333
 43
0.0
 43
0.0
 43
0.0
 43
0.0
 43
1.0
 43
0.0
 43
0.0
 43
0.0
 43
0.0
 43
1.0
 77
     0
 47
0.0208333333333333
 47
0.0
 47
0.0
 47
0.0
 47
0.0
 47
0.0208333333333333
 47
0.0
 47
0.0
 47
0.0
 47
0.0
 47
1.0
 47
0.0
 47
0.0
 47
0.0
 47
0.0
 47
1.0
171
     0
 49
0.0208333333333333
 49
0.0
 49
0.0
 49
0.0
 49
0.0
 49
0.0208333333333333
 49
0.0
 49
0.0
 49
0.0
 49
0.0
 49
1.0
 49
0.0
 49
0.0
 49
0.0
 49
0.0
 49
1.0
175
     0
142
0.0208333333333333
142
0.0
142
0.0
142
0.0
142
0.0
142
0.0208333333333333
142
0.0
142
0.0
142
0.0
142
0.0
142
1.0
142
0.0
142
0.0
142
0.0
142
0.0
142
1.0
179
     0
144
0.0208333333333333
144
0.0
144
0.0
144
0.0
144
0.0
144
0.0208333333333333
144
0.0
144
0.0
144
0.0
144
0.0
144
1.0
144
0.0
144
0.0
144
0.0
144
0.0
144
1.0
147
0.0208333333333333
147
0.0
147
0.0
147
0.0
147
0.0
147
0.0208333333333333
147
0.0
147
0.0
147
0.0
147
0.0
147
1.0
147
0.0
147
0.0
147
0.0
147
0.0
147
1.0
  0
MATERIAL
  5
21
102
{ACAD_XDICTIONARY
360
22
102
}
102
{ACAD_REACTORS
330
10
102
}
330
10
100
AcDbMaterial
  1
Global
 72
     0
 43
0.0208333333333333
 43
0.0
 43
0.0
 43
0.0
 43
0.0
 43
0.0208333333333333
 43
0.0
 43
0.0
 43
0.0
 43
0.0
 43
1.0
 43
0.0
 43
0.0
 43
0.0
 43
0.0
 43
1.0
 77
     0
 47
0.0208333333333333
 47
0.0
 47
0.0
 47
0.0
 47
0.0
 47
0.0208333333333333
 47
0.0
 47
0.0
 47
0.0
 47
0.0
 47
1.0
 47
0.0
 47
0.0
 47
0.0
 47
0.0
 47
1.0
171
     0
 49
0.0208333333333333
 49
0.0
 49
0.0
 49
0.0
 49
0.0
 49
0.0208333333333333
 49
0.0
 49
0.0
 49
0.0
 49
0.0
 49
1.0
 49
0.0
 49
0.0
 49
0.0
 49
0.0
 49
1.0
175
     0
142
0.0208333333333333
142
0.0
142
0.0
142
0.0
142
0.0
142
0.0208333333333333
142
0.0
142
0.0
142
0.0
142
0.0
142
1.0
142
0.0
142
0.0
142
0.0
142
0.0
142
1.0
179
     0
144
0.0208333333333333
144
0.0
144
0.0
144
0.0
144
0.0
144
0.0208333333333333
144
0.0
144
0.0
144
0.0
144
0.0
144
1.0
144
0.0
144
0.0
144
0.0
144
0.0
144
1.0
147
0.0208333333333333
147
0.0
147
0.0
147
0.0
147
0.0
147
0.0208333333333333
147
0.0
147
0.0
147
0.0
147
0.0
147
1.0
147
0.0
147
0.0
147
0.0
147
0.0
147
1.0
  0
MLEADERSTYLE
  5
67
102
{ACAD_XDICTIONARY
360
396
102
}
102
{ACAD_REACTORS
330
66
102
}
330
66
100
AcDbMLeaderStyle
170
     2
171
     1
172
     0
 90
        2
 40
0.0
 41
0.0
173
     1
 91
-1056964608
340
5B
 92
       -2
290
     1
 42
0.09
291
     1
 43
0.36
  3
Standard
 44
0.18
300

342
55
174
     1
178
     6
175
     1
176
     0
 93
-1056964608
 45
0.18
292
     0
297
     0
 46
0.18
 94
-1056964608
 47
1.0
 49
1.0
140
1.0
293
     1
141
0.0
294
     1
177
     0
142
1.0
295
     0
296
     0
143
0.125
1001
ACAD_MLEADERVER
1070
     2
  0
MLINESTYLE
  5
60
102
{ACAD_REACTORS
330
5F
102
}
330
5F
100
AcDbMlineStyle
  2
STANDARD
 70
     0
  3

 62
   256
 51
90.0
 52
90.0
 71
     2
 49
0.5
 62
   256
  6
BYLAYER
 49
-0.5
 62
   256
  6
BYLAYER
  0
ACDBPLACEHOLDER
  5
F
102
{ACAD_REACTORS
330
E
102
}
330
E
  0
SCALE
  5
43
102
{ACAD_REACTORS
330
42
102
}
330
42
100
AcDbScale
 70
     0
300
1:1
140
1.0
141
1.0
290
     1
  0
SCALE
  5
44
102
{ACAD_REACTORS
330
42
102
}
330
42
100
AcDbScale
 70
     0
300
1/128" = 1'-0"
140
0.0078125
141
12.0
290
     0
  0
SCALE
  5
45
102
{ACAD_REACTORS
330
42
102
}
330
42
100
AcDbScale
 70
     0
300
1/64" = 1'-0"
140
0.015625
141
12.0
290
     0
  0
SCALE
  5
46
102
{ACAD_REACTORS
330
42
102
}
330
42
100
AcDbScale
 70
     0
300
1/32" = 1'-0"
140
0.03125
141
12.0
290
     0
  0
SCALE
  5
47
102
{ACAD_REACTORS
330
42
102
}
330
42
100
AcDbScale
 70
     0
300
1/16" = 1'-0"
140
0.0625
141
12.0
290
     0
  0
SCALE
  5
48
102
{ACAD_REACTORS
330
42
102
}
330
42
100
AcDbScale
 70
     0
300
3/32" = 1'-0"
140
0.09375
141
12.0
290
     0
  0
SCALE
  5
49
102
{ACAD_REACTORS
330
42
102
}
330
42
100
AcDbScale
 70
     0
300
1/8" = 1'-0"
140
0.125
141
12.0
290
     0
  0
SCALE
  5
4A
102
{ACAD_REACTORS
330
42
102
}
330
42
100
AcDbScale
 70
     0
300
3/16" = 1'-0"
140
0.1875
141
12.0
290
     0
  0
SCALE
  5
4B
102
{ACAD_REACTORS
330
42
102
}
330
42
100
AcDbScale
 70
     0
300
1/4" = 1'-0"
140
0.25
141
12.0
290
     0
  0
SCALE
  5
4C
102
{ACAD_REACTORS
330
42
102
}
330
42
100
AcDbScale
 70
     0
300
3/8" = 1'-0"
140
0.375
141
12.0
290
     0
  0
SCALE
  5
4D
102
{ACAD_REACTORS
330
42
102
}
330
42
100
AcDbScale
 70
     0
300
1/2" = 1'-0"
140
0.5
141
12.0
290
     0
  0
SCALE
  5
4E
102
{ACAD_REACTORS
330
42
102
}
330
42
100
AcDbScale
 70
     0
300
3/4" = 1'-0"
140
0.75
141
12.0
290
     0
  0
SCALE
  5
4F
102
{ACAD_REACTORS
330
42
102
}
330
42
100
AcDbScale
 70
     0
300
1" = 1'-0"
140
1.0
141
12.0
290
     0
  0
SCALE
  5
50
102
{ACAD_REACTORS
330
42
102
}
330
42
100
AcDbScale
 70
     0
300
1-1/2" = 1'-0"
140
1.5
141
12.0
290
     0
  0
SCALE
  5
51
102
{ACAD_REACTORS
330
42
102
}
330
42
100
AcDbScale
 70
     0
300
3" = 1'-0"
140
3.0
141
12.0
290
     0
  0
SCALE
  5
52
102
{ACAD_REACTORS
330
42
102
}
330
42
100
AcDbScale
 70
     0
300
6" = 1'-0"
140
6.0
141
12.0
290
     0
  0
SCALE
  5
53
102
{ACAD_REACTORS
330
42
102
}
330
42
100
AcDbScale
 70
     0
300
1'-0" = 1'-0"
140
12.0
141
12.0
290
     0
  0
TABLESTYLE
  5
65
102
{ACAD_XDICTIONARY
360
341
102
}
102
{ACAD_REACTORS
330
64
102
}
330
64
100
AcDbTableStyle
  3
Standard
 70
     0
 71
     0
 40
0.06
 41
0.06
280
     0
281
     0
  7
Standard
140
0.18
170
     2
 62
     0
 63
     7
283
     0
274
    -2
284
     1
 64
     0
275
    -2
285
     1
 65
     0
276
    -2
286
     1
 66
     0
277
    -2
287
     1
 67
     0
278
    -2
288
     1
 68
     0
279
    -2
289
     1
 69
     0
  7
Standard
140
0.25
170
     5
 62
     0
 63
     7
283
     0
274
    -2
284
     1
 64
     0
275
    -2
285
     1
 65
     0
276
    -2
286
     1
 66
     0
277
    -2
287
     1
 67
     0
278
    -2
288
     1
 68
     0
279
    -2
289
     1
 69
     0
  7
Standard
140
0.18
170
     5
 62
     0
 63
     7
283
     0
274
    -2
284
     1
 64
     0
275
    -2
285
     1
 65
     0
276
    -2
286
     1
 66
     0
277
    -2
287
     1
 67
     0
278
    -2
288
     1
 68
     0
279
    -2
289
     1
 69
     0
  0
VISUALSTYLE
  5
2F
102
{ACAD_XDICTIONARY
360
3A7
102
}
102
{ACAD_REACTORS
330
29
102
}
330
29
100
AcDbVisualStyle
  2
2dWireframe
 70
     4
 71
     0
 72
     2
 73
     0
 90
        0
 40
-0.6
 41
-30.0
 62
     5
 63
     7
 74
     1
 91
        4
 64
     7
 65
   257
 75
     1
175
     1
 42
1.0
 92
        0
 66
   257
 43
1.0
 76
     1
 77
     6
 78
     2
 67
     7
 79
     5
170
     0
171
     0
290
     0
174
     0
 93
        1
 44
0.0
173
     0
291
     0
 45
0.0
1001
ACAD
1000
AcDbSavedByObjectVersion
1070
     0
  0
VISUALSTYLE
  5
2E
102
{ACAD_XDICTIONARY
360
3A5
102
}
102
{ACAD_REACTORS
330
29
102
}
330
29
100
AcDbVisualStyle
  2
Basic
 70
     7
 71
     1
 72
     0
 73
     1
 90
        0
 40
-0.6
 41
-30.0
 62
     5
 63
     7
 74
     0
 91
        4
 64
     7
 65
   257
 75
     1
175
     1
 42
1.0
 92
        8
 66
     7
 43
1.0
 76
     1
 77
     6
 78
     2
 67
     7
 79
     5
170
     0
171
     0
290
     0
174
     0
 93
        1
 44
0.0
173
     0
291
     1
 45
0.0
1001
ACAD
1000
AcDbSavedByObjectVersion
1070
     0
  0
VISUALSTYLE
  5
35
102
{ACAD_XDICTIONARY
360
3B3
102
}
102
{ACAD_REACTORS
330
29
102
}
330
29
100
AcDbVisualStyle
  2
Brighten
 70
    12
 71
     2
 72
     2
 73
     0
 90
        0
 40
-0.6
 41
-30.0
 62
     5
 63
     7
 74
     1
 91
        4
 64
     7
 65
   257
 75
     1
175
     1
 42
1.0
 92
        8
 66
     7
 43
1.0
 76
     1
 77
     6
 78
     2
 67
     7
 79
     5
170
     0
171
     0
290
     0
174
     0
 93
        1
 44
50.0
173
     0
291
     1
 45
0.0
1001
ACAD
1000
AcDbSavedByObjectVersion
1070
     0
  0
VISUALSTYLE
  5
39
102
{ACAD_XDICTIONARY
360
3BB
102
}
102
{ACAD_REACTORS
330
29
102
}
330
29
100
AcDbVisualStyle
  2
ColorChange
 70
    16
 71
     2
 72
     2
 73
     3
 90
        0
 40
-0.6
 41
-30.0
 62
     5
 63
     8
 74
     1
 91
        4
 64
     7
 65
   257
 75
     1
175
     1
 42
1.0
 92
        8
 66
     8
 43
1.0
 76
     1
 77
     6
 78
     2
 67
     7
 79
     5
170
     0
171
     0
290
     0
174
     0
 93
        1
 44
0.0
173
     0
291
     1
 45
0.0
1001
ACAD
1000
AcDbSavedByObjectVersion
1070
     0
  0
VISUALSTYLE
  5
32
102
{ACAD_XDICTIONARY
360
3AD
102
}
102
{ACAD_REACTORS
330
29
102
}
330
29
100
AcDbVisualStyle
  2
Conceptual
 70
     9
 71
     3
 72
     2
 73
     0
 90
        0
 40
-0.6
 41
-30.0
 62
     5
 63
     7
 74
     2
 91
        2
 64
     7
 65
   257
 75
     1
175
     1
 42
179.0
 92
        8
 66
     7
 43
1.0
 76
     1
 77
     6
 78
     2
 67
     7
 79
     3
170
     0
171
     0
290
     0
174
     0
 93
        1
 44
0.0
173
     0
291
     0
 45
0.0
1001
ACAD
1000
AcDbSavedByObjectVersion
1070
     0
  0
VISUALSTYLE
  5
34
102
{ACAD_XDICTIONARY
360
3B1
102
}
102
{ACAD_REACTORS
330
29
102
}
330
29
100
AcDbVisualStyle
  2
Dim
 70
    11
 71
     2
 72
     2
 73
     0
 90
        0
 40
-0.6
 41
-30.0
 62
     5
 63
     7
 74
     1
 91
        4
 64
     7
 65
   257
 75
     1
175
     1
 42
1.0
 92
        8
 66
     7
 43
1.0
 76
     1
 77
     6
 78
     2
 67
     7
 79
     5
170
     0
171
     0
290
     0
174
     0
 93
        1
 44
-50.0
173
     0
291
     1
 45
0.0
1001
ACAD
1000
AcDbSavedByObjectVersion
1070
     0
  0
VISUALSTYLE
  5
41
102
{ACAD_XDICTIONARY
360
3CB
102
}
102
{ACAD_REACTORS
330
29
102
}
330
29
100
AcDbVisualStyle
  2
EdgeColorOff
 70
    22
 71
     2
 72
     2
 73
     0
 90
        0
 40
-0.6
 41
-30.0
 62
     5
 63
     7
 74
     1
 91
        4
 64
     7
 65
   257
 75
     1
175
     1
 42
1.0
 92
        8
 66
     7
 43
1.0
 76
     1
 77
     6
 78
     2
 67
     7
 79
     5
170
     0
171
     0
290
     0
174
     0
 93
        1
 44
0.0
173
     0
291
     1
 45
0.0
1001
ACAD
1000
AcDbSavedByObjectVersion
1070
     0
  0
VISUALSTYLE
  5
38
102
{ACAD_XDICTIONARY
360
3B9
102
}
102
{ACAD_REACTORS
330
29
102
}
330
29
100
AcDbVisualStyle
  2
Facepattern
 70
    15
 71
     2
 72
     2
 73
     0
 90
        0
 40
-0.6
 41
-30.0
 62
     5
 63
     7
 74
     1
 91
        4
 64
     7
 65
   257
 75
     1
175
     1
 42
1.0
 92
        8
 66
     7
 43
1.0
 76
     1
 77
     6
 78
     2
 67
     7
 79
     5
170
     0
171
     0
290
     0
174
     0
 93
        1
 44
0.0
173
     0
291
     1
 45
0.0
1001
ACAD
1000
AcDbSavedByObjectVersion
1070
     0
  0
VISUALSTYLE
  5
2A
102
{ACAD_XDICTIONARY
360
39D
102
}
102
{ACAD_REACTORS
330
29
102
}
330
29
100
AcDbVisualStyle
  2
Flat
 70
     0
 71
     2
 72
     1
 73
     1
 90
        2
 40
-0.6
 41
30.0
 62
     5
 63
     7
 74
     0
 91
        0
 64
     7
 65
   257
 75
     1
175
     1
 42
1.0
 92
        8
 66
     7
 43
1.0
 76
     1
 77
     6
 78
     2
 67
     7
 79
     5
170
     0
171
     0
290
     0
174
     0
 93
       13
 44
0.0
173
     0
291
     1
 45
0.0
1001
ACAD
1000
AcDbSavedByObjectVersion
1070
     0
  0
VISUALSTYLE
  5
2B
102
{ACAD_XDICTIONARY
360
39F
102
}
102
{ACAD_REACTORS
330
29
102
}
330
29
100
AcDbVisualStyle
  2
FlatWithEdges
 70
     1
 71
     2
 72
     1
 73
     1
 90
        2
 40
-0.6
 41
30.0
 62
     5
 63
     7
 74
     1
 91
        0
 64
     7
 65
   257
 75
     1
175
     1
 42
1.0
 92
        0
 66
   257
 43
1.0
 76
     1
 77
     6
 78
     2
 67
     7
 79
     5
170
     0
171
     0
290
     0
174
     0
 93
       13
 44
0.0
173
     0
291
     1
 45
0.0
1001
ACAD
1000
AcDbSavedByObjectVersion
1070
     0
  0
VISUALSTYLE
  5
2C
102
{ACAD_XDICTIONARY
360
3A1
102
}
102
{ACAD_REACTORS
330
29
102
}
330
29
100
AcDbVisualStyle
  2
Gouraud
 70
     2
 71
     2
 72
     2
 73
     1
 90
        2
 40
-0.6
 41
30.0
 62
     5
 63
     7
 74
     0
 91
        0
 64
     7
 65
   257
 75
     1
175
     1
 42
1.0
 92
        0
 66
     7
 43
1.0
 76
     1
 77
     6
 78
     2
 67
     7
 79
     5
170
     0
171
     0
290
     0
174
     0
 93
       13
 44
0.0
173
     0
291
     1
 45
0.0
1001
ACAD
1000
AcDbSavedByObjectVersion
1070
     0
  0
VISUALSTYLE
  5
2D
102
{ACAD_XDICTIONARY
360
3A3
102
}
102
{ACAD_REACTORS
330
29
102
}
330
29
100
AcDbVisualStyle
  2
GouraudWithEdges
 70
     3
 71
     2
 72
     2
 73
     1
 90
        2
 40
-0.6
 41
30.0
 62
     5
 63
     7
 74
     1
 91
        0
 64
     7
 65
   257
 75
     1
175
     1
 42
1.0
 92
        0
 66
   257
 43
1.0
 76
     1
 77
     6
 78
     2
 67
     7
 79
     5
170
     0
171
     0
290
     0
174
     0
 93
       13
 44
0.0
173
     0
291
     1
 45
0.0
1001
ACAD
1000
AcDbSavedByObjectVersion
1070
     0
  0
VISUALSTYLE
  5
31
102
{ACAD_XDICTIONARY
360
3AB
102
}
102
{ACAD_REACTORS
330
29
102
}
330
29
100
AcDbVisualStyle
  2
Hidden
 70
     6
 71
     1
 72
     2
 73
     2
 90
        0
 40
-0.6
 41
-30.0
 62
     5
 63
     7
 74
     2
 91
        2
 64
     7
 65
   257
 75
     2
175
     1
 42
40.0
 92
        0
 66
   257
 43
1.0
 76
     1
 77
     6
 78
     2
 67
     7
 79
     3
170
     0
171
     0
290
     0
174
     0
 93
        1
 44
0.0
173
     0
291
     0
 45
0.0
1001
ACAD
1000
AcDbSavedByObjectVersion
1070
     0
  0
VISUALSTYLE
  5
3F
102
{ACAD_XDICTIONARY
360
3C7
102
}
102
{ACAD_REACTORS
330
29
102
}
330
29
100
AcDbVisualStyle
  2
JitterOff
 70
    20
 71
     2
 72
     2
 73
     0
 90
        0
 40
-0.6
 41
-30.0
 62
     5
 63
     7
 74
     1
 91
        4
 64
     7
 65
   257
 75
     1
175
     1
 42
1.0
 92
       10
 66
     7
 43
1.0
 76
     1
 77
     6
 78
     2
 67
     7
 79
     5
170
     0
171
     0
290
     0
174
     0
 93
        1
 44
0.0
173
     0
291
     1
 45
0.0
1001
ACAD
1000
AcDbSavedByObjectVersion
1070
     0
  0
VISUALSTYLE
  5
37
102
{ACAD_XDICTIONARY
360
3B7
102
}
102
{ACAD_REACTORS
330
29
102
}
330
29
100
AcDbVisualStyle
  2
Linepattern
 70
    14
 71
     2
 72
     2
 73
     0
 90
        0
 40
-0.6
 41
-30.0
 62
     5
 63
     7
 74
     1
 91
        4
 64
     7
 65
   257
 75
     7
175
     7
 42
1.0
 92
        8
 66
     7
 43
1.0
 76
     1
 77
     6
 78
     2
 67
     7
 79
     5
170
     0
171
     0
290
     0
174
     0
 93
        1
 44
0.0
173
     0
291
     1
 45
0.0
1001
ACAD
1000
AcDbSavedByObjectVersion
1070
     0
  0
VISUALSTYLE
  5
40
102
{ACAD_XDICTIONARY
360
3C9
102
}
102
{ACAD_REACTORS
330
29
102
}
330
29
100
AcDbVisualStyle
  2
OverhangOff
 70
    21
 71
     2
 72
     2
 73
     0
 90
        0
 40
-0.6
 41
-30.0
 62
     5
 63
     7
 74
     1
 91
        4
 64
     7
 65
   257
 75
     1
175
     1
 42
1.0
 92
        9
 66
     7
 43
1.0
 76
     1
 77
     6
 78
     2
 67
     7
 79
     5
170
     0
171
     0
290
     0
174
     0
 93
        1
 44
0.0
173
     0
291
     1
 45
0.0
1001
ACAD
1000
AcDbSavedByObjectVersion
1070
     0
  0
VISUALSTYLE
  5
33
102
{ACAD_XDICTIONARY
360
3AF
102
}
102
{ACAD_REACTORS
330
29
102
}
330
29
100
AcDbVisualStyle
  2
Realistic
 70
     8
 71
     2
 72
     2
 73
     0
 90
        2
 40
-0.6
 41
30.0
 62
     5
 63
     7
 74
     0
 91
        0
 64
     7
 65
   257
 75
     1
175
     1
 42
1.0
 92
        8
 66
   257
 43
1.0
 76
     1
 77
     6
 78
     2
 67
     7
 79
     3
170
     0
171
     0
290
     0
174
     0
 93
       13
 44
0.0
173
     0
291
     0
 45
0.0
1001
ACAD
1000
AcDbSavedByObjectVersion
1070
     0
  0
VISUALSTYLE
  5
3E
102
{ACAD_XDICTIONARY
360
3C5
102
}
102
{ACAD_REACTORS
330
29
102
}
330
29
100
AcDbVisualStyle
  2
Shaded
 70
    27
 71
     2
 72
     2
 73
     1
 90
        2
 40
-0.6
 41
30.0
 62
     5
 63
     7
 74
     0
 91
        4
 64
     7
 65
   257
 75
     1
175
     1
 42
1.0
 92
        8
 66
   257
 43
1.0
 76
     1
 77
     6
 78
     2
 67
     8
 79
     3
170
     0
171
     0
290
     0
174
     0
 93
        5
 44
0.0
173
     0
291
     0
 45
0.0
1001
ACAD
1000
AcDbSavedByObjectVersion
1070
     0
  0
VISUALSTYLE
  5
3D
102
{ACAD_XDICTIONARY
360
3C3
102
}
102
{ACAD_REACTORS
330
29
102
}
330
29
100
AcDbVisualStyle
  2
Shaded with edges
 70
    26
 71
     2
 72
     2
 73
     1
 90
        2
 40
-0.6
 41
30.0
 62
     5
 63
     7
 74
     1
 91
       10
 64
     7
 65
   257
 75
     2
175
     1
 42
1.0
 92
        8
 66
   257
 43
1.0
 76
     1
 77
     6
 78
     2
 67
     7
 79
     3
170
     0
171
     0
290
     0
174
     0
 93
        5
 44
0.0
173
     0
291
     0
 45
0.0
1001
ACAD
1000
AcDbSavedByObjectVersion
1070
     0
  0
VISUALSTYLE
  5
3A
102
{ACAD_XDICTIONARY
360
3BD
102
}
102
{ACAD_REACTORS
330
29
102
}
330
29
100
AcDbVisualStyle
  2
Shades of Gray
 70
    23
 71
     2
 72
     2
 73
     3
 90
        0
 40
-0.6
 41
-30.0
 62
     5
 63
     7
 74
     2
 91
        2
 64
     7
 65
     7
 75
     1
175
     1
 42
40.0
 92
        8
 66
     7
 43
1.0
 76
     1
 77
     6
 78
     2
 67
     7
 79
     3
170
     0
171
     0
290
     0
174
     0
 93
        1
 44
0.0
173
     0
291
     0
 45
0.0
1001
ACAD
1000
AcDbSavedByObjectVersion
1070
     0
  0
VISUALSTYLE
  5
3B
102
{ACAD_XDICTIONARY
360
3BF
102
}
102
{ACAD_REACTORS
330
29
102
}
330
29
100
AcDbVisualStyle
  2
Sketchy
 70
    24
 71
     1
 72
     2
 73
     2
 90
        0
 40
-0.6
 41
-30.0
 62
     5
 63
     7
 74
     2
 91
        2
 64
     7
 65
     7
 75
     1
175
     1
 42
40.0
 92
       11
 66
     7
 43
1.0
 76
     1
 77
     6
 78
     2
 67
     7
 79
     6
170
     0
171
     0
290
     0
174
     0
 93
        1
 44
0.0
173
     0
291
     0
 45
0.0
1001
ACAD
1000
AcDbSavedByObjectVersion
1070
     0
  0
VISUALSTYLE
  5
36
102
{ACAD_XDICTIONARY
360
3B5
102
}
102
{ACAD_REACTORS
330
29
102
}
330
29
100
AcDbVisualStyle
  2
Thicken
 70
    13
 71
     2
 72
     2
 73
     0
 90
        0
 40
-0.6
 41
-30.0
 62
     5
 63
     7
 74
     1
 91
        4
 64
     7
 65
   257
 75
     1
175
     1
 42
1.0
 92
       12
 66
     7
 43
1.0
 76
     1
 77
     6
 78
     2
 67
     7
 79
     5
170
     0
171
     0
290
     0
174
     0
 93
        1
 44
0.0
173
     0
291
     1
 45
0.0
1001
ACAD
1000
AcDbSavedByObjectVersion
1070
     0
  0
VISUALSTYLE
  5
30
102
{ACAD_XDICTIONARY
360
3A9
102
}
102
{ACAD_REACTORS
330
29
102
}
330
29
100
AcDbVisualStyle
  2
Wireframe
 70
     5
 71
     0
 72
     2
 73
     0
 90
        0
 40
-0.6
 41
-30.0
 62
     5
 63
     7
 74
     1
 91
        4
 64
     7
 65
   257
 75
     1
175
     1
 42
1.0
 92
        0
 66
   257
 43
1.0
 76
     1
 77
     6
 78
     2
 67
     7
 79
     3
170
     0
171
     0
290
     0
174
     0
 93
        1
 44
0.0
173
     0
291
     0
 45
0.0
1001
ACAD
1000
AcDbSavedByObjectVersion
1070
     0
  0
VISUALSTYLE
  5
3C
102
{ACAD_XDICTIONARY
360
3C1
102
}
102
{ACAD_REACTORS
330
29
102
}
330
29
100
AcDbVisualStyle
  2
X-Ray
 70
    25
 71
     2
 72
     2
 73
     1
 90
        1
 40
0.5
 41
-30.0
 62
     5
 63
     7
 74
     1
 91
        0
 64
     7
 65
   257
 75
     1
175
     1
 42
1.0
 92
        8
 66
     7
 43
1.0
 76
     1
 77
     6
 78
     2
 67
     7
 79
     3
170
     0
171
     0
290
     0
174
     0
 93
       13
 44
0.0
173
     0
291
     0
 45
0.0
1001
ACAD
1000
AcDbSavedByObjectVersion
1070
     0
  0
DICTIONARYVAR
  5
79
102
{ACAD_REACTORS
330
76
102
}
330
76
100
DictionaryVariables
280
     0
  1
1:1
  0
DICTIONARYVAR
  5
78
102
{ACAD_REACTORS
330
76
102
}
330
76
100
DictionaryVariables
280
     0
  1
STANDARD
  0
DICTIONARYVAR
  5
77
102
{ACAD_REACTORS
330
76
102
}
330
76
100
DictionaryVariables
280
     0
  1
STANDARD
  0
DICTIONARYVAR
  5
38B
102
{ACAD_REACTORS
330
76
102
}
330
76
100
DictionaryVariables
280
     0
  1
1
  0
DICTIONARYVAR
  5
38A
102
{ACAD_REACTORS
330
76
102
}
330
76
100
DictionaryVariables
280
     0
  1
1
  0
DICTIONARYVAR
  5
389
102
{ACAD_REACTORS
330
76
102
}
330
76
100
DictionaryVariables
280
     0
  1
0
  0
DICTIONARYVAR
  5
386
102
{ACAD_REACTORS
330
76
102
}
330
76
100
DictionaryVariables
280
     0
  1
0
  0
DICTIONARYVAR
  5
387
102
{ACAD_REACTORS
330
76
102
}
330
76
100
DictionaryVariables
280
     0
  1
0
  0
DICTIONARYVAR
  5
385
102
{ACAD_REACTORS
330
76
102
}
330
76
100
DictionaryVariables
280
     0
  1
2
  0
DICTIONARYVAR
  5
384
102
{ACAD_REACTORS
330
76
102
}
330
76
100
DictionaryVariables
280
     0
  1
1
  0
DICTIONARYVAR
  5
388
102
{ACAD_REACTORS
330
76
102
}
330
76
100
DictionaryVariables
280
     0
  1
127
  0
DICTIONARYVAR
  5
393
102
{ACAD_REACTORS
330
76
102
}
330
76
100
DictionaryVariables
280
     0
  1
2
  0
DICTIONARY
  5
3CE
330
6B
100
AcDbDictionary
280
     1
281
     1
  3
ACAD_XREC_ROUNDTRIP
360
3CF
  0
DICTIONARY
  5
3D2
330
73
100
AcDbDictionary
280
     1
281
     1
  3
ACAD_XREC_ROUNDTRIP
360
3D3
  0
DICTIONARY
  5
3D0
330
6F
100
AcDbDictionary
280
     1
281
     1
  3
ACAD_XREC_ROUNDTRIP
360
3D1
  0
DICTIONARY
  5
1A
330
19
100
AcDbDictionary
280
     1
281
     1
  3
ACAD_XREC_ROUNDTRIP
360
39B
  3
BUMPTILE
360
1C
  3
DIFFUSETILE
360
1B
  3
OPACITYTILE
360
1F
  3
REFLECTIONTILE
360
1E
  3
REFRACTIONTILE
360
20
  3
SPECULARTILE
360
1D
  0
DICTIONARY
  5
12
330
11
100
AcDbDictionary
280
     1
281
     1
  3
ACAD_XREC_ROUNDTRIP
360
39A
  3
BUMPTILE
360
14
  3
DIFFUSETILE
360
13
  3
FBXASSET
360
F9
  3
OPACITYTILE
360
17
  3
REFLECTIONTILE
360
16
  3
REFRACTIONTILE
360
18
  3
SPECULARTILE
360
15
  0
DICTIONARY
  5
22
330
21
100
AcDbDictionary
280
     1
281
     1
  3
ACAD_XREC_ROUNDTRIP
360
39C
  3
BUMPTILE
360
24
  3
DIFFUSETILE
360
23
  3
FBXASSET
360
BA
  3
OPACITYTILE
360
27
  3
REFLECTIONTILE
360
26
  3
REFRACTIONTILE
360
28
  3
SPECULARTILE
360
25
  0
DICTIONARY
  5
396
330
67
100
AcDbDictionary
280
     1
281
     1
  3
ACAD_XREC_ROUNDTRIP
360
397
  0
DICTIONARY
  5
341
330
65
100
AcDbDictionary
280
     1
281
     1
  3
ACAD_ROUNDTRIP_2008_TABLESTYLE_CELLSTYLEMAP
360
395
  3
ACAD_XREC_ROUNDTRIP
360
3CD
  0
DICTIONARY
  5
3A7
330
2F
100
AcDbDictionary
280
     1
281
     1
  3
ACAD_XREC_ROUNDTRIP
360
3A8
  0
DICTIONARY
  5
3A5
330
2E
100
AcDbDictionary
280
     1
281
     1
  3
ACAD_XREC_ROUNDTRIP
360
3A6
  0
DICTIONARY
  5
3B3
330
35
100
AcDbDictionary
280
     1
281
     1
  3
ACAD_XREC_ROUNDTRIP
360
3B4
  0
DICTIONARY
  5
3BB
330
39
100
AcDbDictionary
280
     1
281
     1
  3
ACAD_XREC_ROUNDTRIP
360
3BC
  0
DICTIONARY
  5
3AD
330
32
100
AcDbDictionary
280
     1
281
     1
  3
ACAD_XREC_ROUNDTRIP
360
3AE
  0
DICTIONARY
  5
3B1
330
34
100
AcDbDictionary
280
     1
281
     1
  3
ACAD_XREC_ROUNDTRIP
360
3B2
  0
DICTIONARY
  5
3CB
330
41
100
AcDbDictionary
280
     1
281
     1
  3
ACAD_XREC_ROUNDTRIP
360
3CC
  0
DICTIONARY
  5
3B9
330
38
100
AcDbDictionary
280
     1
281
     1
  3
ACAD_XREC_ROUNDTRIP
360
3BA
  0
DICTIONARY
  5
39D
330
2A
100
AcDbDictionary
280
     1
281
     1
  3
ACAD_XREC_ROUNDTRIP
360
39E
  0
DICTIONARY
  5
39F
330
2B
100
AcDbDictionary
280
     1
281
     1
  3
ACAD_XREC_ROUNDTRIP
360
3A0
  0
DICTIONARY
  5
3A1
330
2C
100
AcDbDictionary
280
     1
281
     1
  3
ACAD_XREC_ROUNDTRIP
360
3A2
  0
DICTIONARY
  5
3A3
330
2D
100
AcDbDictionary
280
     1
281
     1
  3
ACAD_XREC_ROUNDTRIP
360
3A4
  0
DICTIONARY
  5
3AB
330
31
100
AcDbDictionary
280
     1
281
     1
  3
ACAD_XREC_ROUNDTRIP
360
3AC
  0
DICTIONARY
  5
3C7
330
3F
100
AcDbDictionary
280
     1
281
     1
  3
ACAD_XREC_ROUNDTRIP
360
3C8
  0
DICTIONARY
  5
3B7
330
37
100
AcDbDictionary
280
     1
281
     1
  3
ACAD_XREC_ROUNDTRIP
360
3B8
  0
DICTIONARY
  5
3C9
330
40
100
AcDbDictionary
280
     1
281
     1
  3
ACAD_XREC_ROUNDTRIP
360
3CA
  0
DICTIONARY
  5
3AF
330
33
100
AcDbDictionary
280
     1
281
     1
  3
ACAD_XREC_ROUNDTRIP
360
3B0
  0
DICTIONARY
  5
3C5
330
3E
100
AcDbDictionary
280
     1
281
     1
  3
ACAD_XREC_ROUNDTRIP
360
3C6
  0
DICTIONARY
  5
3C3
330
3D
100
AcDbDictionary
280
     1
281
     1
  3
ACAD_XREC_ROUNDTRIP
360
3C4
  0
DICTIONARY
  5
3BD
330
3A
100
AcDbDictionary
280
     1
281
     1
  3
ACAD_XREC_ROUNDTRIP
360
3BE
  0
DICTIONARY
  5
3BF
330
3B
100
AcDbDictionary
280
     1
281
     1
  3
ACAD_XREC_ROUNDTRIP
360
3C0
  0
DICTIONARY
  5
3B5
330
36
100
AcDbDictionary
280
     1
281
     1
  3
ACAD_XREC_ROUNDTRIP
360
3B6
  0
DICTIONARY
  5
3A9
330
30
100
AcDbDictionary
280
     1
281
     1
  3
ACAD_XREC_ROUNDTRIP
360
3AA
  0
DICTIONARY
  5
3C1
330
3C
100
AcDbDictionary
280
     1
281
     1
  3
ACAD_XREC_ROUNDTRIP
360
3C2
  0
XRECORD
  5
3CF
102
{ACAD_REACTORS
330
3CE
102
}
330
3CE
100
AcDbXrecord
280
     1
102
SHADEPLOT
 70
     0
102
SHADEPLOTRESLEVEL
 70
     2
102
SHADEPLOTCUSTOMDPI
 70
   300
  0
XRECORD
  5
3D3
102
{ACAD_REACTORS
330
3D2
102
}
330
3D2
100
AcDbXrecord
280
     1
102
SHADEPLOT
 70
     0
102
SHADEPLOTRESLEVEL
 70
     2
102
SHADEPLOTCUSTOMDPI
 70
   300
  0
XRECORD
  5
3D1
102
{ACAD_REACTORS
330
3D0
102
}
330
3D0
100
AcDbXrecord
280
     1
102
SHADEPLOT
 70
     0
102
SHADEPLOTRESLEVEL
 70
     2
102
SHADEPLOTCUSTOMDPI
 70
   300
  0
XRECORD
  5
39B
102
{ACAD_REACTORS
330
1A
102
}
330
1A
100
AcDbXrecord
280
     1
102
MATERIAL
148
0.0
149
0.0
149
0.0
 93
        0
 94
      127
282
     0
 72
     0
 77
     0
171
     0
175
     0
179
     0
273
     0
  0
XRECORD
  5
1C
102
{ACAD_REACTORS
330
1A
102
}
330
1A
100
AcDbXrecord
280
     1
270
     1
271
     1
  0
XRECORD
  5
1B
102
{ACAD_REACTORS
330
1A
102
}
330
1A
100
AcDbXrecord
280
     1
270
     1
271
     1
  0
XRECORD
  5
1F
102
{ACAD_REACTORS
330
1A
102
}
330
1A
100
AcDbXrecord
280
     1
270
     1
271
     1
  0
XRECORD
  5
1E
102
{ACAD_REACTORS
330
1A
102
}
330
1A
100
AcDbXrecord
280
     1
270
     1
271
     1
  0
XRECORD
  5
20
102
{ACAD_REACTORS
330
1A
102
}
330
1A
100
AcDbXrecord
280
     1
270
     1
271
     1
  0
XRECORD
  5
1D
102
{ACAD_REACTORS
330
1A
102
}
330
1A
100
AcDbXrecord
280
     1
270
     1
271
     1
  0
XRECORD
  5
39A
102
{ACAD_REACTORS
330
12
102
}
330
12
100
AcDbXrecord
280
     1
102
MATERIAL
148
0.0
149
0.0
149
0.0
 93
        0
 94
      127
282
     0
 72
     0
 77
     0
171
     0
175
     0
179
     0
273
     0
  0
XRECORD
  5
14
102
{ACAD_REACTORS
330
12
102
}
330
12
100
AcDbXrecord
280
     1
270
     1
271
     1
  0
XRECORD
  5
13
102
{ACAD_REACTORS
330
12
102
}
330
12
100
AcDbXrecord
280
     1
270
     1
271
     1
  0
XRECORD
  5
F9
102
{ACAD_REACTORS
330
12
102
}
330
12
100
AcDbXrecord
280
     1
 70
     1
 90
1959938040
 71
     1
  1
01FBF96B-DF68-40DC-B7DE-8D99108DC7D4
311
504B03040A0000080000E96C94403DEE336E79000000790000001B0000006175746F6465736B2D64657369676E2D7061636B6167652E786D6C3C3F786D6C2076657273696F6E3D22312E302220656E636F64696E673D227574662D3822203F3E3C666F726D6174733E3C666F726D61743E687474703A2F2F736368656D612E
311
6175746F6465736B2E636F6D2F64657369676E2D7061636B6167652F323030393C2F666F726D61743E3C2F666F726D6174733E504B0304140006080800E96C9440D486FD9CA0000000F4000000130000005B436F6E74656E745F54797065735D2E786D6C7D8EC10E82300C865F65E91D8A1E8C310C0EEA1BF002731658846E
311
D98AC1B77784ABF1D8FE5FBFBF75BBCE937A534CCEB38643598122B6FEE978D0B0485F9C41B54DDD7D022595594E1A469170414C76A4D9A4D207E29CF43ECE46F218070CC6BECC4078ACAA135ACF422C856C0E68EA1BF5669944DDD7BCDE7B1F8E415D77AECB980613C2E4AC91FC167A2B244592486606FC29C8FD7F045B9A
311
EF7053A7E60B504B0304140006080800E96C9440DC4CC7C9EA0000007C01000008000000636F72652E786D6C8D904D6EC3201085AF82668F0DD88E8885899C9F9EA01740983828315806AA1EBF3871A476D7D58CDEBC6F66F4C4E17B7AA02FB304EB5D07B420808CD37EB06EEC20C52BE6800E522CDEC75F36404E4DA68355
311
0629C6C5A77993B477D1B89855E707B3892A041301E9476E3A08FA662655A814B323DC8B59E9BB1A4D41DF5D8653B2037A1DB143DE67AFD62C202FBBA621FC83E1BE663DAECFFB233EF28AE253DF5076DEF535BF9C44B9C252443BBDEFEBC5A86806908C5086498D19F9A4555BED5BCA31E12D21A25CED7FA0340FFF849275
311
B162DBBB2F2C80A4F991E7408A72CD22976750B9AEB9C91F504B0304140006080800E96C944055019EA25F0000007C00000007000000636E782E786D6C4DCB3B0E80201045D1AD90E915ED2CF8AC45050C11660C8261F98AB1B07AC9C97D42D718D865D3E909258CFD00CCE24AC6E326A164D74DC0B4128928FF326038472B
311
A13128B1252AC747C6BAB984FC68F0B87FE8960A5C09FE86CFB69FBA01504B0304140006080800E96C9440237D334267010000020300000C0000006662782F636F72652E786D6C8D52ED8E8320107C15C27F043FDAD80669ECC73DC1BD0055EA992A1804D3C7BFF5A3E9F5D2348D0992999DDDD951BEBBB50D1A94ED6BA333
311
1C060C23A50B53D6BACAB077179262B413DC1AE3FE9461A465AB323CC258F0CA1ADF2D5061B453DA01AA4DA91650F6BD7218150D5C32DC173FAA9581F40E2AFA6BD0C9E22A2B158401D0502778EF2C1840F390F1C4E272BE713AE3827B5F970B5B9730ADBED4CA62715AAF562CFD8A489E4439498E9B3DD9A771480EF92A8C
311
8EEB3C494F074E47B1E0AE6EEFEE0AABA4532516110B23C21212B1EF30DEC69B6D9812966E19E3742C7F12F9AEFC50E46BEDE268B13BCB7A2C42303211FFB685881CEAE5007EA8E0740C115E53C2CF41432010B293E7E6BEC715A04115CED80498D2F80735C8C62B98CAD0F4703AB3D0796A009BBDEC13BDE9F3BE077C40A9
311
2BB0261D5CCFDE8DD3F93C7589A253960CEE86B4B1AD6C1EE6668B8FF331E8A5BC308DB19FA8E9B22A5DC2A4E3DF2B7E01504B0304140006080800E96C944022BE60007E0000009D0000000B0000006662782F636E782E786D6C4DCCD10E82201886E15B61FF394948821BE0B4F23E5CA263223482D6E5A7CD838EBEEDD9B7
311
57369FD5A1B7892F1BBC82F3890032FE1146EB6705394D58006AB48C21A4BF1B203FAC46C1CEA0E51C437E1E349A69C82E6DEAAC5F0EA4752588E81826FCC2316357863BCA5B4CFBF656DE495FD5AC8442CBE257DA760FEB2F504B0304140006080800E96C94406850EC6F2C01000014020000310000006662782F32393638
311
303842342D303735372D343443342D423237412D3246414433453046363934332F636F72652E786D6C8D51CB6EC23010FC15CB277A7062272624C83182B67C417F2024062C881DF951F1F95D37416A6F5CBCD6ECCCEC6857EC1EE31D7D2BE7B5352D6619C54899DE0EDA5C5A1CC399D418EDA470D6863F348C4C37AA162718
311
4B7171364E0BD45B139409801A3BA805ECBC5701A3FE0E9F16FBFEAAC62EEB620086BF6553D7DFBA8BCA58066DE049E1838300681E925E2C8BA6AA697DE0846ED61BC2F93B278762B327C571FF517ED263D5F052E4B3508A18F5B0C8F50071F4592BF7AA49124B11F4F88CDF3BD50535809EB282504E0AFAC5CA6DD96C594D
311
68BDA554E489FE4F14A7E14551D42694C5127796792C99C8E78614838DA7FB338C7A4CD60594E6ADBCEADFB0A419A55555F1662DF2990A0B00CF8A2F9E3E58070B5EDD4EC066C04AC61597224F3782F27B40A8E99EF207504B0304140006080800E96C944036126FF64D01000033030000300000006662782F323936383038
311
42342D303735372D343443342D423237412D3246414433453046363934332F636E782E786D6CD593BD6E032110845F05D1DFAF4F966371584A912748919683B54DCCC1899F287EFB2C3676DCB84899069D668799D5278EEDBE6743BEC007EDEC48BBBAA504AC744ADBC34853DC571B4A769C79E7E2838D122B661869962967
311
07EFD25224057B914C44D5687B2AA287E092971050CE37897152180C005B2514619E402950E46EC4AF3D785C05C5E94CE211C8DBEB0771D327C818589353386B720767F92C4D0F264AA411218C34C823CCA216293A05E1542B1145DDD5B7AE273BFD26917CE15699BC26B97CA4F9A4BC6C542347D6E090B3103DD22BA6785E
311
8072B12C464B11117273315E3D9C256DE37A285E8DE03DBABBF56A1830EC32E32CEA198A437A101114E57DDBF5553B547DFBDEADB6AB976DB7A9DACDB66D5993ED9C4DCE99720963C0BB85486723D84879C79A3C7E86AFF888D21E593B7FFE034804505AAF74EE19FF994F7379DF88CBE35FC07F00504B0304140006080800
311
E96C9440941F8E9FA405000081100000340000006662782F32393638303842342D303735372D343443342D423237412D3246414433453046363934332F6F626A656374732E786D6CAD575B8FDA3814FE2B51F665F7814B804E6195493540A9503B6D55D46A1F9090499C8C779C8B6C67CAECAFDFCFB113120A5376D5975C7C
311
393EE73BDFB9D87F7348B9F34485647976EB7AFDA1EBD02CCC239625B76EA9E2DED475DE04BEC873D55AE63A1949E9ADAB87DDC04F445E167628A23129B93A195DCDFF72644833EA3A212752DEBA327CA029E99352E511958FFD8828D24FE243DFEB9B855DB18920C5C389D082089A29688AF10C521CA394D7FD1DBA83C01F
311
E8F9C0D74FBB6A7C79D5A0B2A77B3ECBA42259F8C3612762C6DE64F976F46AD67B35998C7B939B91D79BAFE6CB9EF77A3C5CDC2C16B3BBB7331C2C958024AB89A0B11BBC03368285FEC04C057EC932351ED925D64103419F98F6941B8C1CCF1F98358D75D6C873EA877996D1B0C20A6854F659D1112D6816C1E78C4A68D642
311
68D8FDF5348EADE9B1FEB747B687AF43A0BDA325A8D6BD7EB735CDF77FC304790D8384A49A81064B6BA8E1EAF088F03ECFB99D63D24989A28211EE70B617443CBB0196EA2581DF11A3992C7434680BDC005E30D35DBA208C7ECEF3735AC625E79AC66E5045C10EB14295AC3463FF5071D4BE8D0C7482AF341BA6D620F55C50
311
3798198A4C4FD8648074624E12B81C66EA9DE3D189A10B1DA7EBA51BBC5FED0F1B1DBBE70F2F445E50A1347D40ADDA71F55BA36475F2AEF29CDEE09EA87204E50B90FF88503FAA02BF0976981C26F614254826E35CA4F08D33747A433C868E573DF577EBCB1F349BBBDEBB84279CADA1FA0578766D68FBB20567E03F81F0B9
311
185BD33621E1481BF72C03409A240ECF31843C1CEF0F6EB046964356C62EC2030F2643DD277CFA032B0689A23AA9F5CE80E5495ABC224103B68A9150C390DF2A78F4D30FE9AC3AD82EBB04EFAB5F42D7BBE5E6FDA6143109E9BD8DE9258D59C6144ADC91376D853A98772C7AA4CFDF7311C1D01FF1DEB4F14EED5112686BCC
311
35F0499DD3F5CFF1E4CE0121F625B94E37FE4F4E8011BAB0B6E4DF331952CE4946F3B23EF7C5FA81B26120D6C1AE99DC149863610169CCCC490CA2488782151AC4A65A3549B37FC1BAAFEB8F60A41BCC9F3F90E776F6DA1F736F98F35CECF6CF3B9396CE42FDADCB6D8BC1404B01DDAB20A9E3DF82BE8B581C971249F00CAE
311
DFD68BB6EF745A408AA8A59A6899C07E04171196B4B55C546B415049F36CC750371177670F68CB07A4960195C04B1A4BCAE31DE3BC4C7731E3A846BB941417E0F8FFFAEFCBB4D891342F3375417647755487AEEE1DF6CAEF44850F6EB0A9DEBD39726F44A30B64D0B5E40C561DD70EBDD57C35BB99F796AB9B696F325C2E7A
311
F3D7CBB7BDE97236F386D3E5E2F57252FBC96812F875A9694734BC84D2E6978259F77D5D237E6C1270837BA2E4F69D09CFFAFD75DD472FEC0FB007F5B2D978173DA1EFA3D1CF051C579E15B44E0B4E539A29A263E85E7FF02F047D46471933BE4E4942AF90F2E9DDE6C4188C5CB1EFB38E77FAFD64AF1D5DE8803C2B443D94
311
E93E238C9F6C4C0C92FD224B2C7EB54F9AB72934F5AFFEB38E41672A73CE22E4C1C849689E52856C784511122995A05EBBA78FECDDE38ADD4FA6435464CF69ADC9034193CC25C202D42A43D51D777E4353A7FBAA5B17E5B6FF8887CD14AE03CEDCBA68D2150BA9ECEF51A0752B54090797DA9D3C1A7F92251CBDB6D9D4FC37
311
BB34369D92DC2CB9A67FB27699146E0D401A29D037A02182772A6502BFD2CDCE87FFC9F05A1D87287CEE4BD5D8721C688CA98E41881AA3EC6D014DCCA33DFA80407DD92CAF5FADE92072D52DEB451218A93D454452DD14B47E56A5BBE5E7013A1467FDC9297899C097D74BEA090A32973AC0C122B0C2CA2C880255177F6E3F
311
8B1C37D9D4593150C0F9FD30BDF963BBC8D334CFCCD0F6CEDE879DCD036EB7D116C981EA6B89DC8E86DE685B5D07EC0D65B72792F649241F3100CF0AD600DD713F7869EE8CA84366A25937D0AE3861E87AE9D8C2864C5BAF6FE7560D0E1A8F8C3A88217DA5D411D35E50BC782318544BA182402F1FFC0B504B030414000608
311
0000E96C9440000000000000000000000000350000006662782F32393638303842342D303735372D343443342D423237412D3246414433453046363934332F76657274696365732E62696E504B0304140006080800E96C9440F270F1330600000004000000360000006662782F32393638303842342D303735372D34344334
311
2D423237412D3246414433453046363934332F747269616E676C65732E62696E636660600000504B0304140006080000E96C9440000000000000000000000000370000006662782F32393638303842342D303735372D343443342D423237412D3246414433453046363934332F617474726962757465732E62696E504B0304
311
140006080800E96C9440D5987DFC8F00000041010000360000006662782F32393638303842342D303735372D343443342D423237412D3246414433453046363934332F6469726563746F72792E786D6C858F410EC2201045AF4266AF15DDB800BA74E7C21B903225242D6328188F2FA5C4183471359997F9FF81E89FF3C41E
311
1816475E02DF1F80A11FC8386F25A438EECEC07A250251FC3803E6F58C12560C4AD840E95E91C151A72936F496F35732D860FE635F62C8F2DA16B505C545B74125BAA2FA9E05D7CC053D063734D5C7665FD55B6B8D15D5E9BFEAFD8490FFA45E504B0304140006080800E96C9440B4A69AF8FC000000A00100003B00000066
311
62782F32393638303842342D303735372D343443342D423237412D3246414433453046363934332F7265736F75726365732F636F72652E786D6C8D50596E833010BD0A9A7F83CD1211641C91A527E8052C33A156828DBC543D7E4DA052FBD79F99D15B344F8F9FBEE667F689CE6B6B7A6039850C8DB2A336530F31DC490BD9
311
4970676DF82583CCC8197B5861107C72362E3BA4AC096842428D1D7107A5F7182053CF74F4E0D507CE32973124857FE48B540F3961CEF244279DE03EB81420DB9EAC1384436FA353E879B1B182C7A8C75DA3C7F453DF353A10B743D3D0F68D91A12E07525F8F67726E2B462E43C3CAEB61A8DBDB8517AB59F0A0E79F8CCAA1
311
0C388228292B09AD4949DF59D555C78EB584B61DA5BC58E57F4C7119FF698ADA84AADCE36E360F82A5202F42F062ED2BAD579969AFDD8A6F504B010214000A0000080000E96C94403DEE336E79000000790000001B00000000000000000000000000000000006175746F6465736B2D64657369676E2D7061636B6167652E78
311
6D6C504B01021400140006080800E96C9440D486FD9CA0000000F40000001300000000000000000000000000B20000005B436F6E74656E745F54797065735D2E786D6C504B01021400140006080800E96C9440DC4CC7C9EA0000007C010000080000000000000000000000000083010000636F72652E786D6C504B01021400
311
140006080800E96C944055019EA25F0000007C000000070000000000000000000000000093020000636E782E786D6C504B01021400140006080800E96C9440237D334267010000020300000C00000000000000000000000000170300006662782F636F72652E786D6C504B01021400140006080800E96C944022BE60007E00
311
00009D0000000B00000000000000000000000000A80400006662782F636E782E786D6C504B01021400140006080800E96C94406850EC6F2C0100001402000031000000000000000000000000004F0500006662782F32393638303842342D303735372D343443342D423237412D3246414433453046363934332F636F72652E
311
786D6C504B01021400140006080800E96C944036126FF64D010000330300003000000000000000000000000000CA0600006662782F32393638303842342D303735372D343443342D423237412D3246414433453046363934332F636E782E786D6C504B01021400140006080800E96C9440941F8E9FA4050000811000003400
311
000000000000000000000000650800006662782F32393638303842342D303735372D343443342D423237412D3246414433453046363934332F6F626A656374732E786D6C504B01021400140006080000E96C944000000000000000000000000035000000000000000000000000005B0E00006662782F32393638303842342D
311
303735372D343443342D423237412D3246414433453046363934332F76657274696365732E62696E504B01021400140006080800E96C9440F270F13306000000040000003600000000000000000000000000AE0E00006662782F32393638303842342D303735372D343443342D423237412D3246414433453046363934332F
311
747269616E676C65732E62696E504B01021400140006080000E96C94400000000000000000000000003700000000000000000000000000080F00006662782F32393638303842342D303735372D343443342D423237412D3246414433453046363934332F617474726962757465732E62696E504B01021400140006080800E9
311
6C9440D5987DFC8F0000004101000036000000000000000000000000005D0F00006662782F32393638303842342D303735372D343443342D423237412D3246414433453046363934332F6469726563746F72792E786D6C504B01021400140006080800E96C9440B4A69AF8FC000000A00100003B0000000000000000000000
311
0000401000006662782F32393638303842342D303735372D343443342D423237412D3246414433453046363934332F7265736F75726365732F636F72652E786D6C504B0506000000000E000E0080040000951100000000
310
504B03040A0000080000E96C94403DEE336E79000000790000001B0000006175746F6465736B2D64657369676E2D7061636B6167652E786D6C3C3F786D6C2076657273696F6E3D22312E302220656E636F64696E673D227574662D3822203F3E3C666F726D6174733E3C666F726D61743E687474703A2F2F736368656D612E
310
6175746F6465736B2E636F6D2F64657369676E2D7061636B6167652F323030393C2F666F726D61743E3C2F666F726D6174733E504B0304140006080800E96C9440D486FD9CA0000000F4000000130000005B436F6E74656E745F54797065735D2E786D6C7D8EC10E82300C865F65E91D8A1E8C310C0EEA1BF002731658846E
310
D98AC1B77784ABF1D8FE5FBFBF75BBCE937A534CCEB38643598122B6FEE978D0B0485F9C41B54DDD7D022595594E1A469170414C76A4D9A4D207E29CF43ECE46F218070CC6BECC4078ACAA135ACF422C856C0E68EA1BF5669944DDD7BCDE7B1F8E415D77AECB980613C2E4AC91FC167A2B244592486606FC29C8FD7F045B9A
310
EF7053A7E60B504B0304140006080800E96C94402B0EF338EA0000007C01000008000000636F72652E786D6C8D904D6EC3201085AF82668FCD4FEAD8162652DDF404BD0002E2A2C46019A87AFCE2C491DA5D57337AF3BE99D113A7EFF986BEEC1A5DF003D08A00B25E07E3FC34404E17DC023A49B186907ED9007935DB0136
310
19A498D690975DD2C127EB53517D307617558C3601D2B7D20C10F5A79D55A5722A8E78AD16A5AF6AB2157D7605CED919F438E24CD9E72ECEAE20DFDEC9D88D4D871BC6293E9C8F67FC3A8E1CBF9063C349D7313672516FB014C9CDCFFB7AB52A59039211CA303960463E28EF79D7D31693B62744D49BFD0F9417F34F283B9F
310
38DBDF7D6011242D8FDC0752D45B16A5DC832A75CB4DFE00504B0304140006080800E96C944055019EA25F0000007C00000007000000636E782E786D6C4DCB3B0E80201045D1AD90E915ED2CF8AC45050C11660C8261F98AB1B07AC9C97D42D718D865D3E909258CFD00CCE24AC6E326A164D74DC0B4128928FF326038472B
310
A13128B1252AC747C6BAB984FC68F0B87FE8960A5C09FE86CFB69FBA01504B0304140006080800E96C94401EF2BB7E66010000020300000C0000006662782F636F72652E786D6C8D52ED8E8320107C15C27F04B5D7D60669725EEF09EE05A8528F54C120983EFEAD1F8DD74BD35C4C90CCECECCE8EF2E3AD6DD0A05CAFADC9
310
711C318C94296DA54D9DE3E02F648FD1517067ADFF55869191ADCAF10863C16B6743B740A5355E190FA8B1955A40D9F7CA63543670C9715F7EAB56463278A8E8AF5127CBABAC55144740439DE0BD776000CD43C6138BCBF9C6E98C0B1E82AE165657304D5FB472587C7CB2222BB619D926694C36A7DD89BC17454ADED86E9B
310
B22C4B9222E574140BEE757B77573A25BDAAB048589C10B62109FB8AD3439A1DE23D61FB03639C8EE50FA2D055FF14056D7C9A2C7667598F450C4626E2CFB6109147BD1CC00F159C8E21C26B4AF83168080442F6F2DCDCF7B80234A8D25BB701A6B261A506D9040553199A1E4E67163A4F0D60B3A77D92177D5EF7800F284D
310
0DD6A487EB39F8713A9FA72E5174CA91C1DF90B1AE95CD6A6EB6B89EEBA0A7F2D236D6FD474D9755E912261DFF5EF103504B0304140006080800E96C94402CBE78707E0000009D0000000B0000006662782F636E782E786D6C4DCC4B0E83201485E1AD903BA73EA2F60E00E3B52CC45434A4080D85A6CBAF360E3A3AC99793
310
5FF49FCDB1B7892F1BBC84EA520233FE1E66EB5709392D1C81F54AC410D2DF0D989F3623E16050628D213F4F9ACD3265977675D63F4EAC91483738F0BAD5C41B1A468ED752736AB1EA1069ECAA1B144A14BFD2BE47587D01504B0304140006080800E96C9440F54527D82B01000015020000310000006662782F3238424245
310
3438412D323545422D344241432D383730452D4235383136383842433631442F636F72652E786D6C8D51CB6E833010FC15E4537A30D840881B194721CD1FF4070876A89560233FAA7C7ED78548ED2D17AF353B333BDAE587C774CFBE95F3DA9A16D19CA04C99C14A6DC616C570C50C6507C19DB5E10F0D65A69F548B128C04
310
1F9D8DF30A0DD6046502A0C64AB582BDF72AA06CB8C3A7457EF852539FF73100C3DFF2B91F6EFDA8729A431B7882FBE02040B60C492F1225EBBA73CD8EB8DC9E3B5C77C713663B72C6DD96D186B1EED4D00F5E2C42C163D472956B0971F4552BF7AA49120B1EF4F48C3F38D50725414F6889498D4BF249AB7DF5BEA70C13B6
310
27841789FE4F1467F9A2286A13AA728DBBC83C1294174B437069E3E5FE0CA31EB375214BF3365E0D6F48909C9066B7AB0803CDC2850D806953AFA63E58071BDEDC2E40AF80959C9B5AF0221D09CAEF05A1A6838A1F504B0304140006080800E96C944050B5A0E15401000033030000300000006662782F3238424245343841
310
2D323545422D344241432D383730452D4235383136383842433631442F636E782E786D6CBD93CD6EC32010845F0571F7BF15B91126520F7D821E7AC5B049696CB0F8A99AB7EF929034971C2A55BD206B7698597DC26CF7B5CCE4139CD7D68CB4296B4AC048ABB4398C34867D3150B2E3CC591BEE6C9418B1C048934C393B38
310
1BD72C29D88B380754676D8E5974E06D74123CCAE92699AD1433068029228AB04CA014287233E2D71E1CAE82E27422E11DC8CBF31BB1D307C8E059955238AB520767E9CC4D77264AE42CBC1FA997EFB08852C46015F863A9441065535EBB1EECF49344D2856B65749AA4F291A693F2BC51891C598543CE7C70482F9BC26905
310
CAC5BACE5A8A8090ABB3F1E2E12C6A13367DF66A04EFD0DDB59B61C0B0F38CB3A017C80EE940045094B775D316755FB4F56BD36DBBA76D3314F5B0AD6B56253B6793B573BE8431E0EC4AA435014CA0BC61551A3FC2977D446987ACAD3BFD022402C8AD173AB78CBFE4D36CBABEFF473ED5F97D232E877F01FF06504B030414
310
0006080800E96C9440ECDE838D640700009A1B0000340000006662782F32384242453438412D323545422D344241432D383730452D4235383136383842433631442F6F626A656374732E786D6CED59DD739B3810FF5718EEE5EEC1D8C44E9ADC103A89DD743CBDB49DFADAB907CF3032C84417211849A4F1FDF5B7FA000331
310
09BEE6DEFA6003425AEDFEF6534BF0F631A3CE03E682E4ECD2F5BD89EB6016E70961E9A55BCAEDE8DC75DE8601CF73D998E63A0C65F8D255C36E18A43C2F0B3B94E02D2AA9EC8CDE5CFFE5881833EC3A3145425CBA22BEC319F25029F3048B7B2F411279E9F6D1F33D33B14D36E5A8B8EB102D10C74C02A730CE808A6398F2
310
DB8F13771C0663F53E0CD4BF9D351D346BD63F6BACA56E7349989088C54F58EA90990E6269EACF16EF4E4E2F46A7B3D974343B3BF147D737D78B91FF663A999FCDE71757EF2E80BD4D9E532B53820BCC12D0DFCE0DFD60ACDED4A25B040E711DE78CE15803095069B1BA040916B05503BE49FBD15712355E6B091BCF33F5DE
310
B2D0189EB6A9F4CD1A06448B2E0862B7AB24AEAE4DF9F2CDDF20B81862945C6009DC0AC941BB161E0E5EE18693606C46C360B3D705114E8624E6045187920D471C940253D59430300B2C19E51C1C48394A02AD39F3BA6D5BE0992FBBCE212EB725A5CA33DC503B5604EE87A5D09C917F30DF73DF44067802694BC2E4B9E552
310
EE0AEC8617C1580F8681BA4C4FEC4B03A4B3A528151A11F3B623E85CB9FE72E1861F6E368F2B150E0E6F5EF0BCC05C2AA3537AD47C8121DBAB42C96EEB0FD29C5A00C21850EDCA3D285F00F98F103DF6AC80DE38799C3DCEEC5CC91113DB9C67A01B67E28C26F037717CFDAFEE1B77C1B85EDCD65E1F9EE0A60AAAF31FC7B3
310
2D83C6CAF2DF80330C1EC0E0733EB5AF5631A260CFB7840140CA481C9AC31084F6EDE6D10D97103821D0C32A44431F4406761FE036185B327BAD54EE65BD8E01A2768FE91025016CDA22818D1E3DBD87ECC149BC575353C43E784F5FC55CAF16AB0FAB926F518C6FAD4F2FF0963022216B1E66A885794BA27BBCFB9EF30404
310
7D8AF7AA897766B71280B6C25C019F5620A887FDCEAD0D625897E62ADC042FEC0042A85CDDA07F4B448C29450CE765B56F1DDD94A1D61E6F6B06373C31104F4F3A26CCF10351550538CD7E468B51C8FB31278502D10DDF1BC9EAA0E9F548F775F9112CB29EDF336BC920F43244FFD441EB000E2DCBAE90B640D4026FF6E13C
310
CE69CEA3CD2E3291CE855A02D8687BCBB7165188F546498A0A7890F6BB2AA4A446DA2821DB6D2920AE1E60F1DB72DE34878937F54F9DE67FC71967106DC17711B77ED7D92322194A71B44549DF76CDDD6ADA4293EC21CDF196825CE481C85D84643449707A0C344711BF7855EA29CD85200C0BC85707C16FA231F12090186D
310
562C2BAD76802622CAB044F4180414991E7075DAD1356E0CA5C3CB3CD6D6FB9CC69A44FF278BE0086AC99C45044A51C8212F32EE7BA71043DAE81A943BF882B555B4B518B4841222DE45DF3149EFE431A81BF23DB8C77024296594172806B31E40F689AF28A57678DFA0F85EE58F282EE96B1988C0741B114ACB2C821F6170
310
F218E2DA75607A1685067113FB24CEA02843B2E44336393B9D3CD9C7D40CDD10D8D8684B2884ED2843450FEAAD80A8EB11A706DF52EF51EAA6CC8A086579C906198A37ED7A9325DF55AB223B905F552A42D95811B604C380305967D52A6683A9EBC00A6EA403D52E12282BA83985BD9078FCDA9B34E5DE0DB8F5D3D7DD2083
310
C2AF477BCD883AAB60B03CB60A03F11DC9F8CE0D57FA3ABA86FA3BC1C93ED557B566B30204C454242F39B12AFABA84F2C6D6686E788BA458BF3759B7BA7E5D7AD0FD08C6B0066A977AE152019D612691AA4C6ED50DFD822004B76898F1A5CAA9C750B94A125D35227A43FAD4D92A235A9B66C42BEE30CB33F8B13561312D13
310
BC4689B88F6E258D5644B16EA5F4325261FCAC809FDEAF3AF0C0C800913EAB020F7FEFACB5A373552E1D2422EFCA6CC3108120D8122D35BAF10A965A8D545AAEAFEA4C017517189855F1ECE7C9A2D98EF879B248AD61FCD0C9E27AF707DA35FB228D741E2BBB3EEA1850E72745E5358E01BAED5053ADB38849E6567EEB4C11
310
04C52ACA0FAEC6AAA06108F671FC9FB3765F1634DB75F83F2E6BFB4F2A8EA3B24A6BB2EA521DA85C97CD1C36F16FAE6F2ECEAE478B9BB3F3D16CB2988FAEDF2CDE8DCE171717FEE47C317FB398D5686A470D833A98E9DC05CF26A855C3EAC962005D59915392C0693E71520C315FC2997E40FB9C675840F26C36BB13DB941F
310
B0FAC1F43925DA505C717287A0414C05A475C0A88C657BDCF9055A93120EDA972E348DBC7BF8B356E93A90792E5D6815481263E16DA0CDA41A7A9A38A45C9DFB2D31C007B154A544B3A87EAE57296C5AE1BF9E32240D58B95A3D0C28DC0AE87EB53A149A37CB537C94E0153B0E9270BB2925546B4696FD402D8CDE66AF7E23
310
1B25ECDE6EFD08AEFBBC58BEA7E7B41019F4C9E0592330544712F154F7BB156396A5ABC5E731F4D99CE527A7A0650ABA1C4E69C4311873A90A2AB022B00A4BB340124C75FEFBFA33CFE1134FE6E8AAC8F9F5F1FCECB7F53CCFB29C99A1F5159CCA12F850E4ACEEE0B34FB286E201ABE6BA589F4CFC93B56E6ADB3E7BB44102
310
7BAA2A8281AA985082744C0EECF24983CAB62FC74A159DE9CB8563832834038C1D3DE9F19A8F5C0EF890FA9CA23C46FB7925EDB37DEDB19E0A36C1A1231DFE0B504B0304140006080000E96C9440000000000000000000000000350000006662782F32384242453438412D323545422D344241432D383730452D4235383136
310
383842433631442F76657274696365732E62696E504B0304140006080800E96C9440F270F1330600000004000000360000006662782F32384242453438412D323545422D344241432D383730452D4235383136383842433631442F747269616E676C65732E62696E636660600000504B0304140006080000E96C9440000000
310
000000000000000000370000006662782F32384242453438412D323545422D344241432D383730452D4235383136383842433631442F617474726962757465732E62696E504B0304140006080800E96C9440D5987DFC8F00000041010000360000006662782F32384242453438412D323545422D344241432D383730452D42
310
35383136383842433631442F6469726563746F72792E786D6C858F410EC2201045AF4266AF15DDB800BA74E7C21B903225242D6328188F2FA5C4183471359997F9FF81E89FF3C41E1816475E02DF1F80A11FC8386F25A438EECEC07A250251FC3803E6F58C12560C4AD840E95E91C151A72936F496F35732D860FE635F62C8
310
F2DA16B505C545B74125BAA2FA9E05D7CC053D063734D5C7665FD55B6B8D15D5E9BFEAFD8490FFA45E504B0304140006080800E96C944038A5DDA0FC000000A00100003B0000006662782F32384242453438412D323545422D344241432D383730452D4235383136383842433631442F7265736F75726365732F636F72652E
310
786D6C8D50596AC33010BD8A997FD95A52C70EB20275D313F402429E2422B164B4941EBF72E242FBD79F99E12DCCE3C9E3D77CAF3E3144EBDD00ACA650A1337EB2EE32404E67D241755432789F7EC9A0727AC601561894BC049F970D32DE2574A9A0CE4FB8813A464C50997B390688E68AB3AE754E45116FF5A2CD4D5FB066
310
75A18B4EC9984209503D9FAC1354C0E873301865F36495CCD94E9BC64EE5A73D5B0CA0DEDEE9D88F6D475A2E18D99DF627F23A8E82BCD07D2B68DF733E0AD9AC6625939D7F329A803AE1048A53C609DD114E3F983888FEC03A42BB03A5B259E57F4C7999FE69CAD625C1B7B84F5B04C54A9007A164B3F655D6A3CCB2D76ED5
310
37504B010214000A0000080000E96C94403DEE336E79000000790000001B00000000000000000000000000000000006175746F6465736B2D64657369676E2D7061636B6167652E786D6C504B01021400140006080800E96C9440D486FD9CA0000000F40000001300000000000000000000000000B20000005B436F6E74656E
310
745F54797065735D2E786D6C504B01021400140006080800E96C94402B0EF338EA0000007C010000080000000000000000000000000083010000636F72652E786D6C504B01021400140006080800E96C944055019EA25F0000007C000000070000000000000000000000000093020000636E782E786D6C504B010214001400
310
06080800E96C94401EF2BB7E66010000020300000C00000000000000000000000000170300006662782F636F72652E786D6C504B01021400140006080800E96C94402CBE78707E0000009D0000000B00000000000000000000000000A70400006662782F636E782E786D6C504B01021400140006080800E96C9440F54527D8
310
2B0100001502000031000000000000000000000000004E0500006662782F32384242453438412D323545422D344241432D383730452D4235383136383842433631442F636F72652E786D6C504B01021400140006080800E96C944050B5A0E154010000330300003000000000000000000000000000C80600006662782F3238
310
4242453438412D323545422D344241432D383730452D4235383136383842433631442F636E782E786D6C504B01021400140006080800E96C9440ECDE838D640700009A1B000034000000000000000000000000006A0800006662782F32384242453438412D323545422D344241432D383730452D4235383136383842433631
310
442F6F626A656374732E786D6C504B01021400140006080000E96C94400000000000000000000000003500000000000000000000000000201000006662782F32384242453438412D323545422D344241432D383730452D4235383136383842433631442F76657274696365732E62696E504B01021400140006080800E96C94
310
40F270F13306000000040000003600000000000000000000000000731000006662782F32384242453438412D323545422D344241432D383730452D4235383136383842433631442F747269616E676C65732E62696E504B01021400140006080000E96C94400000000000000000000000003700000000000000000000000000
310
CD1000006662782F32384242453438412D323545422D344241432D383730452D4235383136383842433631442F617474726962757465732E62696E504B01021400140006080800E96C9440D5987DFC8F000000410100003600000000000000000000000000221100006662782F32384242453438412D323545422D34424143
310
2D383730452D4235383136383842433631442F6469726563746F72792E786D6C504B01021400140006080800E96C944038A5DDA0FC000000A00100003B00000000000000000000000000051200006662782F32384242453438412D323545422D344241432D383730452D4235383136383842433631442F7265736F75726365
310
732F636F72652E786D6C504B0506000000000E000E00800400005A1300000000
  0
XRECORD
  5
17
102
{ACAD_REACTORS
330
12
102
}
330
12
100
AcDbXrecord
280
     1
270
     1
271
     1
  0
XRECORD
  5
16
102
{ACAD_REACTORS
330
12
102
}
330
12
100
AcDbXrecord
280
     1
270
     1
271
     1
  0
XRECORD
  5
18
102
{ACAD_REACTORS
330
12
102
}
330
12
100
AcDbXrecord
280
     1
270
     1
271
     1
  0
XRECORD
  5
15
102
{ACAD_REACTORS
330
12
102
}
330
12
100
AcDbXrecord
280
     1
270
     1
271
     1
  0
XRECORD
  5
39C
102
{ACAD_REACTORS
330
22
102
}
330
22
100
AcDbXrecord
280
     1
102
MATERIAL
148
0.0
149
0.0
149
0.0
 93
        0
 94
      127
282
     0
 72
     0
 77
     0
171
     0
175
     0
179
     0
273
     0
  0
XRECORD
  5
24
102
{ACAD_REACTORS
330
22
102
}
330
22
100
AcDbXrecord
280
     1
270
     1
271
     1
  0
XRECORD
  5
23
102
{ACAD_REACTORS
330
22
102
}
330
22
100
AcDbXrecord
280
     1
270
     1
271
     1
  0
XRECORD
  5
BA
102
{ACAD_REACTORS
330
22
102
}
330
22
100
AcDbXrecord
280
     1
 70
     1
 90
1959938040
 71
     1
  1
D22DC589-A875-4ABE-A07B-FC5796406C78
311
504B03040A0000080000E96C94403DEE336E79000000790000001B0000006175746F6465736B2D64657369676E2D7061636B6167652E786D6C3C3F786D6C2076657273696F6E3D22312E302220656E636F64696E673D227574662D3822203F3E3C666F726D6174733E3C666F726D61743E687474703A2F2F736368656D612E
311
6175746F6465736B2E636F6D2F64657369676E2D7061636B6167652F323030393C2F666F726D61743E3C2F666F726D6174733E504B0304140006080800E96C9440D486FD9CA0000000F4000000130000005B436F6E74656E745F54797065735D2E786D6C7D8EC10E82300C865F65E91D8A1E8C310C0EEA1BF002731658846E
311
D98AC1B77784ABF1D8FE5FBFBF75BBCE937A534CCEB38643598122B6FEE978D0B0485F9C41B54DDD7D022595594E1A469170414C76A4D9A4D207E29CF43ECE46F218070CC6BECC4078ACAA135ACF422C856C0E68EA1BF5669944DDD7BCDE7B1F8E415D77AECB980613C2E4AC91FC167A2B244592486606FC29C8FD7F045B9A
311
EF7053A7E60B504B0304140006080800E96C94405179A4B0EB0000007C01000008000000636F72652E786D6C8D90416E83301045AF82666FB08126061947A18513F40296ED102BC146D8AE7AFC9A8448EDAEAB19FDF96F66F4D9E97BBE675F7AF5C6D90E488E21D3563A65ECD4410C1744213B71B63A177ED920B362D61D6C
311
327036AD2E2EBB249D0DDA86A45AA7F42E0AEF75804CDE53D38197573D8B5CC4901CFE962F42DEC4A473F2EA121CA351D9F38851699FB918BD021F713DF6E7F33B1A69D9A09A0E03A21F7840FD50F5C7C3E1D850F2C68A0DE62C98F9755FAE5A04AD8097989408D7A8C49FA46AABA6251461DA62CC8ACDFE078A8BFA27148D
311
0D55B9BFFBC43C70921E790C382BB62C52790495EA961BFF01504B0304140006080800E96C944055019EA25F0000007C00000007000000636E782E786D6C4DCB3B0E80201045D1AD90E915ED2CF8AC45050C11660C8261F98AB1B07AC9C97D42D718D865D3E909258CFD00CCE24AC6E326A164D74DC0B4128928FF32603847
311
2BA13128B1252AC747C6BAB984FC68F0B87FE8960A5C09FE86CFB69FBA01504B0304140006080800E96C9440ACBD4B7367010000020300000C0000006662782F636F72652E786D6C8D52ED8E8230107C95A6FF4BCBC7299A52A377F804F702152A4784969496F8F8B77C18CF8B3186A434333BBBB3037C776D1B3428DBD746
311
67380C18464A17A6AC759561EFCE24C56827B835C6FD29C348CB56657884B1E09535BE5BA0C268A7B403549B522DA0EC7BE5302A1AB864B82F7E542B03E91D54F497A093C545562A0803A0A14EF0DE593080E621E389C5F974E574C605F7BE2E17B62E615A7DAE95C5E2C892E361BFFF24C734DA9024CD73927EB19C1CF2F8
311
B05EADD69B34FCE074140BEEEAF6E6AEB04A3A556211B130222C2111FB0EE36DBCD9862961E996314EC7F20791EFCA3745BED62E8E16BBB3ACC722042313F16F5B88C8A15E0EE0870A4EC710E13525FC18340402213B796A6E7B5C001A54E18C4D80298DBF53836CBC82A90C4D0FA7330B9DA706B0D9D33ED18B3EAF7BC007
311
94BA026BD2C1F5E4DD389DCF5397283A65C9E0AE481BDBCAE66E6EB6783FEF839ECA0BD318FB8E9A2EABD2254C3AFEBDE217504B0304140006080800E96C944005D112587E0000009D0000000B0000006662782F636E782E786D6C4DCCD10A83201886E15B91FFDCB5B6660A6A48CEFB886521990EA76397BF1A1DECE88387
311
8F97779FD5A3B74D2F178380FA740664C3238E2ECC024A9E3005D4499E62CC7F37406158AD809D41F239C5F23C68B4D3507CDED4BBB01C5833A2193117CC186970D35E5BCCF48D62A3D45DD7A6A75AF550495EFD4ADBEE61F905504B0304140006080800E96C94402850D6542D01000015020000310000006662782F313936
311
44393646322D393936342D343733372D394435382D4641414544314643384441432F636F72652E786D6C8D51CB6EC32010FC15C4293D6003765C3BC24451DC7C417F8000495162B07854F9FCE2DA91DA5B2E2C9A9D991DEDB2FD63BC836FED8371B687A4C010682B9D32F6DAC3142FA88560CF99772EFEA14160C5A87B38C3
311
90B3AB77695A21E96CD43666D43AA5575084A02304F29E3F3D0CF24B8FA210296646B81593903771D50529723BF3380BD1E700601932BF9093AE19BAE64451D73535AADFAB77D40DDB169D0E878F819C8EED7038B2721172969251ABDCA81CC75C8CF6AF9ACC62CEA2199FF1A5D7226A0539C584225C238A3F49B5ABBA1D69
311
116E7718B372A6FF13A549BD284AC6C68AAE711759C85959B93438532E9DEFCF30FA31391FC13C6F13B47C831C1718375BDAB6B462E5C2CD1BC8A64DBD9A86E87CDEF0E676CE74B25D9C9B9AB3723E522EBF17CC753E28FF01504B0304140006080800E96C944036126FF64D01000033030000300000006662782F31393644
311
393646322D393936342D343733372D394435382D4641414544314643384441432F636E782E786D6CD593BD6E032110845F05D1DFAF4F966371584A912748919683B54DCCC1899F287EFB2C3676DCB84899069D668799D5278EEDBE6743BEC007EDEC48BBBAA504AC744ADBC34853DC571B4A769C79E7E2838D122B66186996
311
296707EFD25224057B914C44D5687B2AA287E092971050CE37897152180C005B2514619E402950E46EC4AF3D785C05C5E94CE211C8DBEB0771D327C818589353386B720767F92C4D0F264AA411218C34C823CCA216293A05E1542B1145DDD5B7AE273BFD26917CE15699BC26B97CA4F9A4BC6C542347D6E090B3103DD22BA6
311
785E8072B12C464B11117273315E3D9C256DE37A285E8DE03DBABBF56A1830EC32E32CEA198A437A101114E57DDBF5553B547DFBDEADB6AB976DB7A9DACDB66D5993ED9C4DCE99720963C0BB85486723D84879C79A3C7E86AFF888D21E593B7FFE034804505AAF74EE19FF994F7379DF88CBE35FC07F00504B030414000608
311
0800E96C9440B863E569A505000080100000340000006662782F31393644393646322D393936342D343733372D394435382D4641414544314643384441432F6F626A656374732E786D6CAD575D6FA33814FD2B887DD97DC877DAA62BCA284DA6A368D499D14433DA8748910143D91A8C6CD3A6FBEBF7181B0269D26657F312
311
82B9BEBEF7DC733FEC7DD865CC79A242A63CBF7147FDA1EBD03CE4519A27376EA9E2DECC753EF89EE05CB5C45C272719BD71F5B2EB7B89E0656197221A9392A983D5BBDBBF1C19D29CBA4EC8889437AE0C1F6846FAA4543CA2F2B11F1145FA49BCEB8FFA46B0AB3611A47838505A104173054BB19E438B638C1A755F87EEC0
311
F706FABBEFE95F2B35392D35A8FCE99E9FE652913C7C75D8819AC968BAFC38BEB8EE5D4CA793DEF4723CEADDDEDD2E7BA3ABC97071B9585CCF3F5EE360A90434594B048D5DFF13B01169E80DCC27DF2BD35C4DC656C4066820E853AA23E5FA6367E40D8C4CE39D75F298F921CF731A5658018DCA3FAB3AA205CD23C43CA512
311
96B5101A765F471AC7D6E7897EB747B697CF43A0BDA3A5A8B6BD7EB62DE5C1DF70419EC32021A966A0C1D23A6AB83ADC231C70CEECB7543A195154A484392C0D04112FAE0F512DE27B1D359AC9426783F6C0F51105F3B94B17A4D1FB3C3F66655C32A669ECFA55166C912B54C9CAB2F41F2AF6D6B791814D889566C3CC3AA4
311
5E0AEAFAD78622B3033619209D98910421879B7AE7647CE0E842E7E96AE9FA9FEF82DD5AE7EEF1C30BC10B2A94A60FA85507AE7E6A94AC4DA3B322A737B807A6EC41F90EE4BF20D5F7A6206E22DD4D77537B8A12249731171962E30C9DDE103F436754FDEAFFAD7FDEA0D9DC8DDE293C116C0DD52FC0B3EB433B962D387DEF
311
0984E762625D5B8784A16CDCA73900D2247118C712EA701CEC5C7F852A87AA8C5D84F923B80C739FF0D71B58352814D549AD670E2C0FCAE219051AB0558C841986FCD6C07D9C5E95B3EA602B760ADE8B5F42D7F972FD795D8A9884F4DEE6F492C6699E2AB4B83D6FDA067530EF78F4485F9EB988E0E86BBCD76DBC337B9404
311
DA1A730D7C52D774FDB23FB97340887D09D7E5C67BE70438A11B6B4BFF7D2A43CA18C9292FEB73DFEC1F681B06629DEC9AC94D83D9371690C67C39C84134E950A48506B1E9564DD1EC9FF0EEC7EA0B180979C603C2F642C1BEF4869C71B10D5EB6A62A1D45FA6797DA168281D602B6573952A7BFC57C1BA5715C4AD4C023B0
311
FE5C2DDAA1D3550115A2D66A92650AF7915B4458CED67AD1AC054123E5F93645DB44DA1D3DA0AD1F885A02540A4F592C298BB7296365B68D538666B4CD4871028EFF6F7F5066C59664BCCCD509DD1DD3D11CBAB677C82B9F890A1F5C7F5D3D7BB728BD118DF661EE08EB567204AB4E6897E3F1727131BBEECD675717BDE9FC
311
F6636F3EBCBAEDDD2D2EAEAE2FA7C3CBC5D5AC8E9351EE7B75A7692734A284CEE69522B5E1FBB142FAD81AE0FAF744C9CD27939DF5F3C7AA8F51D81B600FDA65B3711E3D61ECA3D1FB0AF6924715ADB282D18CE68AE814BAD77FD8778231A3638C595F6524A16768F9FA697DE00C56CED8F74DA73B7D3ED86B57173A218F2A
311
510F6516E42465071B138364BFC8138B5F1D93E669FA4CFDAADF6C6030984ACED20865307212CA33AA500CCFE84122A312D46B8FF491BD7A9CB1FBC90C888A048CD6963C10CCC84C222D40AD3254DD75E737CC747AACBA71D16DFB8FF8B195C275C0991B1733BA4A432AFB01FAB39E842AE5E0527B90C7DC4FF28461D4369B
311
9AF76697C6A6D3911B9173C627EB97A9E0D6019491026303E62144A732C6F72ADBECF7F03F395E9BE31085BF41A91A5FF60B8D33D5314851E394BD2C608679B447EF90A86FBB35EA57321D44CEBA64BD4902A3B5A78848AA8B82B6CF9A345F7E1B604071565F9D8295096279BEA69EA02073A9131C2C022BACCE82285075F1
311
E7E69BE0B8C866CE5D0A0A38BFEF66977F6C163CCB786E9636737B1D76D60FB8DC461B1407AA6F2572331E8EC69BEA36602F28DB8048DA27917CC402222BD206E84EF8C14B7365441F321F1AB9810EC50143574BC736B629945ABAB46BAB060773474E1DE490BE51EA8C690B146F5E080695284C1018E5FD7F01504B030414
311
0006080000E96C9440000000000000000000000000350000006662782F31393644393646322D393936342D343733372D394435382D4641414544314643384441432F76657274696365732E62696E504B0304140006080800E96C9440F270F1330600000004000000360000006662782F31393644393646322D393936342D34
311
3733372D394435382D4641414544314643384441432F747269616E676C65732E62696E636660600000504B0304140006080000E96C9440000000000000000000000000370000006662782F31393644393646322D393936342D343733372D394435382D4641414544314643384441432F617474726962757465732E62696E50
311
4B0304140006080800E96C9440D5987DFC8F00000041010000360000006662782F31393644393646322D393936342D343733372D394435382D4641414544314643384441432F6469726563746F72792E786D6C858F410EC2201045AF4266AF15DDB800BA74E7C21B903225242D6328188F2FA5C4183471359997F9FF81E89F
311
F3C41E1816475E02DF1F80A11FC8386F25A438EECEC07A250251FC3803E6F58C12560C4AD840E95E91C151A72936F496F35732D860FE635F62C8F2DA16B505C545B74125BAA2FA9E05D7CC053D063734D5C7665FD55B6B8D15D5E9BFEAFD8490FFA45E504B0304140006080800E96C944042D28A28FD000000A00100003B00
311
00006662782F31393644393646322D393936342D343733372D394435382D4641414544314643384441432F7265736F75726365732F636F72652E786D6C8D504B6E833010BD0A9ABDC1069A389171145438412F609909B112ECC89FAAC7AF49A8D4EEBA9919BD8FE6E989D3D7722F3ED107E36C07ACA450A0D56E3276EE20C5
311
0BE1509CA4F0CEC55F3228AC5AB08315062966EFD26383B4B3116DCCA875136EA00A012314FA9E8F0E82BEE2A24A956256845BF950FAA6662C5999E9AC9322449F0314AF27EB04E931B8E4350651BD58295232D3A63153FE692E063DC891B6637F3EF764E4F581B47C18087FA703E987A6DFEF76FB03676FA25ACD5244B3FC
311
64D41E55C409644D594D684B6AFAC19A637338324E283F522AAA55FEC7941ED33F4DC9D8D8D45BDC972D806439C89390A25AFBCAEB5966DE6BB7F21B504B010214000A0000080000E96C94403DEE336E79000000790000001B00000000000000000000000000000000006175746F6465736B2D64657369676E2D7061636B61
311
67652E786D6C504B01021400140006080800E96C9440D486FD9CA0000000F40000001300000000000000000000000000B20000005B436F6E74656E745F54797065735D2E786D6C504B01021400140006080800E96C94405179A4B0EB0000007C010000080000000000000000000000000083010000636F72652E786D6C504B
311
01021400140006080800E96C944055019EA25F0000007C000000070000000000000000000000000094020000636E782E786D6C504B01021400140006080800E96C9440ACBD4B7367010000020300000C00000000000000000000000000180300006662782F636F72652E786D6C504B01021400140006080800E96C944005D1
311
12587E0000009D0000000B00000000000000000000000000A90400006662782F636E782E786D6C504B01021400140006080800E96C94402850D6542D010000150200003100000000000000000000000000500500006662782F31393644393646322D393936342D343733372D394435382D4641414544314643384441432F63
311
6F72652E786D6C504B01021400140006080800E96C944036126FF64D010000330300003000000000000000000000000000CC0600006662782F31393644393646322D393936342D343733372D394435382D4641414544314643384441432F636E782E786D6C504B01021400140006080800E96C9440B863E569A50500008010
311
00003400000000000000000000000000670800006662782F31393644393646322D393936342D343733372D394435382D4641414544314643384441432F6F626A656374732E786D6C504B01021400140006080000E96C944000000000000000000000000035000000000000000000000000005E0E00006662782F3139364439
311
3646322D393936342D343733372D394435382D4641414544314643384441432F76657274696365732E62696E504B01021400140006080800E96C9440F270F13306000000040000003600000000000000000000000000B10E00006662782F31393644393646322D393936342D343733372D394435382D464141454431464338
311
4441432F747269616E676C65732E62696E504B01021400140006080000E96C944000000000000000000000000037000000000000000000000000000B0F00006662782F31393644393646322D393936342D343733372D394435382D4641414544314643384441432F617474726962757465732E62696E504B01021400140006
311
080800E96C9440D5987DFC8F000000410100003600000000000000000000000000600F00006662782F31393644393646322D393936342D343733372D394435382D4641414544314643384441432F6469726563746F72792E786D6C504B01021400140006080800E96C944042D28A28FD000000A00100003B00000000000000
311
000000000000431000006662782F31393644393646322D393936342D343733372D394435382D4641414544314643384441432F7265736F75726365732F636F72652E786D6C504B0506000000000E000E0080040000991100000000
310
504B03040A0000080000E96C94403DEE336E79000000790000001B0000006175746F6465736B2D64657369676E2D7061636B6167652E786D6C3C3F786D6C2076657273696F6E3D22312E302220656E636F64696E673D227574662D3822203F3E3C666F726D6174733E3C666F726D61743E687474703A2F2F736368656D612E
310
6175746F6465736B2E636F6D2F64657369676E2D7061636B6167652F323030393C2F666F726D61743E3C2F666F726D6174733E504B0304140006080800E96C9440D486FD9CA0000000F4000000130000005B436F6E74656E745F54797065735D2E786D6C7D8EC10E82300C865F65E91D8A1E8C310C0EEA1BF002731658846E
310
D98AC1B77784ABF1D8FE5FBFBF75BBCE937A534CCEB38643598122B6FEE978D0B0485F9C41B54DDD7D022595594E1A469170414C76A4D9A4D207E29CF43ECE46F218070CC6BECC4078ACAA135ACF422C856C0E68EA1BF5669944DDD7BCDE7B1F8E415D77AECB980613C2E4AC91FC167A2B244592486606FC29C8FD7F045B9A
310
EF7053A7E60B504B0304140006080800E96C94405D471DD1E80000007C01000008000000636F72652E786D6C8D90416EC3201045AF82D86303A60AB6305195A427E8051010072506CB4095E30712476A775DCDE8CF7F33A32FF6F7F9067EEC1A5DF023240D86C07A1D8CF3D308733A230EC15E8A3584F4CB068157B31D6195
310
A114D31AF2B2493AF8647D2AAA0FC66EA28AD12608F4AD34238CFA6267D5A89C8A235E9B45E9AB9A6C43DE5D81737606BC8E3853F6B9B3B32B94F4D07D766C77443D230CB18F438F38A327D47376DCF1AF534F29116D85A5486E7EDFD7AB55C99AC26342116688E26FD20D5D3F108E301F30166DB5FF81F262FE0965E75347
310
B7775F5884B23EF21C48D1D62C4A7906556ACD4D3E00504B0304140006080800E96C944055019EA25F0000007C00000007000000636E782E786D6C4DCB3B0E80201045D1AD90E915ED2CF8AC45050C11660C8261F98AB1B07AC9C97D42D718D865D3E909258CFD00CCE24AC6E326A164D74DC0B4128928FF326038472BA131
310
28B1252AC747C6BAB984FC68F0B87FE8960A5C09FE86CFB69FBA01504B0304140006080800E96C94403A12C5C664010000020300000C0000006662782F636F72652E786D6C8D52ED8E8320107C15C27F44D14BB5419A4BDB7B827B01AAD423553008A68F7FEB47D3EBA5691A1324333BBBB3A37C77ED5A342A37686B4A9C44
310
3146CA54B6D6A62971F0679263B413DC59EBFF94616464A74A3CC158F0C6D9D0AF50658D57C6036A6CAD56500E83F218552D5C4A3C543FAA93910C1E2A864BD4CBEA221B152511D05027F8E01D1840CB90E9C4E27CBA72BAE08287A0EB95D5354CD367AD1C166C9F7EA6D9E6408A2CC948F6B12F489EB12329F2ECB0C9BF8E
310
056309A7935870AFBB9BBBCA29E9550DFA386124CE088BBF93749B16DB242771BE8D634EA7F20751E8EB3745411B9FB2D5EE221BB0988CCCC4BF6D21228F0639821F2A389D4284D79CF063D0100884ECE5A9BDED7101685495B72E03A6B6E14E8DB20D0AA6C6687E385D58E83C3780CD9EF6612FFABCEE011F509A06AC490F
310
D753F0D374BE4C5DA3E89523A3BF22635D27DBBBB9C5E2FDBC0F7A2AAF6C6BDD3B6ABAAE4AD730E9F4F78A5F504B0304140006080800E96C9440A843643B7D0000009D0000000B0000006662782F636E782E786D6C4DCCD10E82201805E05761FF3D9945261BE084E23D5CA263223482D6E387CD8BAECED9B7B3C3BACFEAD0
310
DBC4970D9E437D380232FE1146EB670E394DB805D4091643487F33407E580D878D41B03986FCDC6934D3905D2AEAAC5F76BC497952BA56F87EA11A93BE34A9E9196B4A55D31075ED5B029560D5EFA9E4762CBE504B0304140006080800E96C94408D88136C2C01000014020000310000006662782F44424232434631432D45
310
3539462D344131432D424639332D4639394336363443374138342F636F72652E786D6C8D51CB6EC32010FC15C4293DD8069B3876848912B7FE82FE00C1244589C1E251E5F30BB523B5B75C58343B333BDAA587C77407DFD23A657407718E20905A9851E96B0783BF640D040746AD31FE0F0D02CD27D9C1044346AFD6847985
310
84D15E6A1F516D46B982DC39E92110F7F8E9A0135F72E2390F3E32DC2D9FB9B8F1ABCC711EDB91C7A8F3360600CB90F442F67E3A95FD80FBEC63DB0E1939C6DF6968AB6C68DBBEAE49BF3B3684168B90D110D4B8CAD518E3A88B92F655932466D4ABE9195F58C9BD1C212B112E3344B2127DE26A5FB57BDC64A8D923448B44
310
FF270AF3F8A22828EDAB728DBBC81C6498164B83D1D184F3FD19463E66633D48F3364E8A37C8508ED08EECF0B6A6C5428D0B889E35593D9D37362E78733B4776B51AD784D122DD2896DF03C69AEEC97E00504B0304140006080800E96C944050B5A0E15401000033030000300000006662782F44424232434631432D453539
310
462D344131432D424639332D4639394336363443374138342F636E782E786D6CBD93CD6EC32010845F0571F7BF15B91126520F7D821E7AC5B049696CB0F8A99AB7EF929034971C2A55BD206B7698597DC26CF7B5CCE4139CD7D68CB4296B4AC048ABB4398C34867D3150B2E3CC591BEE6C9418B1C048934C393B381BD72C29
310
D88B380754676D8E5974E06D74123CCAE92699AD1433068029228AB04CA014287233E2D71E1CAE82E27422E11DC8CBF31BB1D307C8E059955238AB520767E9CC4D77264AE42CBC1FA997EFB08852C46015F863A9441065535EBB1EECF49344D2856B65749AA4F291A693F2BC51891C598543CE7C70482F9BC26905CAC5BACE
310
5A8A8090ABB3F1E2E12C6A13367DF66A04EFD0DDB59B61C0B0F38CB3A017C80EE940045094B775D316755FB4F56BD36DBBA76D3314F5B0AD6B56253B6793B573BE8431E0EC4AA435014CA0BC61551A3FC2977D446987ACAD3BFD022402C8AD173AB78CBFE4D36CBABEFF473ED5F97D232E877F01FF06504B03041400060808
310
00E96C94405A92BAF562070000991B0000340000006662782F44424232434631432D453539462D344131432D424639332D4639394336363443374138342F6F626A656374732E786D6CED595B73A33614FE2B0C7D691F8C8D2FB974089DC4DEEC7876D2EED4DD4E1F3CC3C8201335423092C826FDF53DBA8081980477D3B77D
310
B001211D9DF39DAB0EC12F4F19751E3117246757AEEF4D5C07B3384F084BAFDC52EE4717AEF34B18F03C978D69AEC35086AF5C35EC8641CAF3B2B04309DEA392CACEE8EDCD5F8E8831C3AE135324C4952BE27B9C210F95324FB078F012249197EE9F3CDF3313DB64538E8AFB0ED10271CC24700AE30CA8388629BFFD3871C7
310
613056EFC340FDDB59B341B3E6FDB3C65AEA369784098958FC82A50E99D9209666FE7CF561BAB81C2DE6F3D9687E36F54737B737AB917F3E9B2CCF96CBCBEB0F97C0DE2ECFA99529C1056609E8EFD90DFD60ACDED4A25B048E711DE78CE15803095069B1BA040916B05503BE49FBD15712355E6B091BCF73F5DEB2D0189EB5
310
A9F4CD1A06448B2E0862B7AB24AEAE4DF9F2DDDF20B81862945C6009DC0AC941BB161E0E5EE18693606C46C36077D005114E8624E6045187921D471C940253D59430300B2C19E51C1C48394A02AD39F3BA6D5BE0996FBBCE312EF725A5CA33DC503B5604EE87A5D09C917F303F70DF44067802694BC2E485E5523E17D80D2F
310
83B11E0C0375994DED4B03A4B3A728151A11F3B623E852B9FE7AE5869F6E774F1B150E8E6F5EF0BCC05C2AA3537AD47C8121DBAB42C96EEB0FD29C5A00C21850EDCA0328BF03F2BF42F438B0027AE3E469FE34B77325474CEC739E816E9C89339AC0DFC4F1F5BFBA6FDC05E37A715B7B7D78829B2AA82EBE1DCFB60C1A2BCB
310
7F03CE30780483CFF9CCBEDAC488823DDF110600292371680E4310DAF7BB27375C43E084400FAB100D7D1019D87D84DB606CC91CB452B997F53A0688DA3D66439404B0698B04367AF4F411B20727F1414D4D11FBE05DBC8BB95EAF369F3625DFA318DF599F5EE13D614442D63CCE500BF396440FF8F96BCE1310F425DE9B26
310
DE99DD4A00DA0A73057C5A81A01E0E3BB73688615D9AAB7013BCB10308A1727583FE1D1131A614319C97D5BE757453865A7BBCAD19DC706A209E4D3B26CCF12351550538CD61468B51C8FB31278502D10D3F1AC9EAA0E9F548F765FD2B58643DBF67D69A41E86588FEA183D6111C5A965D216D81A805DE1DC2799CD39C47BB
310
E7C8443A176A0960A3ED2D7FB68842AC374A5254C083B4DF55212535D24609D9EF4B0171F5088B7FAE974D739878337FE134FF3BCE3887680BBE8BB8F5BBCE1E11C9508AA33D4AFAB66BEE56D3169A640F698EF714E4228F443E4748469304A7A7407312F1CB77A59ED25C08C2B0807C7514FC261A130F0289D166C5B2D26A
310
076822A20C4B444F414091E90157A71D5DE3C6503ABCCD636DBDAF69AC49F47FB2088EA096CC5944A014851CF226E3BEB78018D246D7A0DCC117ACADA2ADC5A0259410F173F41593F45E9E82BA21DF837B0C4792524679816230EB01645FF88A526A87F71D8A1F54FE88E292BE9781084CF711A1B4CC22F81106278F21AE5D
310
07A65751681037B14FE20C8A32244B3E6493B3C5E4C53EA666E886C0C6467B42216C47192A7A506F05445D8F3835F8967A8F527765564428CB4B36C850BC59D79B2CF9AE5A15D981FCAA5211CAC68AB025180684C93AAB56311B4C5D075670231DA89E2381B2829A53D81B89C7AFBD4953EEDD805B3F7DDF0D3228FC7AB4D7
310
8CA8F30A06CB63AB30105F918CEFDD70A3AFA31BA8BF139C1C527D556B362B40404C45F29213ABA22F6B286F6C8DE68677488AED479375ABEB97B507DD8F600C6BA076A917AE15D0196612A9CAE44EDDD0DF1184E0160D33BE5639F5142AD749A2AB46446F499F3A5B65446BD38C78C53D6679063FB6252CA66582B728110F
310
D19DA4D18628D6AD945E462A8C5F15F0B78F9B0E3C303240A4CFAAC0C35F3B6BEDE852954B4789C8FB32DB31442008B6444B8D6EBC82A556239596EBAB3A5340DD050666553CFF7EB268B623BE9F2C526B18DF76B2A0F90ED143B46964F35899F549A7803A3D292AEF710AD05D879A6A9D444C2EB7E25B5F8A202656417E70
310
3156C50C43B08FE3FF9CB4FB92A0D9AEC3FF6949DB7F51709C94545A935593EA48E1BA6EA6B0D574BA5A2E2E2E47D717E78BD1FCFAE6C3E87A727E33BA5D2ECE2FCFE693B3E5F9458DA6F6D330A863994E5DF06C625A35AC9E2C06D094153925091CE61327C510F2251CE90774CF798605E4CE66AF3BB13DF901AB1F4D9B53
310
A21DC51527F708FAC3544056078CCA58B6C79D1FA03329E19C7DE542CFC87B803F6B95AE0389E7CA854E81243116DE0EBA4CAA9FA78943C6D5A9DF12037C104B5546348BEAE77A95C2A615FDEB2943B28095ABD5C280BAAD80E657AB41A179B33CC527095EB1E32009B7BB5242B16664390CD4C2E86D0EEA37B251C21EECD6
310
4FE0BAAF8BE57B7A4E0B91415F0C5E3502437524114F75BB5B316659BA5E7D1E439BCD59FFE614B44C4197C3298D3806632E553D055604566169164882A92E7FDE7EE6397CE1C91C5D14393F3E5D9CFDB45DE659963333B4BD86435902DF899CCD3D7CF549B6503B60D55B17DBE9C49F6E754FDBB6D9A31D12D85345110C54
310
B58412A4637260972FFA53B67B3956AAE84C5FAF1C1B44A11760ECE8458BD77CE372C087D4D714E531DACF2B695F6D6B8FF554B0090E0DE9F05F504B0304140006080000E96C9440000000000000000000000000350000006662782F44424232434631432D453539462D344131432D424639332D4639394336363443374138
310
342F76657274696365732E62696E504B0304140006080800E96C9440F270F1330600000004000000360000006662782F44424232434631432D453539462D344131432D424639332D4639394336363443374138342F747269616E676C65732E62696E636660600000504B0304140006080000E96C9440000000000000000000
310
000000370000006662782F44424232434631432D453539462D344131432D424639332D4639394336363443374138342F617474726962757465732E62696E504B0304140006080800E96C9440D5987DFC8F00000041010000360000006662782F44424232434631432D453539462D344131432D424639332D46393943363634
310
43374138342F6469726563746F72792E786D6C858F410EC2201045AF4266AF15DDB800BA74E7C21B903225242D6328188F2FA5C4183471359997F9FF81E89FF3C41E1816475E02DF1F80A11FC8386F25A438EECEC07A250251FC3803E6F58C12560C4AD840E95E91C151A72936F496F35732D860FE635F62C8F2DA16B505C5
310
45B74125BAA2FA9E05D7CC053D063734D5C7665FD55B6B8D15D5E9BFEAFD8490FFA45E504B0304140006080800E96C94408229D769FB000000A00100003B0000006662782F44424232434631432D453539462D344131432D424639332D4639394336363443374138342F7265736F75726365732F636F72652E786D6C8D504B
310
6EC32010BD8AC51E1B30556C0B13556E7A825E00E189831283C5A7EAF10BB12BB5BB6E6646EFA3797AE2FCB53EAA4FF0C1383B225A135481D56E367619518A57DCA1EA2C85772EFE92A1CAAA1546546024C5E25DDA0E483B1BC1C68C5A37C301AA1020A24A3FF231A2A06FB0AA5AA59815E15E6F4ADFD50235AD339D755284
310
E873806A7F5226921E824B5E4310CDCE4A9192990F8D99F34F7335E0916453FBDAF2D3847B4E39E62F538F3BCE2EB8EFF8DBA97BBFF48C51D114B314D1AC3F19B5071561CE7E4219261C33F241DBA1ED07DA61D20D8488A6C8FF98D236FFD3948C8D2D3BE2EEB6806409F224A4684A5F793DCBCCBB742BBF01504B01021400
310
0A0000080000E96C94403DEE336E79000000790000001B00000000000000000000000000000000006175746F6465736B2D64657369676E2D7061636B6167652E786D6C504B01021400140006080800E96C9440D486FD9CA0000000F40000001300000000000000000000000000B20000005B436F6E74656E745F5479706573
310
5D2E786D6C504B01021400140006080800E96C94405D471DD1E80000007C010000080000000000000000000000000083010000636F72652E786D6C504B01021400140006080800E96C944055019EA25F0000007C000000070000000000000000000000000091020000636E782E786D6C504B01021400140006080800E96C94
310
403A12C5C664010000020300000C00000000000000000000000000150300006662782F636F72652E786D6C504B01021400140006080800E96C9440A843643B7D0000009D0000000B00000000000000000000000000A30400006662782F636E782E786D6C504B01021400140006080800E96C94408D88136C2C010000140200
310
003100000000000000000000000000490500006662782F44424232434631432D453539462D344131432D424639332D4639394336363443374138342F636F72652E786D6C504B01021400140006080800E96C944050B5A0E154010000330300003000000000000000000000000000C40600006662782F44424232434631432D
310
453539462D344131432D424639332D4639394336363443374138342F636E782E786D6C504B01021400140006080800E96C94405A92BAF562070000991B00003400000000000000000000000000660800006662782F44424232434631432D453539462D344131432D424639332D4639394336363443374138342F6F626A6563
310
74732E786D6C504B01021400140006080000E96C944000000000000000000000000035000000000000000000000000001A1000006662782F44424232434631432D453539462D344131432D424639332D4639394336363443374138342F76657274696365732E62696E504B01021400140006080800E96C9440F270F1330600
310
00000400000036000000000000000000000000006D1000006662782F44424232434631432D453539462D344131432D424639332D4639394336363443374138342F747269616E676C65732E62696E504B01021400140006080000E96C94400000000000000000000000003700000000000000000000000000C7100000666278
310
2F44424232434631432D453539462D344131432D424639332D4639394336363443374138342F617474726962757465732E62696E504B01021400140006080800E96C9440D5987DFC8F0000004101000036000000000000000000000000001C1100006662782F44424232434631432D453539462D344131432D424639332D46
310
39394336363443374138342F6469726563746F72792E786D6C504B01021400140006080800E96C94408229D769FB000000A00100003B00000000000000000000000000FF1100006662782F44424232434631432D453539462D344131432D424639332D4639394336363443374138342F7265736F75726365732F636F72652E
310
786D6C504B0506000000000E000E0080040000531300000000
  0
XRECORD
  5
27
102
{ACAD_REACTORS
330
22
102
}
330
22
100
AcDbXrecord
280
     1
270
     1
271
     1
  0
XRECORD
  5
26
102
{ACAD_REACTORS
330
22
102
}
330
22
100
AcDbXrecord
280
     1
270
     1
271
     1
  0
XRECORD
  5
28
102
{ACAD_REACTORS
330
22
102
}
330
22
100
AcDbXrecord
280
     1
270
     1
271
     1
  0
XRECORD
  5
25
102
{ACAD_REACTORS
330
22
102
}
330
22
100
AcDbXrecord
280
     1
270
     1
271
     1
  0
XRECORD
  5
397
102
{ACAD_REACTORS
330
396
102
}
330
396
100
AcDbXrecord
280
     1
102
ACAD_ROUNDTRIP_2012_MLEADER_STYLE
298
     1
  0
CELLSTYLEMAP
  5
395
102
{ACAD_REACTORS
330
341
102
}
330
341
100
AcDbCellStyleMap
 90
        3
300
CELLSTYLE
  1
TABLEFORMAT_BEGIN
 90
        5
170
     1
 91
        0
 92
    32768
 62
   257
 93
        1
300
CONTENTFORMAT
  1
CONTENTFORMAT_BEGIN
 90
        0
 91
        0
 92
      512
 93
        0
300

 40
0.0
140
1.0
 94
        5
 62
     0
340
55
144
0.25
309
CONTENTFORMAT_END
171
     0
 94
        0
309
TABLEFORMAT_END
  1
CELLSTYLE_BEGIN
 90
        1
 91
        1
300
_TITLE
309
CELLSTYLE_END
300
CELLSTYLE
  1
TABLEFORMAT_BEGIN
 90
        5
170
     1
 91
        0
 92
        0
 62
   257
 93
        1
300
CONTENTFORMAT
  1
CONTENTFORMAT_BEGIN
 90
        0
 91
        0
 92
      512
 93
        0
300

 40
0.0
140
1.0
 94
        5
 62
     0
340
55
144
0.18
309
CONTENTFORMAT_END
171
     0
 94
        0
309
TABLEFORMAT_END
  1
CELLSTYLE_BEGIN
 90
        2
 91
        1
300
_HEADER
309
CELLSTYLE_END
300
CELLSTYLE
  1
TABLEFORMAT_BEGIN
 90
        5
170
     1
 91
        0
 92
        0
 62
   257
 93
        1
300
CONTENTFORMAT
  1
CONTENTFORMAT_BEGIN
 90
        0
 91
        0
 92
      512
 93
        0
300

 40
0.0
140
1.0
 94
        2
 62
     0
340
55
144
0.18
309
CONTENTFORMAT_END
171
     0
 94
        0
309
TABLEFORMAT_END
  1
CELLSTYLE_BEGIN
 90
        3
 91
        2
300
_DATA
309
CELLSTYLE_END
  0
XRECORD
  5
3CD
102
{ACAD_REACTORS
330
341
102
}
330
341
100
AcDbXrecord
280
     1
102
ACAD_ROUNDTRIP_PRE2007_TABLESTYLE
 90
      512
 91
        0
  1

 92
      512
 93
        0
  2

 94
      512
 95
        0
  3

  0
XRECORD
  5
3A8
102
{ACAD_REACTORS
330
3A7
102
}
330
3A7
100
AcDbXrecord
280
     1
102
RTVSPropertyOp0
 70
     1
102
RTVSPropertyOp1
 70
     1
102
RTVSPropertyOp2
 70
     1
102
RTVSPropertyOp3
 70
     1
102
RTVSPropertyOp4
 70
     1
102
RTVSPropertyOp5
 70
     1
102
RTVSPropertyOp6
 70
     1
102
RTVSPropertyOp7
 70
     1
102
RTVSPropertyOp8
 70
     1
102
RTVSPropertyOp9
 70
     1
102
RTVSPropertyOp10
 70
     1
102
RTVSPropertyOp11
 70
     1
102
RTVSPropertyOp12
 70
     1
102
RTVSPropertyOp13
 70
     1
102
RTVSPropertyOp14
 70
     1
102
RTVSPropertyOp15
 70
     1
102
RTVSPropertyOp16
 70
     1
102
RTVSPropertyOp17
 70
     1
102
RTVSPropertyOp18
 70
     1
102
RTVSPropertyOp19
 70
     1
102
RTVSPropertyOp20
 70
     1
102
RTVSPropertyOp21
 70
     1
102
RTVSPropertyOp22
 70
     1
102
RTVSPropertyOp23
 70
     1
102
RTVSPropertyOp24
 70
     1
102
RTVSPropertyOp25
 70
     1
102
RTVSPropertyOp26
 70
     1
102
RTVSPropertyOp27
 70
     1
102
RTVSPropertyOp28
 70
     1
102
RTVSPropertyOp29
 70
     1
102
RTVSPropertyOp30
 70
     1
102
RTVSPropertyOp31
 70
     1
102
RTVSPropertyOp32
 70
     1
  0
XRECORD
  5
3A6
102
{ACAD_REACTORS
330
3A5
102
}
330
3A5
100
AcDbXrecord
280
     1
102
RTVSPropertyOp0
 70
     1
102
RTVSPropertyOp1
 70
     1
102
RTVSPropertyOp2
 70
     1
102
RTVSPropertyOp3
 70
     1
102
RTVSPropertyOp4
 70
     1
102
RTVSPropertyOp5
 70
     1
102
RTVSPropertyOp6
 70
     1
102
RTVSPropertyOp7
 70
     1
102
RTVSPropertyOp8
 70
     1
102
RTVSPropertyOp9
 70
     1
102
RTVSPropertyOp10
 70
     1
102
RTVSPropertyOp11
 70
     1
102
RTVSPropertyOp12
 70
     1
102
RTVSPropertyOp13
 70
     1
102
RTVSPropertyOp14
 70
     1
102
RTVSPropertyOp15
 70
     1
102
RTVSPropertyOp16
 70
     1
102
RTVSPropertyOp17
 70
     1
102
RTVSPropertyOp18
 70
     1
102
RTVSPropertyOp19
 70
     1
102
RTVSPropertyOp20
 70
     1
102
RTVSPropertyOp21
 70
     1
102
RTVSPropertyOp22
 70
     1
102
RTVSPropertyOp23
 70
     1
102
RTVSPropertyOp24
 70
     1
102
RTVSPropertyOp25
 70
     1
102
RTVSPropertyOp26
 70
     1
102
RTVSPropertyOp27
 70
     1
102
RTVSPropertyOp28
 70
     1
102
RTVSPropertyOp29
 70
     1
102
RTVSPropertyOp30
 70
     1
102
RTVSPropertyOp31
 70
     1
102
RTVSPropertyOp32
 70
     1
  0
XRECORD
  5
3B4
102
{ACAD_REACTORS
330
3B3
102
}
330
3B3
100
AcDbXrecord
280
     1
102
RTVSPropertyOp0
 70
     1
102
RTVSPropertyOp1
 70
     1
102
RTVSPropertyOp2
 70
     1
102
RTVSPropertyOp3
 70
     1
102
RTVSPropertyOp4
 70
     1
102
RTVSPropertyOp5
 70
     1
102
RTVSPropertyOp6
 70
     1
102
RTVSPropertyOp7
 70
     1
102
RTVSPropertyOp8
 70
     1
102
RTVSPropertyOp9
 70
     1
102
RTVSPropertyOp10
 70
     1
102
RTVSPropertyOp11
 70
     1
102
RTVSPropertyOp12
 70
     1
102
RTVSPropertyOp13
 70
     1
102
RTVSPropertyOp14
 70
     1
102
RTVSPropertyOp15
 70
     1
102
RTVSPropertyOp16
 70
     1
102
RTVSPropertyOp17
 70
     1
102
RTVSPropertyOp18
 70
     1
102
RTVSPropertyOp19
 70
     1
102
RTVSPropertyOp20
 70
     1
102
RTVSPropertyOp21
 70
     1
102
RTVSPropertyOp22
 70
     1
102
RTVSPropertyOp23
 70
     1
102
RTVSPropertyOp24
 70
     1
102
RTVSPropertyOp25
 70
     1
102
RTVSPropertyOp26
 70
     1
102
RTVSPropertyOp27
 70
     1
102
RTVSPropertyOp28
 70
     1
102
RTVSPropertyOp29
 70
     1
102
RTVSPropertyOp30
 70
     1
102
RTVSPropertyOp31
 70
     1
102
RTVSPropertyOp32
 70
     1
  0
XRECORD
  5
3BC
102
{ACAD_REACTORS
330
3BB
102
}
330
3BB
100
AcDbXrecord
280
     1
102
RTVSPropertyOp0
 70
     1
102
RTVSPropertyOp1
 70
     1
102
RTVSPropertyOp2
 70
     1
102
RTVSPropertyOp3
 70
     1
102
RTVSPropertyOp4
 70
     1
102
RTVSPropertyOp5
 70
     1
102
RTVSPropertyOp6
 70
     1
102
RTVSPropertyOp7
 70
     1
102
RTVSPropertyOp8
 70
     1
102
RTVSPropertyOp9
 70
     1
102
RTVSPropertyOp10
 70
     1
102
RTVSPropertyOp11
 70
     1
102
RTVSPropertyOp12
 70
     1
102
RTVSPropertyOp13
 70
     1
102
RTVSPropertyOp14
 70
     1
102
RTVSPropertyOp15
 70
     1
102
RTVSPropertyOp16
 70
     1
102
RTVSPropertyOp17
 70
     1
102
RTVSPropertyOp18
 70
     1
102
RTVSPropertyOp19
 70
     1
102
RTVSPropertyOp20
 70
     1
102
RTVSPropertyOp21
 70
     1
102
RTVSPropertyOp22
 70
     1
102
RTVSPropertyOp23
 70
     1
102
RTVSPropertyOp24
 70
     1
102
RTVSPropertyOp25
 70
     1
102
RTVSPropertyOp26
 70
     1
102
RTVSPropertyOp27
 70
     1
102
RTVSPropertyOp28
 70
     1
102
RTVSPropertyOp29
 70
     1
102
RTVSPropertyOp30
 70
     1
102
RTVSPropertyOp31
 70
     1
102
RTVSPropertyOp32
 70
     1
  0
XRECORD
  5
3AE
102
{ACAD_REACTORS
330
3AD
102
}
330
3AD
100
AcDbXrecord
280
     1
102
RTVSPropertyOp0
 70
     1
102
RTVSPropertyOp1
 70
     1
102
RTVSPropertyOp2
 70
     1
102
RTVSPropertyOp3
 70
     1
102
RTVSPropertyOp4
 70
     1
102
RTVSPropertyOp5
 70
     1
102
RTVSPropertyOp6
 70
     1
102
RTVSPropertyOp7
 70
     1
102
RTVSPropertyOp8
 70
     1
102
RTVSPropertyOp9
 70
     1
102
RTVSPropertyOp10
 70
     1
102
RTVSPropertyOp11
 70
     1
102
RTVSPropertyOp12
 70
     1
102
RTVSPropertyOp13
 70
     1
102
RTVSPropertyOp14
 70
     1
102
RTVSPropertyOp15
 70
     1
102
RTVSPropertyOp16
 70
     1
102
RTVSPropertyOp17
 70
     1
102
RTVSPropertyOp18
 70
     1
102
RTVSPropertyOp19
 70
     1
102
RTVSPropertyOp20
 70
     1
102
RTVSPropertyOp21
 70
     1
102
RTVSPropertyOp22
 70
     1
102
RTVSPropertyOp23
 70
     1
102
RTVSPropertyOp24
 70
     1
102
RTVSPropertyOp25
 70
     1
102
RTVSPropertyOp26
 70
     1
102
RTVSPropertyOp27
 70
     1
102
RTVSPropertyOp28
 70
     1
102
RTVSPropertyOp29
 70
     1
102
RTVSPropertyOp30
 70
     1
102
RTVSPropertyOp31
 70
     1
102
RTVSPropertyOp32
 70
     1
  0
XRECORD
  5
3B2
102
{ACAD_REACTORS
330
3B1
102
}
330
3B1
100
AcDbXrecord
280
     1
102
RTVSPropertyOp0
 70
     1
102
RTVSPropertyOp1
 70
     1
102
RTVSPropertyOp2
 70
     1
102
RTVSPropertyOp3
 70
     1
102
RTVSPropertyOp4
 70
     1
102
RTVSPropertyOp5
 70
     1
102
RTVSPropertyOp6
 70
     1
102
RTVSPropertyOp7
 70
     1
102
RTVSPropertyOp8
 70
     1
102
RTVSPropertyOp9
 70
     1
102
RTVSPropertyOp10
 70
     1
102
RTVSPropertyOp11
 70
     1
102
RTVSPropertyOp12
 70
     1
102
RTVSPropertyOp13
 70
     1
102
RTVSPropertyOp14
 70
     1
102
RTVSPropertyOp15
 70
     1
102
RTVSPropertyOp16
 70
     1
102
RTVSPropertyOp17
 70
     1
102
RTVSPropertyOp18
 70
     1
102
RTVSPropertyOp19
 70
     1
102
RTVSPropertyOp20
 70
     1
102
RTVSPropertyOp21
 70
     1
102
RTVSPropertyOp22
 70
     1
102
RTVSPropertyOp23
 70
     1
102
RTVSPropertyOp24
 70
     1
102
RTVSPropertyOp25
 70
     1
102
RTVSPropertyOp26
 70
     1
102
RTVSPropertyOp27
 70
     1
102
RTVSPropertyOp28
 70
     1
102
RTVSPropertyOp29
 70
     1
102
RTVSPropertyOp30
 70
     1
102
RTVSPropertyOp31
 70
     1
102
RTVSPropertyOp32
 70
     1
  0
XRECORD
  5
3CC
102
{ACAD_REACTORS
330
3CB
102
}
330
3CB
100
AcDbXrecord
280
     1
102
RTVSPropertyOp0
 70
     0
102
RTVSPropertyOp1
 70
     0
102
RTVSPropertyOp2
 70
     0
102
RTVSPropertyOp3
 70
     0
102
RTVSPropertyOp4
 70
     0
102
RTVSPropertyOp5
 70
     0
102
RTVSPropertyOp6
 70
     0
102
RTVSPropertyOp7
 70
     0
102
RTVSPropertyOp8
 70
     0
102
RTVSPropertyOp9
 70
     0
102
RTVSPropertyOp10
 70
     0
102
RTVSPropertyOp11
 70
     0
102
RTVSPropertyOp12
 70
     0
102
RTVSPropertyOp13
 70
     0
102
RTVSPropertyOp14
 70
     2
102
RTVSPropertyOp15
 70
     0
102
RTVSPropertyOp16
 70
     0
102
RTVSPropertyOp17
 70
     0
102
RTVSPropertyOp18
 70
     0
102
RTVSPropertyOp19
 70
     0
102
RTVSPropertyOp20
 70
     0
102
RTVSPropertyOp21
 70
     0
102
RTVSPropertyOp22
 70
     0
102
RTVSPropertyOp23
 70
     0
102
RTVSPropertyOp24
 70
     0
102
RTVSPropertyOp25
 70
     0
102
RTVSPropertyOp26
 70
     0
102
RTVSPropertyOp27
 70
     0
102
RTVSPropertyOp28
 70
     1
102
RTVSPropertyOp29
 70
     1
102
RTVSPropertyOp30
 70
     1
102
RTVSPropertyOp31
 70
     1
102
RTVSPropertyOp32
 70
     1
  0
XRECORD
  5
3BA
102
{ACAD_REACTORS
330
3B9
102
}
330
3B9
100
AcDbXrecord
280
     1
102
RTVSPropertyOp0
 70
     1
102
RTVSPropertyOp1
 70
     1
102
RTVSPropertyOp2
 70
     1
102
RTVSPropertyOp3
 70
     1
102
RTVSPropertyOp4
 70
     1
102
RTVSPropertyOp5
 70
     1
102
RTVSPropertyOp6
 70
     1
102
RTVSPropertyOp7
 70
     1
102
RTVSPropertyOp8
 70
     1
102
RTVSPropertyOp9
 70
     1
102
RTVSPropertyOp10
 70
     1
102
RTVSPropertyOp11
 70
     1
102
RTVSPropertyOp12
 70
     1
102
RTVSPropertyOp13
 70
     1
102
RTVSPropertyOp14
 70
     1
102
RTVSPropertyOp15
 70
     1
102
RTVSPropertyOp16
 70
     1
102
RTVSPropertyOp17
 70
     1
102
RTVSPropertyOp18
 70
     1
102
RTVSPropertyOp19
 70
     1
102
RTVSPropertyOp20
 70
     1
102
RTVSPropertyOp21
 70
     1
102
RTVSPropertyOp22
 70
     1
102
RTVSPropertyOp23
 70
     1
102
RTVSPropertyOp24
 70
     1
102
RTVSPropertyOp25
 70
     1
102
RTVSPropertyOp26
 70
     1
102
RTVSPropertyOp27
 70
     1
102
RTVSPropertyOp28
 70
     1
102
RTVSPropertyOp29
 70
     1
102
RTVSPropertyOp30
 70
     1
102
RTVSPropertyOp31
 70
     1
102
RTVSPropertyOp32
 70
     1
  0
XRECORD
  5
39E
102
{ACAD_REACTORS
330
39D
102
}
330
39D
100
AcDbXrecord
280
     1
102
RTVSPropertyOp0
 70
     1
102
RTVSPropertyOp1
 70
     1
102
RTVSPropertyOp2
 70
     1
102
RTVSPropertyOp3
 70
     1
102
RTVSPropertyOp4
 70
     1
102
RTVSPropertyOp5
 70
     1
102
RTVSPropertyOp6
 70
     1
102
RTVSPropertyOp7
 70
     1
102
RTVSPropertyOp8
 70
     1
102
RTVSPropertyOp9
 70
     1
102
RTVSPropertyOp10
 70
     1
102
RTVSPropertyOp11
 70
     1
102
RTVSPropertyOp12
 70
     1
102
RTVSPropertyOp13
 70
     1
102
RTVSPropertyOp14
 70
     1
102
RTVSPropertyOp15
 70
     1
102
RTVSPropertyOp16
 70
     1
102
RTVSPropertyOp17
 70
     1
102
RTVSPropertyOp18
 70
     1
102
RTVSPropertyOp19
 70
     1
102
RTVSPropertyOp20
 70
     1
102
RTVSPropertyOp21
 70
     1
102
RTVSPropertyOp22
 70
     1
102
RTVSPropertyOp23
 70
     1
102
RTVSPropertyOp24
 70
     1
102
RTVSPropertyOp25
 70
     1
102
RTVSPropertyOp26
 70
     1
102
RTVSPropertyOp27
 70
     1
102
RTVSPropertyOp28
 70
     1
102
RTVSPropertyOp29
 70
     1
102
RTVSPropertyOp30
 70
     1
102
RTVSPropertyOp31
 70
     1
102
RTVSPropertyOp32
 70
     1
  0
XRECORD
  5
3A0
102
{ACAD_REACTORS
330
39F
102
}
330
39F
100
AcDbXrecord
280
     1
102
RTVSPropertyOp0
 70
     1
102
RTVSPropertyOp1
 70
     1
102
RTVSPropertyOp2
 70
     1
102
RTVSPropertyOp3
 70
     1
102
RTVSPropertyOp4
 70
     1
102
RTVSPropertyOp5
 70
     1
102
RTVSPropertyOp6
 70
     1
102
RTVSPropertyOp7
 70
     1
102
RTVSPropertyOp8
 70
     1
102
RTVSPropertyOp9
 70
     1
102
RTVSPropertyOp10
 70
     1
102
RTVSPropertyOp11
 70
     1
102
RTVSPropertyOp12
 70
     1
102
RTVSPropertyOp13
 70
     1
102
RTVSPropertyOp14
 70
     1
102
RTVSPropertyOp15
 70
     1
102
RTVSPropertyOp16
 70
     1
102
RTVSPropertyOp17
 70
     1
102
RTVSPropertyOp18
 70
     1
102
RTVSPropertyOp19
 70
     1
102
RTVSPropertyOp20
 70
     1
102
RTVSPropertyOp21
 70
     1
102
RTVSPropertyOp22
 70
     1
102
RTVSPropertyOp23
 70
     1
102
RTVSPropertyOp24
 70
     1
102
RTVSPropertyOp25
 70
     1
102
RTVSPropertyOp26
 70
     1
102
RTVSPropertyOp27
 70
     1
102
RTVSPropertyOp28
 70
     1
102
RTVSPropertyOp29
 70
     1
102
RTVSPropertyOp30
 70
     1
102
RTVSPropertyOp31
 70
     1
102
RTVSPropertyOp32
 70
     1
  0
XRECORD
  5
3A2
102
{ACAD_REACTORS
330
3A1
102
}
330
3A1
100
AcDbXrecord
280
     1
102
RTVSPropertyOp0
 70
     1
102
RTVSPropertyOp1
 70
     1
102
RTVSPropertyOp2
 70
     1
102
RTVSPropertyOp3
 70
     1
102
RTVSPropertyOp4
 70
     1
102
RTVSPropertyOp5
 70
     1
102
RTVSPropertyOp6
 70
     1
102
RTVSPropertyOp7
 70
     1
102
RTVSPropertyOp8
 70
     1
102
RTVSPropertyOp9
 70
     1
102
RTVSPropertyOp10
 70
     1
102
RTVSPropertyOp11
 70
     1
102
RTVSPropertyOp12
 70
     1
102
RTVSPropertyOp13
 70
     1
102
RTVSPropertyOp14
 70
     1
102
RTVSPropertyOp15
 70
     1
102
RTVSPropertyOp16
 70
     1
102
RTVSPropertyOp17
 70
     1
102
RTVSPropertyOp18
 70
     1
102
RTVSPropertyOp19
 70
     1
102
RTVSPropertyOp20
 70
     1
102
RTVSPropertyOp21
 70
     1
102
RTVSPropertyOp22
 70
     1
102
RTVSPropertyOp23
 70
     1
102
RTVSPropertyOp24
 70
     1
102
RTVSPropertyOp25
 70
     1
102
RTVSPropertyOp26
 70
     1
102
RTVSPropertyOp27
 70
     1
102
RTVSPropertyOp28
 70
     1
102
RTVSPropertyOp29
 70
     1
102
RTVSPropertyOp30
 70
     1
102
RTVSPropertyOp31
 70
     1
102
RTVSPropertyOp32
 70
     1
  0
XRECORD
  5
3A4
102
{ACAD_REACTORS
330
3A3
102
}
330
3A3
100
AcDbXrecord
280
     1
102
RTVSPropertyOp0
 70
     1
102
RTVSPropertyOp1
 70
     1
102
RTVSPropertyOp2
 70
     1
102
RTVSPropertyOp3
 70
     1
102
RTVSPropertyOp4
 70
     1
102
RTVSPropertyOp5
 70
     1
102
RTVSPropertyOp6
 70
     1
102
RTVSPropertyOp7
 70
     1
102
RTVSPropertyOp8
 70
     1
102
RTVSPropertyOp9
 70
     1
102
RTVSPropertyOp10
 70
     1
102
RTVSPropertyOp11
 70
     1
102
RTVSPropertyOp12
 70
     1
102
RTVSPropertyOp13
 70
     1
102
RTVSPropertyOp14
 70
     1
102
RTVSPropertyOp15
 70
     1
102
RTVSPropertyOp16
 70
     1
102
RTVSPropertyOp17
 70
     1
102
RTVSPropertyOp18
 70
     1
102
RTVSPropertyOp19
 70
     1
102
RTVSPropertyOp20
 70
     1
102
RTVSPropertyOp21
 70
     1
102
RTVSPropertyOp22
 70
     1
102
RTVSPropertyOp23
 70
     1
102
RTVSPropertyOp24
 70
     1
102
RTVSPropertyOp25
 70
     1
102
RTVSPropertyOp26
 70
     1
102
RTVSPropertyOp27
 70
     1
102
RTVSPropertyOp28
 70
     1
102
RTVSPropertyOp29
 70
     1
102
RTVSPropertyOp30
 70
     1
102
RTVSPropertyOp31
 70
     1
102
RTVSPropertyOp32
 70
     1
  0
XRECORD
  5
3AC
102
{ACAD_REACTORS
330
3AB
102
}
330
3AB
100
AcDbXrecord
280
     1
102
RTVSPropertyOp0
 70
     1
102
RTVSPropertyOp1
 70
     1
102
RTVSPropertyOp2
 70
     1
102
RTVSPropertyOp3
 70
     1
102
RTVSPropertyOp4
 70
     1
102
RTVSPropertyOp5
 70
     1
102
RTVSPropertyOp6
 70
     1
102
RTVSPropertyOp7
 70
     1
102
RTVSPropertyOp8
 70
     1
102
RTVSPropertyOp9
 70
     1
102
RTVSPropertyOp10
 70
     1
102
RTVSPropertyOp11
 70
     1
102
RTVSPropertyOp12
 70
     1
102
RTVSPropertyOp13
 70
     1
102
RTVSPropertyOp14
 70
     1
102
RTVSPropertyOp15
 70
     1
102
RTVSPropertyOp16
 70
     1
102
RTVSPropertyOp17
 70
     1
102
RTVSPropertyOp18
 70
     1
102
RTVSPropertyOp19
 70
     1
102
RTVSPropertyOp20
 70
     1
102
RTVSPropertyOp21
 70
     1
102
RTVSPropertyOp22
 70
     1
102
RTVSPropertyOp23
 70
     1
102
RTVSPropertyOp24
 70
     1
102
RTVSPropertyOp25
 70
     1
102
RTVSPropertyOp26
 70
     1
102
RTVSPropertyOp27
 70
     1
102
RTVSPropertyOp28
 70
     1
102
RTVSPropertyOp29
 70
     1
102
RTVSPropertyOp30
 70
     1
102
RTVSPropertyOp31
 70
     1
102
RTVSPropertyOp32
 70
     1
  0
XRECORD
  5
3C8
102
{ACAD_REACTORS
330
3C7
102
}
330
3C7
100
AcDbXrecord
280
     1
102
RTVSPropertyOp0
 70
     0
102
RTVSPropertyOp1
 70
     0
102
RTVSPropertyOp2
 70
     0
102
RTVSPropertyOp3
 70
     0
102
RTVSPropertyOp4
 70
     0
102
RTVSPropertyOp5
 70
     0
102
RTVSPropertyOp6
 70
     0
102
RTVSPropertyOp7
 70
     0
102
RTVSPropertyOp8
 70
     0
102
RTVSPropertyOp9
 70
     0
102
RTVSPropertyOp10
 70
     0
102
RTVSPropertyOp11
 70
     0
102
RTVSPropertyOp12
 70
     0
102
RTVSPropertyOp13
 70
     0
102
RTVSPropertyOp14
 70
     2
102
RTVSPropertyOp15
 70
     0
102
RTVSPropertyOp16
 70
     0
102
RTVSPropertyOp17
 70
     0
102
RTVSPropertyOp18
 70
     0
102
RTVSPropertyOp19
 70
     0
102
RTVSPropertyOp20
 70
     0
102
RTVSPropertyOp21
 70
     0
102
RTVSPropertyOp22
 70
     0
102
RTVSPropertyOp23
 70
     0
102
RTVSPropertyOp24
 70
     0
102
RTVSPropertyOp25
 70
     0
102
RTVSPropertyOp26
 70
     0
102
RTVSPropertyOp27
 70
     0
102
RTVSPropertyOp28
 70
     1
102
RTVSPropertyOp29
 70
     1
102
RTVSPropertyOp30
 70
     1
102
RTVSPropertyOp31
 70
     1
102
RTVSPropertyOp32
 70
     1
  0
XRECORD
  5
3B8
102
{ACAD_REACTORS
330
3B7
102
}
330
3B7
100
AcDbXrecord
280
     1
102
RTVSPropertyOp0
 70
     1
102
RTVSPropertyOp1
 70
     1
102
RTVSPropertyOp2
 70
     1
102
RTVSPropertyOp3
 70
     1
102
RTVSPropertyOp4
 70
     1
102
RTVSPropertyOp5
 70
     1
102
RTVSPropertyOp6
 70
     1
102
RTVSPropertyOp7
 70
     1
102
RTVSPropertyOp8
 70
     1
102
RTVSPropertyOp9
 70
     1
102
RTVSPropertyOp10
 70
     1
102
RTVSPropertyOp11
 70
     1
102
RTVSPropertyOp12
 70
     1
102
RTVSPropertyOp13
 70
     1
102
RTVSPropertyOp14
 70
     1
102
RTVSPropertyOp15
 70
     1
102
RTVSPropertyOp16
 70
     1
102
RTVSPropertyOp17
 70
     1
102
RTVSPropertyOp18
 70
     1
102
RTVSPropertyOp19
 70
     1
102
RTVSPropertyOp20
 70
     1
102
RTVSPropertyOp21
 70
     1
102
RTVSPropertyOp22
 70
     1
102
RTVSPropertyOp23
 70
     1
102
RTVSPropertyOp24
 70
     1
102
RTVSPropertyOp25
 70
     1
102
RTVSPropertyOp26
 70
     1
102
RTVSPropertyOp27
 70
     1
102
RTVSPropertyOp28
 70
     1
102
RTVSPropertyOp29
 70
     1
102
RTVSPropertyOp30
 70
     1
102
RTVSPropertyOp31
 70
     1
102
RTVSPropertyOp32
 70
     1
  0
XRECORD
  5
3CA
102
{ACAD_REACTORS
330
3C9
102
}
330
3C9
100
AcDbXrecord
280
     1
102
RTVSPropertyOp0
 70
     0
102
RTVSPropertyOp1
 70
     0
102
RTVSPropertyOp2
 70
     0
102
RTVSPropertyOp3
 70
     0
102
RTVSPropertyOp4
 70
     0
102
RTVSPropertyOp5
 70
     0
102
RTVSPropertyOp6
 70
     0
102
RTVSPropertyOp7
 70
     0
102
RTVSPropertyOp8
 70
     0
102
RTVSPropertyOp9
 70
     0
102
RTVSPropertyOp10
 70
     0
102
RTVSPropertyOp11
 70
     0
102
RTVSPropertyOp12
 70
     0
102
RTVSPropertyOp13
 70
     0
102
RTVSPropertyOp14
 70
     2
102
RTVSPropertyOp15
 70
     0
102
RTVSPropertyOp16
 70
     0
102
RTVSPropertyOp17
 70
     0
102
RTVSPropertyOp18
 70
     0
102
RTVSPropertyOp19
 70
     0
102
RTVSPropertyOp20
 70
     0
102
RTVSPropertyOp21
 70
     0
102
RTVSPropertyOp22
 70
     0
102
RTVSPropertyOp23
 70
     0
102
RTVSPropertyOp24
 70
     0
102
RTVSPropertyOp25
 70
     0
102
RTVSPropertyOp26
 70
     0
102
RTVSPropertyOp27
 70
     0
102
RTVSPropertyOp28
 70
     1
102
RTVSPropertyOp29
 70
     1
102
RTVSPropertyOp30
 70
     1
102
RTVSPropertyOp31
 70
     1
102
RTVSPropertyOp32
 70
     1
  0
XRECORD
  5
3B0
102
{ACAD_REACTORS
330
3AF
102
}
330
3AF
100
AcDbXrecord
280
     1
102
RTVSPropertyOp0
 70
     1
102
RTVSPropertyOp1
 70
     1
102
RTVSPropertyOp2
 70
     1
102
RTVSPropertyOp3
 70
     1
102
RTVSPropertyOp4
 70
     1
102
RTVSPropertyOp5
 70
     1
102
RTVSPropertyOp6
 70
     1
102
RTVSPropertyOp7
 70
     1
102
RTVSPropertyOp8
 70
     1
102
RTVSPropertyOp9
 70
     1
102
RTVSPropertyOp10
 70
     1
102
RTVSPropertyOp11
 70
     1
102
RTVSPropertyOp12
 70
     1
102
RTVSPropertyOp13
 70
     1
102
RTVSPropertyOp14
 70
     1
102
RTVSPropertyOp15
 70
     1
102
RTVSPropertyOp16
 70
     1
102
RTVSPropertyOp17
 70
     1
102
RTVSPropertyOp18
 70
     1
102
RTVSPropertyOp19
 70
     1
102
RTVSPropertyOp20
 70
     1
102
RTVSPropertyOp21
 70
     1
102
RTVSPropertyOp22
 70
     1
102
RTVSPropertyOp23
 70
     1
102
RTVSPropertyOp24
 70
     1
102
RTVSPropertyOp25
 70
     1
102
RTVSPropertyOp26
 70
     1
102
RTVSPropertyOp27
 70
     1
102
RTVSPropertyOp28
 70
     1
102
RTVSPropertyOp29
 70
     1
102
RTVSPropertyOp30
 70
     1
102
RTVSPropertyOp31
 70
     1
102
RTVSPropertyOp32
 70
     1
  0
XRECORD
  5
3C6
102
{ACAD_REACTORS
330
3C5
102
}
330
3C5
100
AcDbXrecord
280
     1
102
RTVSPropertyOp0
 70
     1
102
RTVSPropertyOp1
 70
     1
102
RTVSPropertyOp2
 70
     1
102
RTVSPropertyOp3
 70
     1
102
RTVSPropertyOp4
 70
     1
102
RTVSPropertyOp5
 70
     1
102
RTVSPropertyOp6
 70
     1
102
RTVSPropertyOp7
 70
     1
102
RTVSPropertyOp8
 70
     1
102
RTVSPropertyOp9
 70
     1
102
RTVSPropertyOp10
 70
     1
102
RTVSPropertyOp11
 70
     1
102
RTVSPropertyOp12
 70
     1
102
RTVSPropertyOp13
 70
     1
102
RTVSPropertyOp14
 70
     1
102
RTVSPropertyOp15
 70
     1
102
RTVSPropertyOp16
 70
     1
102
RTVSPropertyOp17
 70
     1
102
RTVSPropertyOp18
 70
     1
102
RTVSPropertyOp19
 70
     1
102
RTVSPropertyOp20
 70
     1
102
RTVSPropertyOp21
 70
     1
102
RTVSPropertyOp22
 70
     1
102
RTVSPropertyOp23
 70
     1
102
RTVSPropertyOp24
 70
     1
102
RTVSPropertyOp25
 70
     1
102
RTVSPropertyOp26
 70
     1
102
RTVSPropertyOp27
 70
     1
102
RTVSPropertyOp28
 70
     1
102
RTVSPropertyOp29
 70
     1
102
RTVSPropertyOp30
 70
     1
102
RTVSPropertyOp31
 70
     1
102
RTVSPropertyOp32
 70
     1
  0
XRECORD
  5
3C4
102
{ACAD_REACTORS
330
3C3
102
}
330
3C3
100
AcDbXrecord
280
     1
102
RTVSPropertyOp0
 70
     1
102
RTVSPropertyOp1
 70
     1
102
RTVSPropertyOp2
 70
     1
102
RTVSPropertyOp3
 70
     1
102
RTVSPropertyOp4
 70
     1
102
RTVSPropertyOp5
 70
     1
102
RTVSPropertyOp6
 70
     1
102
RTVSPropertyOp7
 70
     1
102
RTVSPropertyOp8
 70
     1
102
RTVSPropertyOp9
 70
     1
102
RTVSPropertyOp10
 70
     1
102
RTVSPropertyOp11
 70
     1
102
RTVSPropertyOp12
 70
     1
102
RTVSPropertyOp13
 70
     1
102
RTVSPropertyOp14
 70
     1
102
RTVSPropertyOp15
 70
     1
102
RTVSPropertyOp16
 70
     1
102
RTVSPropertyOp17
 70
     1
102
RTVSPropertyOp18
 70
     1
102
RTVSPropertyOp19
 70
     1
102
RTVSPropertyOp20
 70
     1
102
RTVSPropertyOp21
 70
     1
102
RTVSPropertyOp22
 70
     1
102
RTVSPropertyOp23
 70
     1
102
RTVSPropertyOp24
 70
     1
102
RTVSPropertyOp25
 70
     1
102
RTVSPropertyOp26
 70
     1
102
RTVSPropertyOp27
 70
     1
102
RTVSPropertyOp28
 70
     1
102
RTVSPropertyOp29
 70
     1
102
RTVSPropertyOp30
 70
     1
102
RTVSPropertyOp31
 70
     1
102
RTVSPropertyOp32
 70
     1
  0
XRECORD
  5
3BE
102
{ACAD_REACTORS
330
3BD
102
}
330
3BD
100
AcDbXrecord
280
     1
102
RTVSPropertyOp0
 70
     1
102
RTVSPropertyOp1
 70
     1
102
RTVSPropertyOp2
 70
     1
102
RTVSPropertyOp3
 70
     1
102
RTVSPropertyOp4
 70
     1
102
RTVSPropertyOp5
 70
     1
102
RTVSPropertyOp6
 70
     1
102
RTVSPropertyOp7
 70
     1
102
RTVSPropertyOp8
 70
     1
102
RTVSPropertyOp9
 70
     1
102
RTVSPropertyOp10
 70
     1
102
RTVSPropertyOp11
 70
     1
102
RTVSPropertyOp12
 70
     1
102
RTVSPropertyOp13
 70
     1
102
RTVSPropertyOp14
 70
     1
102
RTVSPropertyOp15
 70
     1
102
RTVSPropertyOp16
 70
     1
102
RTVSPropertyOp17
 70
     1
102
RTVSPropertyOp18
 70
     1
102
RTVSPropertyOp19
 70
     1
102
RTVSPropertyOp20
 70
     1
102
RTVSPropertyOp21
 70
     1
102
RTVSPropertyOp22
 70
     1
102
RTVSPropertyOp23
 70
     1
102
RTVSPropertyOp24
 70
     1
102
RTVSPropertyOp25
 70
     1
102
RTVSPropertyOp26
 70
     1
102
RTVSPropertyOp27
 70
     1
102
RTVSPropertyOp28
 70
     1
102
RTVSPropertyOp29
 70
     1
102
RTVSPropertyOp30
 70
     1
102
RTVSPropertyOp31
 70
     1
102
RTVSPropertyOp32
 70
     1
  0
XRECORD
  5
3C0
102
{ACAD_REACTORS
330
3BF
102
}
330
3BF
100
AcDbXrecord
280
     1
102
RTVSPropertyOp0
 70
     1
102
RTVSPropertyOp1
 70
     1
102
RTVSPropertyOp2
 70
     1
102
RTVSPropertyOp3
 70
     1
102
RTVSPropertyOp4
 70
     1
102
RTVSPropertyOp5
 70
     1
102
RTVSPropertyOp6
 70
     1
102
RTVSPropertyOp7
 70
     1
102
RTVSPropertyOp8
 70
     1
102
RTVSPropertyOp9
 70
     1
102
RTVSPropertyOp10
 70
     1
102
RTVSPropertyOp11
 70
     1
102
RTVSPropertyOp12
 70
     1
102
RTVSPropertyOp13
 70
     1
102
RTVSPropertyOp14
 70
     1
102
RTVSPropertyOp15
 70
     1
102
RTVSPropertyOp16
 70
     1
102
RTVSPropertyOp17
 70
     1
102
RTVSPropertyOp18
 70
     1
102
RTVSPropertyOp19
 70
     1
102
RTVSPropertyOp20
 70
     1
102
RTVSPropertyOp21
 70
     1
102
RTVSPropertyOp22
 70
     1
102
RTVSPropertyOp23
 70
     1
102
RTVSPropertyOp24
 70
     1
102
RTVSPropertyOp25
 70
     1
102
RTVSPropertyOp26
 70
     1
102
RTVSPropertyOp27
 70
     1
102
RTVSPropertyOp28
 70
     1
102
RTVSPropertyOp29
 70
     1
102
RTVSPropertyOp30
 70
     1
102
RTVSPropertyOp31
 70
     1
102
RTVSPropertyOp32
 70
     1
  0
XRECORD
  5
3B6
102
{ACAD_REACTORS
330
3B5
102
}
330
3B5
100
AcDbXrecord
280
     1
102
RTVSPropertyOp0
 70
     1
102
RTVSPropertyOp1
 70
     1
102
RTVSPropertyOp2
 70
     1
102
RTVSPropertyOp3
 70
     1
102
RTVSPropertyOp4
 70
     1
102
RTVSPropertyOp5
 70
     1
102
RTVSPropertyOp6
 70
     1
102
RTVSPropertyOp7
 70
     1
102
RTVSPropertyOp8
 70
     1
102
RTVSPropertyOp9
 70
     1
102
RTVSPropertyOp10
 70
     1
102
RTVSPropertyOp11
 70
     1
102
RTVSPropertyOp12
 70
     1
102
RTVSPropertyOp13
 70
     1
102
RTVSPropertyOp14
 70
     1
102
RTVSPropertyOp15
 70
     1
102
RTVSPropertyOp16
 70
     1
102
RTVSPropertyOp17
 70
     1
102
RTVSPropertyOp18
 70
     1
102
RTVSPropertyOp19
 70
     1
102
RTVSPropertyOp20
 70
     1
102
RTVSPropertyOp21
 70
     1
102
RTVSPropertyOp22
 70
     1
102
RTVSPropertyOp23
 70
     1
102
RTVSPropertyOp24
 70
     1
102
RTVSPropertyOp25
 70
     1
102
RTVSPropertyOp26
 70
     1
102
RTVSPropertyOp27
 70
     1
102
RTVSPropertyOp28
 70
     1
102
RTVSPropertyOp29
 70
     1
102
RTVSPropertyOp30
 70
     1
102
RTVSPropertyOp31
 70
     1
102
RTVSPropertyOp32
 70
     1
  0
XRECORD
  5
3AA
102
{ACAD_REACTORS
330
3A9
102
}
330
3A9
100
AcDbXrecord
280
     1
102
RTVSPropertyOp0
 70
     1
102
RTVSPropertyOp1
 70
     1
102
RTVSPropertyOp2
 70
     1
102
RTVSPropertyOp3
 70
     1
102
RTVSPropertyOp4
 70
     1
102
RTVSPropertyOp5
 70
     1
102
RTVSPropertyOp6
 70
     1
102
RTVSPropertyOp7
 70
     1
102
RTVSPropertyOp8
 70
     1
102
RTVSPropertyOp9
 70
     1
102
RTVSPropertyOp10
 70
     1
102
RTVSPropertyOp11
 70
     1
102
RTVSPropertyOp12
 70
     1
102
RTVSPropertyOp13
 70
     1
102
RTVSPropertyOp14
 70
     1
102
RTVSPropertyOp15
 70
     1
102
RTVSPropertyOp16
 70
     1
102
RTVSPropertyOp17
 70
     1
102
RTVSPropertyOp18
 70
     1
102
RTVSPropertyOp19
 70
     1
102
RTVSPropertyOp20
 70
     1
102
RTVSPropertyOp21
 70
     1
102
RTVSPropertyOp22
 70
     1
102
RTVSPropertyOp23
 70
     1
102
RTVSPropertyOp24
 70
     1
102
RTVSPropertyOp25
 70
     1
102
RTVSPropertyOp26
 70
     1
102
RTVSPropertyOp27
 70
     1
102
RTVSPropertyOp28
 70
     1
102
RTVSPropertyOp29
 70
     1
102
RTVSPropertyOp30
 70
     1
102
RTVSPropertyOp31
 70
     1
102
RTVSPropertyOp32
 70
     1
  0
XRECORD
  5
3C2
102
{ACAD_REACTORS
330
3C1
102
}
330
3C1
100
AcDbXrecord
280
     1
102
RTVSPropertyOp0
 70
     1
102
RTVSPropertyOp1
 70
     1
102
RTVSPropertyOp2
 70
     1
102
RTVSPropertyOp3
 70
     1
102
RTVSPropertyOp4
 70
     1
102
RTVSPropertyOp5
 70
     1
102
RTVSPropertyOp6
 70
     1
102
RTVSPropertyOp7
 70
     1
102
RTVSPropertyOp8
 70
     1
102
RTVSPropertyOp9
 70
     1
102
RTVSPropertyOp10
 70
     1
102
RTVSPropertyOp11
 70
     1
102
RTVSPropertyOp12
 70
     1
102
RTVSPropertyOp13
 70
     1
102
RTVSPropertyOp14
 70
     1
102
RTVSPropertyOp15
 70
     1
102
RTVSPropertyOp16
 70
     1
102
RTVSPropertyOp17
 70
     1
102
RTVSPropertyOp18
 70
     1
102
RTVSPropertyOp19
 70
     1
102
RTVSPropertyOp20
 70
     1
102
RTVSPropertyOp21
 70
     1
102
RTVSPropertyOp22
 70
     1
102
RTVSPropertyOp23
 70
     1
102
RTVSPropertyOp24
 70
     1
102
RTVSPropertyOp25
 70
     1
102
RTVSPropertyOp26
 70
     1
102
RTVSPropertyOp27
 70
     1
102
RTVSPropertyOp28
 70
     1
102
RTVSPropertyOp29
 70
     1
102
RTVSPropertyOp30
 70
     1
102
RTVSPropertyOp31
 70
     1
102
RTVSPropertyOp32
 70
     1
  0
ENDSEC
  0
EOF
