  0
SECTION
  2
HEADER
  9
$ACADVER
  1
AC1015
  9
$ACADMAINTVER
 70
    20
  9
$DWGCODEPAGE
  3
ANSI_1252
  9
$INSBASE
 10
0.0
 20
0.0
 30
0.0
  9
$EXTMIN
 10
0.4999999999999984
 20
0.4999999999999984
 30
0.0
  9
$EXTMAX
 10
21.5
 20
16.49999999999999
 30
0.0
  9
$LIMMIN
 10
0.0
 20
0.0
  9
$LIMMAX
 10
22.0
 20
17.0
  9
$ORTHOMODE
 70
     0
  9
$REGENMODE
 70
     1
  9
$FILLMODE
 70
     1
  9
$QTEXTMODE
 70
     0
  9
$MIRRTEXT
 70
     0
  9
$LTSCALE
 40
1.0
  9
$ATTMODE
 70
     1
  9
$TEXTSIZE
 40
0.2
  9
$TRACEWID
 40
0.05
  9
$TEXTSTYLE
  7
Standard
  9
$CLAYER
  8
0
  9
$CELTYPE
  6
ByLayer
  9
$CECOLOR
 62
   256
  9
$CELTSCALE
 40
1.0
  9
$DISPSILH
 70
     0
  9
$DIMSCALE
 40
1.0
  9
$DIMASZ
 40
0.0708661417322835
  9
$DIMEXO
 40
0.0625
  9
$DIMDLI
 40
0.38
  9
$DIMRND
 40
0.0
  9
$DIMDLE
 40
0.0
  9
$DIMEXE
 40
0.18
  9
$DIMTP
 40
0.0
  9
$DIMTM
 40
0.0
  9
$DIMTXT
 40
0.0708661417322835
  9
$DIMCEN
 40
0.09
  9
$DIMTSZ
 40
0.0
  9
$DIMTOL
 70
     0
  9
$DIMLIM
 70
     0
  9
$DIMTIH
 70
     1
  9
$DIMTOH
 70
     1
  9
$DIMSE1
 70
     0
  9
$DIMSE2
 70
     0
  9
$DIMTAD
 70
     0
  9
$DIMZIN
 70
     0
  9
$DIMBLK
  1

  9
$DIMASO
 70
     1
  9
$DIMSHO
 70
     1
  9
$DIMPOST
  1

  9
$DIMAPOST
  1

  9
$DIMALT
 70
     0
  9
$DIMALTD
 70
     2
  9
$DIMALTF
 40
25.4
  9
$DIMLFAC
 40
1.0
  9
$DIMTOFL
 70
     0
  9
$DIMTVP
 40
0.0
  9
$DIMTIX
 70
     0
  9
$DIMSOXD
 70
     0
  9
$DIMSAH
 70
     0
  9
$DIMBLK1
  1

  9
$DIMBLK2
  1

  9
$DIMSTYLE
  2
Standard
  9
$DIMCLRD
 70
     0
  9
$DIMCLRE
 70
     0
  9
$DIMCLRT
 70
     0
  9
$DIMTFAC
 40
1.0
  9
$DIMGAP
 40
0.09
  9
$DIMJUST
 70
     0
  9
$DIMSD1
 70
     0
  9
$DIMSD2
 70
     0
  9
$DIMTOLJ
 70
     1
  9
$DIMTZIN
 70
     0
  9
$DIMALTZ
 70
     0
  9
$DIMALTTZ
 70
     0
  9
$DIMUPT
 70
     0
  9
$DIMDEC
 70
     4
  9
$DIMTDEC
 70
     4
  9
$DIMALTU
 70
     2
  9
$DIMALTTD
 70
     2
  9
$DIMTXSTY
  7
Standard
  9
$DIMAUNIT
 70
     0
  9
$DIMADEC
 70
     0
  9
$DIMALTRND
 40
0.0
  9
$DIMAZIN
 70
     0
  9
$DIMDSEP
 70
    46
  9
$DIMATFIT
 70
     3
  9
$DIMFRAC
 70
     0
  9
$DIMLDRBLK
  1

  9
$DIMLUNIT
 70
     2
  9
$DIMLWD
 70
    -2
  9
$DIMLWE
 70
    -2
  9
$DIMTMOVE
 70
     0
  9
$LUNITS
 70
     2
  9
$LUPREC
 70
     4
  9
$SKETCHINC
 40
0.1
  9
$FILLETRAD
 40
0.0
  9
$AUNITS
 70
     0
  9
$AUPREC
 70
     0
  9
$MENU
  1
.
  9
$ELEVATION
 40
0.0
  9
$PELEVATION
 40
0.0
  9
$THICKNESS
 40
0.0
  9
$LIMCHECK
 70
     0
  9
$CHAMFERA
 40
0.0
  9
$CHAMFERB
 40
0.0
  9
$CHAMFERC
 40
0.0
  9
$CHAMFERD
 40
0.0
  9
$SKPOLY
 70
     0
  9
$TDCREATE
 40
2456038.568295451
  9
$TDUCREATE
 40
2456038.859962118
  9
$TDUPDATE
 40
2456038.590325185
  9
$TDUUPDATE
 40
2456038.881991852
  9
$TDINDWG
 40
0.0010137037
  9
$TDUSRTIMER
 40
0.0010137037
  9
$USRTIMER
 70
     1
  9
$ANGBASE
 50
0.0
  9
$ANGDIR
 70
     0
  9
$PDMODE
 70
     0
  9
$PDSIZE
 40
0.0
  9
$PLINEWID
 40
0.0
  9
$SPLFRAME
 70
     0
  9
$SPLINETYPE
 70
     6
  9
$SPLINESEGS
 70
     8
  9
$HANDSEED
  5
2BB
  9
$SURFTAB1
 70
     6
  9
$SURFTAB2
 70
     6
  9
$SURFTYPE
 70
     6
  9
$SURFU
 70
     6
  9
$SURFV
 70
     6
  9
$UCSBASE
  2

  9
$UCSNAME
  2

  9
$UCSORG
 10
0.0
 20
0.0
 30
0.0
  9
$UCSXDIR
 10
1.0
 20
0.0
 30
0.0
  9
$UCSYDIR
 10
0.0
 20
1.0
 30
0.0
  9
$UCSORTHOREF
  2

  9
$UCSORTHOVIEW
 70
     0
  9
$UCSORGTOP
 10
0.0
 20
0.0
 30
0.0
  9
$UCSORGBOTTOM
 10
0.0
 20
0.0
 30
0.0
  9
$UCSORGLEFT
 10
0.0
 20
0.0
 30
0.0
  9
$UCSORGRIGHT
 10
0.0
 20
0.0
 30
0.0
  9
$UCSORGFRONT
 10
0.0
 20
0.0
 30
0.0
  9
$UCSORGBACK
 10
0.0
 20
0.0
 30
0.0
  9
$PUCSBASE
  2

  9
$PUCSNAME
  2

  9
$PUCSORG
 10
0.0
 20
0.0
 30
0.0
  9
$PUCSXDIR
 10
1.0
 20
0.0
 30
0.0
  9
$PUCSYDIR
 10
0.0
 20
1.0
 30
0.0
  9
$PUCSORTHOREF
  2

  9
$PUCSORTHOVIEW
 70
     0
  9
$PUCSORGTOP
 10
0.0
 20
0.0
 30
0.0
  9
$PUCSORGBOTTOM
 10
0.0
 20
0.0
 30
0.0
  9
$PUCSORGLEFT
 10
0.0
 20
0.0
 30
0.0
  9
$PUCSORGRIGHT
 10
0.0
 20
0.0
 30
0.0
  9
$PUCSORGFRONT
 10
0.0
 20
0.0
 30
0.0
  9
$PUCSORGBACK
 10
0.0
 20
0.0
 30
0.0
  9
$USERI1
 70
     0
  9
$USERI2
 70
     0
  9
$USERI3
 70
     0
  9
$USERI4
 70
     0
  9
$USERI5
 70
     0
  9
$USERR1
 40
0.0
  9
$USERR2
 40
0.0
  9
$USERR3
 40
0.0
  9
$USERR4
 40
0.0
  9
$USERR5
 40
0.0
  9
$WORLDVIEW
 70
     1
  9
$SHADEDGE
 70
     3
  9
$SHADEDIF
 70
    70
  9
$TILEMODE
 70
     1
  9
$MAXACTVP
 70
    64
  9
$PINSBASE
 10
0.0
 20
0.0
 30
0.0
  9
$PLIMCHECK
 70
     0
  9
$PEXTMIN
 10
0.0
 20
0.0
 30
0.0
  9
$PEXTMAX
 10
22.0
 20
17.0
 30
0.0
  9
$PLIMMIN
 10
0.0
 20
0.0
  9
$PLIMMAX
 10
22.0
 20
17.0
  9
$UNITMODE
 70
     0
  9
$VISRETAIN
 70
     1
  9
$PLINEGEN
 70
     0
  9
$PSLTSCALE
 70
     1
  9
$TREEDEPTH
 70
  3020
  9
$CMLSTYLE
  2
Standard
  9
$CMLJUST
 70
     0
  9
$CMLSCALE
 40
1.0
  9
$PROXYGRAPHICS
 70
     1
  9
$MEASUREMENT
 70
     0
  9
$CELWEIGHT
370
    -1
  9
$ENDCAPS
280
     0
  9
$JOINSTYLE
280
     0
  9
$LWDISPLAY
290
     0
  9
$INSUNITS
 70
     1
  9
$HYPERLINKBASE
  1

  9
$STYLESHEET
  1

  9
$XEDIT
290
     1
  9
$CEPSNTYPE
380
     0
  9
$PSTYLEMODE
290
     1
  9
$FINGERPRINTGUID
  2
{0B6A8FC5-DBE0-4C87-8CEE-0AB4C4B4C415}
  9
$VERSIONGUID
  2
{0F07AF61-7B9C-4507-8EF4-BC5A538F6241}
  9
$EXTNAMES
290
     1
  9
$PSVPSCALE
 40
0.0
  9
$OLESTARTUP
290
     0
  0
ENDSEC
  0
SECTION
  2
CLASSES
  0
CLASS
  1
ACDBDICTIONARYWDFLT
  2
AcDbDictionaryWithDefault
  3
ObjectDBX Classes
 90
        0
280
     0
281
     0
  0
CLASS
  1
MATERIAL
  2
AcDbMaterial
  3
ObjectDBX Classes
 90
     1153
280
     0
281
     0
  0
CLASS
  1
VISUALSTYLE
  2
AcDbVisualStyle
  3
ObjectDBX Classes
 90
     4095
280
     0
281
     0
  0
CLASS
  1
SCALE
  2
AcDbScale
  3
ObjectDBX Classes
 90
     1153
280
     0
281
     0
  0
CLASS
  1
TABLESTYLE
  2
AcDbTableStyle
  3
ObjectDBX Classes
 90
     4095
280
     0
281
     0
  0
CLASS
  1
MLEADERSTYLE
  2
AcDbMLeaderStyle
  3
ACDB_MLEADERSTYLE_CLASS
 90
     4095
280
     0
281
     0
  0
CLASS
  1
DICTIONARYVAR
  2
AcDbDictionaryVar
  3
ObjectDBX Classes
 90
        0
280
     0
281
     0
  0
CLASS
  1
CELLSTYLEMAP
  2
AcDbCellStyleMap
  3
ObjectDBX Classes
 90
     1152
280
     0
281
     0
  0
CLASS
  1
ACDBPLACEHOLDER
  2
AcDbPlaceHolder
  3
ObjectDBX Classes
 90
        0
280
     0
281
     0
  0
CLASS
  1
LAYOUT
  2
AcDbLayout
  3
ObjectDBX Classes
 90
        0
280
     0
281
     0
  0
ENDSEC
  0
SECTION
  2
TABLES
  0
TABLE
  2
VPORT
  5
8
102
{ACAD_XDICTIONARY
360
22E
102
}
330
0
100
AcDbSymbolTable
 70
     1
  0
VPORT
  5
57
330
8
100
AcDbSymbolTableRecord
100
AcDbViewportTableRecord
  2
*Active
 70
     0
 10
0.0
 20
0.0
 11
1.0
 21
1.0
 12
17.8754889178618
 22
8.5
 13
0.0
 23
0.0
 14
1.0
 24
1.0
 15
0.0
 25
0.0
 16
0.0
 26
0.0
 36
1.0
 17
0.0
 27
0.0
 37
0.0
 40
17.01162071390168
 41
2.102998696219035
 42
50.0
 43
0.0
 44
0.0
 50
0.0
 51
0.0
 71
     0
 72
   100
 73
     1
 74
     1
 75
     0
 76
     0
 77
     0
 78
     0
281
     0
 65
     1
110
0.0
120
0.0
130
0.0
111
1.0
121
0.0
131
0.0
112
0.0
122
1.0
132
0.0
 79
     0
146
0.0
1001
ACAD_NAV_VCDISPLAY
1070
     3
  0
ENDTAB
  0
TABLE
  2
LTYPE
  5
5
330
0
100
AcDbSymbolTable
 70
    59
  0
LTYPE
  5
5B
330
5
100
AcDbSymbolTableRecord
100
AcDbLinetypeTableRecord
  2
ByBlock
 70
     0
  3

 72
    65
 73
     0
 40
0.0
  0
LTYPE
  5
5C
330
5
100
AcDbSymbolTableRecord
100
AcDbLinetypeTableRecord
  2
ByLayer
 70
     0
  3

 72
    65
 73
     0
 40
0.0
  0
LTYPE
  5
5D
330
5
100
AcDbSymbolTableRecord
100
AcDbLinetypeTableRecord
  2
Continuous
 70
     0
  3
Solid line
 72
    65
 73
     0
 40
0.0
  0
LTYPE
  5
7C
330
5
100
AcDbSymbolTableRecord
100
AcDbLinetypeTableRecord
  2
BY_STANDARD
 70
     0
  3
By Standard ____________    ____    ____   _
 72
    65
 73
     6
 40
1.240299999999999
 49
0.6614
 74
     0
 49
-0.0827
 74
     0
 49
0.1654
 74
     0
 49
-0.0827
 74
     0
 49
0.1654
 74
     0
 49
-0.0827
 74
     0
  0
LTYPE
  5
7D
330
5
100
AcDbSymbolTableRecord
100
AcDbLinetypeTableRecord
  2
CHAIN
 70
     0
  3
Chain ____ _ ____ _ ____ _ ____ _ ____ _ ____
 72
    65
 73
     4
 40
0.7087
 49
0.4724000000000001
 74
     0
 49
-0.0591
 74
     0
 49
0.1181
 74
     0
 49
-0.0591
 74
     0
  0
LTYPE
  5
7E
330
5
100
AcDbSymbolTableRecord
100
AcDbLinetypeTableRecord
  2
DASH_DOT
 70
     0
  3
Dash dot __ . __ . __ . __ . __ . __ . __ . __
 72
    65
 73
     4
 40
0.37
 49
0.24
 74
     0
 49
-0.06
 74
     0
 49
0.01
 74
     0
 49
-0.06
 74
     0
  0
LTYPE
  5
7F
330
5
100
AcDbSymbolTableRecord
100
AcDbLinetypeTableRecord
  2
DOUBLE_DASH_DOT
 70
     0
  3
Double-Dash Dot __ __ . __ __ . __ __ . __ _
 72
    65
 73
     6
 40
0.4398
 49
0.24
 74
     0
 49
-0.06
 74
     0
 49
0.0098
 74
     0
 49
-0.06
 74
     0
 49
0.01
 74
     0
 49
-0.06
 74
     0
  0
LTYPE
  5
80
330
5
100
AcDbSymbolTableRecord
100
AcDbLinetypeTableRecord
  2
DASH_TRIPLE_DOT
 70
     0
  3
Dash Triple-Dot _ . . . _ . . . _ . . . _
 72
    65
 73
     8
 40
0.51
 49
0.24
 74
     0
 49
-0.06
 74
     0
 49
0.01
 74
     0
 49
-0.06
 74
     0
 49
0.01
 74
     0
 49
-0.06
 74
     0
 49
0.01
 74
     0
 49
-0.06
 74
     0
  0
LTYPE
  5
81
330
5
100
AcDbSymbolTableRecord
100
AcDbLinetypeTableRecord
  2
DASHED
 70
     0
  3
Dashed __ __ __ __ __ __ __ __ __ __ __ __ __ _
 72
    65
 73
     2
 40
0.2067
 49
0.1654
 74
     0
 49
-0.0413
 74
     0
  0
LTYPE
  5
82
330
5
100
AcDbSymbolTableRecord
100
AcDbLinetypeTableRecord
  2
DASH_DOUBLE_DOT
 70
     0
  3
Dash Double-Dot __ . . __ . . __ . . __ . .
 72
    65
 73
     6
 40
0.4398
 49
0.24
 74
     0
 49
-0.06
 74
     0
 49
0.0098
 74
     0
 49
-0.06
 74
     0
 49
0.01
 74
     0
 49
-0.06
 74
     0
  0
LTYPE
  5
83
330
5
100
AcDbSymbolTableRecord
100
AcDbLinetypeTableRecord
  2
DASHED_SPACE
 70
     0
  3
Dashed Space __ __ __ __ __ __ __ __ __ __ __ _
 72
    65
 73
     2
 40
0.2067
 49
0.1654
 74
     0
 49
-0.0413
 74
     0
  0
LTYPE
  5
84
330
5
100
AcDbSymbolTableRecord
100
AcDbLinetypeTableRecord
  2
DOTTED
 70
     0
  3
Dotted . . . . . . . . . . . . . . . . . . . . 
 72
    65
 73
     2
 40
0.0482
 49
0.0069
 74
     0
 49
-0.0413
 74
     0
  0
LTYPE
  5
85
330
5
100
AcDbSymbolTableRecord
100
AcDbLinetypeTableRecord
  2
DOUBLE_DASH_CHAIN
 70
     0
  3
Double-Dash Chain ______  __  __  ______  __  _
 72
    65
 73
     6
 40
1.240299999999999
 49
0.6614
 74
     0
 49
-0.0827
 74
     0
 49
0.1654
 74
     0
 49
-0.0827
 74
     0
 49
0.1654
 74
     0
 49
-0.0827
 74
     0
  0
LTYPE
  5
87
330
5
100
AcDbSymbolTableRecord
100
AcDbLinetypeTableRecord
  2
DOUBLE_DASH_DOUBLE_DOT
 70
     0
  3
Double-Dash Double-dot _ _ . . _ _ . . _
 72
    65
 73
     8
 40
0.7400000000000001
 49
0.24
 74
     0
 49
-0.06
 74
     0
 49
0.24
 74
     0
 49
-0.06
 74
     0
 49
0.01
 74
     0
 49
-0.06
 74
     0
 49
0.01
 74
     0
 49
-0.06
 74
     0
  0
LTYPE
  5
88
330
5
100
AcDbSymbolTableRecord
100
AcDbLinetypeTableRecord
  2
DOUBLE_DASH_TRIPLE_DOT
 70
     0
  3
Double Dash Triple Dot __ __ . . . __ __ . .
 72
    65
 73
    10
 40
0.8100000000000001
 49
0.24
 74
     0
 49
-0.06
 74
     0
 49
0.24
 74
     0
 49
-0.06
 74
     0
 49
0.01
 74
     0
 49
-0.06
 74
     0
 49
0.01
 74
     0
 49
-0.06
 74
     0
 49
0.01
 74
     0
 49
-0.06
 74
     0
  0
LTYPE
  5
89
330
5
100
AcDbSymbolTableRecord
100
AcDbLinetypeTableRecord
  2
LONG_DASH_DOTTED
 70
     0
  3
Long Dash Dotted ____ . ____ . ____ . ____ . _
 72
    65
 73
     4
 40
0.3543
 49
0.2362
 74
     0
 49
-0.0295
 74
     0
 49
0.0591
 74
     0
 49
-0.0295
 74
     0
  0
LTYPE
  5
8A
330
5
100
AcDbSymbolTableRecord
100
AcDbLinetypeTableRecord
  2
LONG_DASH_DOUBLE_DOT
 70
     0
  3
Long Dash Double Dot ________  .  .  ________  
 72
    65
 73
     6
 40
0.6799999999999999
 49
0.48
 74
     0
 49
-0.06
 74
     0
 49
0.01
 74
     0
 49
-0.06
 74
     0
 49
0.01
 74
     0
 49
-0.06
 74
     0
  0
LTYPE
  5
8B
330
5
100
AcDbSymbolTableRecord
100
AcDbLinetypeTableRecord
  2
LONG_DASH_TRIPLE_DOT
 70
     0
  3
Long Dash Triple Dot ____ ... ____ ... ____
 72
    65
 73
     8
 40
0.3689
 49
0.2362
 74
     0
 49
-0.0295
 74
     0
 49
0.0049
 74
     0
 49
-0.0295
 74
     0
 49
0.0049
 74
     0
 49
-0.0295
 74
     0
 49
0.0049
 74
     0
 49
-0.0295
 74
     0
  0
LTYPE
  5
8C
330
5
100
AcDbSymbolTableRecord
100
AcDbLinetypeTableRecord
  2
BORDER
 70
     0
  3
Border __ __ . __ __ . __ __ . __ __ . __ __ .
 72
    65
 73
     6
 40
1.75
 49
0.5
 74
     0
 49
-0.25
 74
     0
 49
0.5
 74
     0
 49
-0.25
 74
     0
 49
0.0
 74
     0
 49
-0.25
 74
     0
  0
LTYPE
  5
8D
330
5
100
AcDbSymbolTableRecord
100
AcDbLinetypeTableRecord
  2
BORDER2
 70
     0
  3
Border (.5x) __.__.__.__.__.__.__.__.__.__.__.
 72
    65
 73
     6
 40
0.875
 49
0.25
 74
     0
 49
-0.125
 74
     0
 49
0.25
 74
     0
 49
-0.125
 74
     0
 49
0.0
 74
     0
 49
-0.125
 74
     0
  0
LTYPE
  5
8E
330
5
100
AcDbSymbolTableRecord
100
AcDbLinetypeTableRecord
  2
BORDERX2
 70
     0
  3
Border (2x) ____  ____  .  ____  ____  .  ___
 72
    65
 73
     6
 40
3.5
 49
1.0
 74
     0
 49
-0.5
 74
     0
 49
1.0
 74
     0
 49
-0.5
 74
     0
 49
0.0
 74
     0
 49
-0.5
 74
     0
  0
LTYPE
  5
8F
330
5
100
AcDbSymbolTableRecord
100
AcDbLinetypeTableRecord
  2
CENTER
 70
     0
  3
Center ____ _ ____ _ ____ _ ____ _ ____ _ ____
 72
    65
 73
     4
 40
2.0
 49
1.25
 74
     0
 49
-0.25
 74
     0
 49
0.25
 74
     0
 49
-0.25
 74
     0
  0
LTYPE
  5
90
330
5
100
AcDbSymbolTableRecord
100
AcDbLinetypeTableRecord
  2
CENTER2
 70
     0
  3
Center (.5x) ___ _ ___ _ ___ _ ___ _ ___ _ ___
 72
    65
 73
     4
 40
1.125
 49
0.75
 74
     0
 49
-0.125
 74
     0
 49
0.125
 74
     0
 49
-0.125
 74
     0
  0
LTYPE
  5
91
330
5
100
AcDbSymbolTableRecord
100
AcDbLinetypeTableRecord
  2
CENTERX2
 70
     0
  3
Center (2x) ________  __  ________  __  _____
 72
    65
 73
     4
 40
4.0
 49
2.5
 74
     0
 49
-0.5
 74
     0
 49
0.5
 74
     0
 49
-0.5
 74
     0
  0
LTYPE
  5
92
330
5
100
AcDbSymbolTableRecord
100
AcDbLinetypeTableRecord
  2
DASHDOT2
 70
     0
  3
Dash dot (.5x) _._._._._._._._._._._._._._._.
 72
    65
 73
     4
 40
0.5
 49
0.25
 74
     0
 49
-0.125
 74
     0
 49
0.0
 74
     0
 49
-0.125
 74
     0
  0
LTYPE
  5
93
330
5
100
AcDbSymbolTableRecord
100
AcDbLinetypeTableRecord
  2
DASHDOTX2
 70
     0
  3
Dash dot (2x) ____  .  ____  .  ____  .  ___
 72
    65
 73
     4
 40
2.0
 49
1.0
 74
     0
 49
-0.5
 74
     0
 49
0.0
 74
     0
 49
-0.5
 74
     0
  0
LTYPE
  5
95
330
5
100
AcDbSymbolTableRecord
100
AcDbLinetypeTableRecord
  2
DASHED2
 70
     0
  3
Dashed (.5x) _ _ _ _ _ _ _ _ _ _ _ _ _ _ _ _ _
 72
    65
 73
     2
 40
0.375
 49
0.25
 74
     0
 49
-0.125
 74
     0
  0
LTYPE
  5
96
330
5
100
AcDbSymbolTableRecord
100
AcDbLinetypeTableRecord
  2
DASHEDX2
 70
     0
  3
Dashed (2x) ____  ____  ____  ____  ____  ___
 72
    65
 73
     2
 40
1.5
 49
1.0
 74
     0
 49
-0.5
 74
     0
  0
LTYPE
  5
97
330
5
100
AcDbSymbolTableRecord
100
AcDbLinetypeTableRecord
  2
DIVIDE
 70
     0
  3
Divide ____ . . ____ . . ____ . . ____ . . ____
 72
    65
 73
     6
 40
1.25
 49
0.5
 74
     0
 49
-0.25
 74
     0
 49
0.0
 74
     0
 49
-0.25
 74
     0
 49
0.0
 74
     0
 49
-0.25
 74
     0
  0
LTYPE
  5
98
330
5
100
AcDbSymbolTableRecord
100
AcDbLinetypeTableRecord
  2
DIVIDE2
 70
     0
  3
Divide (.5x) __..__..__..__..__..__..__..__.._
 72
    65
 73
     6
 40
0.625
 49
0.25
 74
     0
 49
-0.125
 74
     0
 49
0.0
 74
     0
 49
-0.125
 74
     0
 49
0.0
 74
     0
 49
-0.125
 74
     0
  0
LTYPE
  5
99
330
5
100
AcDbSymbolTableRecord
100
AcDbLinetypeTableRecord
  2
DIVIDEX2
 70
     0
  3
Divide (2x) ________  .  .  ________  .  .  _
 72
    65
 73
     6
 40
2.5
 49
1.0
 74
     0
 49
-0.5
 74
     0
 49
0.0
 74
     0
 49
-0.5
 74
     0
 49
0.0
 74
     0
 49
-0.5
 74
     0
  0
LTYPE
  5
9A
330
5
100
AcDbSymbolTableRecord
100
AcDbLinetypeTableRecord
  2
DOT
 70
     0
  3
Dot . . . . . . . . . . . . . . . . . . . . . .
 72
    65
 73
     2
 40
0.25
 49
0.0
 74
     0
 49
-0.25
 74
     0
  0
LTYPE
  5
9B
330
5
100
AcDbSymbolTableRecord
100
AcDbLinetypeTableRecord
  2
DOT2
 70
     0
  3
Dot (.5x) .....................................
 72
    65
 73
     2
 40
0.125
 49
0.0
 74
     0
 49
-0.125
 74
     0
  0
LTYPE
  5
9C
330
5
100
AcDbSymbolTableRecord
100
AcDbLinetypeTableRecord
  2
DOTX2
 70
     0
  3
Dot (2x) .  .  .  .  .  .  .  .  .  .  .  .  . 
 72
    65
 73
     2
 40
0.5
 49
0.0
 74
     0
 49
-0.5
 74
     0
  0
LTYPE
  5
9D
330
5
100
AcDbSymbolTableRecord
100
AcDbLinetypeTableRecord
  2
HIDDEN
 70
     0
  3
Hidden __ __ __ __ __ __ __ __ __ __ __ __ __ _
 72
    65
 73
     2
 40
0.375
 49
0.25
 74
     0
 49
-0.125
 74
     0
  0
LTYPE
  5
9E
330
5
100
AcDbSymbolTableRecord
100
AcDbLinetypeTableRecord
  2
HIDDEN2
 70
     0
  3
Hidden (.5x) _ _ _ _ _ _ _ _ _ _ _ _ _ _ _ _ _
 72
    65
 73
     2
 40
0.1875
 49
0.125
 74
     0
 49
-0.0625
 74
     0
  0
LTYPE
  5
9F
330
5
100
AcDbSymbolTableRecord
100
AcDbLinetypeTableRecord
  2
HIDDENX2
 70
     0
  3
Hidden (2x) ____ ____ ____ ____ ____ ____ ____
 72
    65
 73
     2
 40
0.75
 49
0.5
 74
     0
 49
-0.25
 74
     0
  0
LTYPE
  5
A0
330
5
100
AcDbSymbolTableRecord
100
AcDbLinetypeTableRecord
  2
PHANTOM
 70
     0
  3
Phantom ______  __  __  ______  __  __  ______
 72
    65
 73
     6
 40
2.5
 49
1.25
 74
     0
 49
-0.25
 74
     0
 49
0.25
 74
     0
 49
-0.25
 74
     0
 49
0.25
 74
     0
 49
-0.25
 74
     0
  0
LTYPE
  5
A1
330
5
100
AcDbSymbolTableRecord
100
AcDbLinetypeTableRecord
  2
PHANTOM2
 70
     0
  3
Phantom (.5x) ___ _ _ ___ _ _ ___ _ _ ___ _ _
 72
    65
 73
     6
 40
1.25
 49
0.625
 74
     0
 49
-0.125
 74
     0
 49
0.125
 74
     0
 49
-0.125
 74
     0
 49
0.125
 74
     0
 49
-0.125
 74
     0
  0
LTYPE
  5
A2
330
5
100
AcDbSymbolTableRecord
100
AcDbLinetypeTableRecord
  2
PHANTOMX2
 70
     0
  3
Phantom (2x) ____________    ____    ____   _
 72
    65
 73
     6
 40
5.0
 49
2.5
 74
     0
 49
-0.5
 74
     0
 49
0.5
 74
     0
 49
-0.5
 74
     0
 49
0.5
 74
     0
 49
-0.5
 74
     0
  0
LTYPE
  5
A3
330
5
100
AcDbSymbolTableRecord
100
AcDbLinetypeTableRecord
  2
ACAD_ISO02W100
 70
     0
  3
ISO dash __ __ __ __ __ __ __ __ __ __ __ __ __
 72
    65
 73
     2
 40
0.59
 49
0.47
 74
     0
 49
-0.12
 74
     0
  0
LTYPE
  5
A4
330
5
100
AcDbSymbolTableRecord
100
AcDbLinetypeTableRecord
  2
ACAD_ISO03W100
 70
     0
  3
ISO dash space __    __    __    __    __    __
 72
    65
 73
     2
 40
1.179999999999999
 49
0.47
 74
     0
 49
-0.71
 74
     0
  0
LTYPE
  5
A5
330
5
100
AcDbSymbolTableRecord
100
AcDbLinetypeTableRecord
  2
ACAD_ISO04W100
 70
     0
  3
ISO long-dash dot ____ . ____ . ____ . ____ . _
 72
    65
 73
     4
 40
1.179999999999999
 49
0.9399999999999998
 74
     0
 49
-0.12
 74
     0
 49
0.0
 74
     0
 49
-0.12
 74
     0
  0
LTYPE
  5
A6
330
5
100
AcDbSymbolTableRecord
100
AcDbLinetypeTableRecord
  2
ACAD_ISO05W100
 70
     0
  3
ISO long-dash double-dot ____ .. ____ .. ____ .
 72
    65
 73
     6
 40
1.299999999999999
 49
0.9399999999999998
 74
     0
 49
-0.12
 74
     0
 49
0.0
 74
     0
 49
-0.12
 74
     0
 49
0.0
 74
     0
 49
-0.12
 74
     0
  0
LTYPE
  5
A7
330
5
100
AcDbSymbolTableRecord
100
AcDbLinetypeTableRecord
  2
ACAD_ISO06W100
 70
     0
  3
ISO long-dash triple-dot ____ ... ____ ... ____
 72
    65
 73
     8
 40
1.419999999999999
 49
0.9399999999999998
 74
     0
 49
-0.12
 74
     0
 49
0.0
 74
     0
 49
-0.12
 74
     0
 49
0.0
 74
     0
 49
-0.12
 74
     0
 49
0.0
 74
     0
 49
-0.12
 74
     0
  0
LTYPE
  5
A8
330
5
100
AcDbSymbolTableRecord
100
AcDbLinetypeTableRecord
  2
ACAD_ISO07W100
 70
     0
  3
ISO dot . . . . . . . . . . . . . . . . . . . .
 72
    65
 73
     2
 40
0.12
 49
0.0
 74
     0
 49
-0.12
 74
     0
  0
LTYPE
  5
A9
330
5
100
AcDbSymbolTableRecord
100
AcDbLinetypeTableRecord
  2
ACAD_ISO08W100
 70
     0
  3
ISO long-dash short-dash ____ __ ____ __ ____ _
 72
    65
 73
     4
 40
0.95
 49
0.47
 74
     0
 49
-0.12
 74
     0
 49
0.24
 74
     0
 49
-0.12
 74
     0
  0
LTYPE
  5
AA
330
5
100
AcDbSymbolTableRecord
100
AcDbLinetypeTableRecord
  2
ACAD_ISO09W100
 70
     0
  3
ISO long-dash double-short-dash ____ __ __ ____
 72
    65
 73
     6
 40
1.31
 49
0.47
 74
     0
 49
-0.12
 74
     0
 49
0.24
 74
     0
 49
-0.12
 74
     0
 49
0.24
 74
     0
 49
-0.12
 74
     0
  0
LTYPE
  5
AB
330
5
100
AcDbSymbolTableRecord
100
AcDbLinetypeTableRecord
  2
ACAD_ISO10W100
 70
     0
  3
ISO dash dot __ . __ . __ . __ . __ . __ . __ .
 72
    65
 73
     4
 40
0.71
 49
0.47
 74
     0
 49
-0.12
 74
     0
 49
0.0
 74
     0
 49
-0.12
 74
     0
  0
LTYPE
  5
AC
330
5
100
AcDbSymbolTableRecord
100
AcDbLinetypeTableRecord
  2
ACAD_ISO11W100
 70
     0
  3
ISO double-dash dot __ __ . __ __ . __ __ . __ 
 72
    65
 73
     6
 40
1.299999999999999
 49
0.47
 74
     0
 49
-0.12
 74
     0
 49
0.47
 74
     0
 49
-0.12
 74
     0
 49
0.0
 74
     0
 49
-0.12
 74
     0
  0
LTYPE
  5
AD
330
5
100
AcDbSymbolTableRecord
100
AcDbLinetypeTableRecord
  2
ACAD_ISO12W100
 70
     0
  3
ISO dash double-dot __ . . __ . . __ . . __ . .
 72
    65
 73
     6
 40
0.8299999999999998
 49
0.47
 74
     0
 49
-0.12
 74
     0
 49
0.0
 74
     0
 49
-0.12
 74
     0
 49
0.0
 74
     0
 49
-0.12
 74
     0
  0
LTYPE
  5
AE
330
5
100
AcDbSymbolTableRecord
100
AcDbLinetypeTableRecord
  2
ACAD_ISO13W100
 70
     0
  3
ISO double-dash double-dot __ __ . . __ __ . . 
 72
    65
 73
     8
 40
1.419999999999999
 49
0.47
 74
     0
 49
-0.12
 74
     0
 49
0.47
 74
     0
 49
-0.12
 74
     0
 49
0.0
 74
     0
 49
-0.12
 74
     0
 49
0.0
 74
     0
 49
-0.12
 74
     0
  0
LTYPE
  5
AF
330
5
100
AcDbSymbolTableRecord
100
AcDbLinetypeTableRecord
  2
ACAD_ISO14W100
 70
     0
  3
ISO dash triple-dot __ . . . __ . . . __ . . . 
 72
    65
 73
     8
 40
0.95
 49
0.47
 74
     0
 49
-0.12
 74
     0
 49
0.0
 74
     0
 49
-0.12
 74
     0
 49
0.0
 74
     0
 49
-0.12
 74
     0
 49
0.0
 74
     0
 49
-0.12
 74
     0
  0
LTYPE
  5
B0
330
5
100
AcDbSymbolTableRecord
100
AcDbLinetypeTableRecord
  2
ACAD_ISO15W100
 70
     0
  3
ISO double-dash triple-dot __ __ . . . __ __ . 
 72
    65
 73
    10
 40
1.539999999999999
 49
0.47
 74
     0
 49
-0.12
 74
     0
 49
0.47
 74
     0
 49
-0.12
 74
     0
 49
0.0
 74
     0
 49
-0.12
 74
     0
 49
0.0
 74
     0
 49
-0.12
 74
     0
 49
0.0
 74
     0
 49
-0.12
 74
     0
  0
LTYPE
  5
B3
330
5
100
AcDbSymbolTableRecord
100
AcDbLinetypeTableRecord
  2
FENCELINE1
 70
     0
  3
Fenceline circle ----0-----0----0-----0----0---
 72
    65
 73
     4
 40
1.45
 49
0.25
 74
     0
 49
-0.1
 74
     4
 75
   133
340
B2
 46
0.1
 50
0.0
 44
-0.1
 45
0.0
 49
-0.1
 74
     0
 49
1.0
 74
     0
  0
LTYPE
  5
B4
330
5
100
AcDbSymbolTableRecord
100
AcDbLinetypeTableRecord
  2
FENCELINE2
 70
     0
  3
Fenceline square ----[]-----[]----[]-----[]----
 72
    65
 73
     4
 40
1.45
 49
0.25
 74
     0
 49
-0.1
 74
     4
 75
   132
340
B2
 46
0.1
 50
0.0
 44
-0.1
 45
0.0
 49
-0.1
 74
     0
 49
1.0
 74
     0
  0
LTYPE
  5
B5
330
5
100
AcDbSymbolTableRecord
100
AcDbLinetypeTableRecord
  2
TRACKS
 70
     0
  3
Tracks -|-|-|-|-|-|-|-|-|-|-|-|-|-|-|-|-|-|-|-|
 72
    65
 73
     2
 40
0.3
 49
0.15
 74
     4
 75
   130
340
B2
 46
0.25
 50
0.0
 44
0.0
 45
0.0
 49
0.15
 74
     0
  0
LTYPE
  5
B6
330
5
100
AcDbSymbolTableRecord
100
AcDbLinetypeTableRecord
  2
BATTING
 70
     0
  3
Batting SSSSSSSSSSSSSSSSSSSSSSSSSSSSSSSSSSSSSSS
 72
    65
 73
     4
 40
0.4001000000000001
 49
0.0001
 74
     0
 49
-0.1
 74
     4
 75
   134
340
B2
 46
0.1
 50
0.0
 44
-0.1
 45
0.0
 49
-0.2
 74
     4
 75
   134
340
B2
 46
0.1
 50
180.0
 44
0.1
 45
0.0
 49
-0.1
 74
     0
  0
LTYPE
  5
B7
330
5
100
AcDbSymbolTableRecord
100
AcDbLinetypeTableRecord
  2
HOT_WATER_SUPPLY
 70
     0
  3
Hot water supply ---- HW ---- HW ---- HW ----
 72
    65
 73
     3
 40
0.9
 49
0.5
 74
     0
 49
-0.2
 74
     2
 75
     0
340
55
 46
0.1
 50
0.0
 44
-0.1
 45
-0.05
  9
HW
 49
-0.2
 74
     0
  0
LTYPE
  5
B8
330
5
100
AcDbSymbolTableRecord
100
AcDbLinetypeTableRecord
  2
GAS_LINE
 70
     0
  3
Gas line ----GAS----GAS----GAS----GAS----GAS---
 72
    65
 73
     3
 40
0.95
 49
0.5
 74
     0
 49
-0.2
 74
     2
 75
     0
340
55
 46
0.1
 50
0.0
 44
-0.1
 45
-0.05
  9
GAS
 49
-0.25
 74
     0
  0
LTYPE
  5
B9
330
5
100
AcDbSymbolTableRecord
100
AcDbLinetypeTableRecord
  2
ZIGZAG
 70
     0
  3
Zig zag /\/\/\/\/\/\/\/\/\/\/\/\/\/\/\/\/\/\/\/
 72
    65
 73
     4
 40
0.8001000000000001
 49
0.0001
 74
     0
 49
-0.2
 74
     4
 75
   131
340
B2
 46
0.2
 50
0.0
 44
-0.2
 45
0.0
 49
-0.4
 74
     4
 75
   131
340
B2
 46
0.2
 50
180.0
 44
0.2
 45
0.0
 49
-0.2
 74
     0
  0
ENDTAB
  0
TABLE
  2
LAYER
  5
2
330
0
100
AcDbSymbolTable
 70
     4
  0
LAYER
  5
54
330
2
100
AcDbSymbolTableRecord
100
AcDbLayerTableRecord
  2
0
 70
     0
 62
     7
  6
Continuous
370
    -3
390
F
  0
LAYER
  5
BF
330
2
100
AcDbSymbolTableRecord
100
AcDbLayerTableRecord
  2
Border (ANSI)
 70
     0
 62
     7
  6
Continuous
370
    25
390
F
  0
LAYER
  5
D1
330
2
100
AcDbSymbolTableRecord
100
AcDbLayerTableRecord
  2
Visible (ANSI)
 70
     0
 62
     7
  6
Continuous
370
    18
390
F
  0
LAYER
  5
D2
330
2
100
AcDbSymbolTableRecord
100
AcDbLayerTableRecord
  2
Visible Narrow (ANSI)
 70
     0
 62
     7
  6
Continuous
370
     9
390
F
  0
ENDTAB
  0
TABLE
  2
STYLE
  5
3
330
0
100
AcDbSymbolTable
 70
     5
  0
STYLE
  5
55
330
3
100
AcDbSymbolTableRecord
100
AcDbTextStyleTableRecord
  2
Standard
 70
     0
 40
0.0
 41
0.899999976158142
 50
0.0
 71
     0
 42
0.2
  3
txt
  4

  0
STYLE
  5
5A
330
3
100
AcDbSymbolTableRecord
100
AcDbTextStyleTableRecord
  2
Annotative
 70
     0
 40
0.0
 41
1.0
 50
0.0
 71
     0
 42
0.2
  3
txt
  4

1001
AcadAnnotative
1000
AnnotativeData
1002
{
1070
     1
1070
     1
1002
}
  0
STYLE
  5
B2
330
3
100
AcDbSymbolTableRecord
100
AcDbTextStyleTableRecord
  2

 70
     1
 40
0.0
 41
1.0
 50
0.0
 71
     0
 42
0.2
  3
ltypeshp.shx
  4

  0
STYLE
  5
D6
330
3
100
AcDbSymbolTableRecord
100
AcDbTextStyleTableRecord
  2
Label Text (ANSI)
 70
     0
 40
0.0
 41
0.899999976158142
 50
0.0
 71
     0
 42
0.2
  3
Txt.shx
  4

  0
STYLE
  5
D7
330
3
100
AcDbSymbolTableRecord
100
AcDbTextStyleTableRecord
  2
Note Text (ANSI)
 70
     0
 40
0.0
 41
0.899999976158142
 50
0.0
 71
     0
 42
0.2
  3
Txt.shx
  4

  0
ENDTAB
  0
TABLE
  2
VIEW
  5
6
330
0
100
AcDbSymbolTable
 70
     0
  0
ENDTAB
  0
TABLE
  2
UCS
  5
7
330
0
100
AcDbSymbolTable
 70
     0
  0
ENDTAB
  0
TABLE
  2
APPID
  5
9
330
0
100
AcDbSymbolTable
 70
     4
  0
APPID
  5
56
330
9
100
AcDbSymbolTableRecord
100
AcDbRegAppTableRecord
  2
ACAD
 70
     0
  0
APPID
  5
5E
330
9
100
AcDbSymbolTableRecord
100
AcDbRegAppTableRecord
  2
AcadAnnotative
 70
     0
  0
APPID
  5
264
330
9
100
AcDbSymbolTableRecord
100
AcDbRegAppTableRecord
  2
ACAD_MLEADERVER
 70
     0
  0
APPID
  5
27B
330
9
100
AcDbSymbolTableRecord
100
AcDbRegAppTableRecord
  2
ACAD_NAV_VCDISPLAY
 70
     0
  0
ENDTAB
  0
TABLE
  2
DIMSTYLE
  5
A
330
0
100
AcDbSymbolTable
 70
    21
100
AcDbDimStyleTable
 71
     0
  0
DIMSTYLE
105
58
330
A
100
AcDbSymbolTableRecord
100
AcDbDimStyleTableRecord
  2
Standard
 70
     0
340
55
  0
DIMSTYLE
105
59
330
A
100
AcDbSymbolTableRecord
100
AcDbDimStyleTableRecord
  2
Annotative
 70
     0
340
55
1001
AcadAnnotative
1000
AnnotativeData
1002
{
1070
     1
1070
     1
1002
}
  0
DIMSTYLE
105
D8
330
A
100
AcDbSymbolTableRecord
100
AcDbDimStyleTableRecord
  2
Architectural (ANSI)
 70
     0
 41
0.0984251946210861
 43
0.2362204724409449
 44
0.125
 45
0.00000001
 46
0.3937007874015748
 78
     3
 79
     3
140
0.0799999982118607
146
1.500000119209289
147
0.031496062992126
171
     1
176
   256
177
   256
178
     5
272
     2
274
     1
276
     2
277
     4
284
    12
285
     4
286
    12
340
D7
371
    -1
372
    -1
  0
DIMSTYLE
105
D9
330
A
100
AcDbSymbolTableRecord
100
AcDbDimStyleTableRecord
  2
Architectural (ANSI)$7
 70
     0
 41
0.0984251946210861
 43
0.2362204724409449
 44
0.125
 45
0.00000001
 46
0.3937007874015748
 78
     3
 79
     3
140
0.0799999982118607
146
1.500000119209289
147
0.031496062992126
171
     1
176
     5
177
   256
178
     5
272
     2
274
     1
276
     2
277
     4
284
    12
285
     4
286
    12
340
D7
371
    -1
372
    -1
  0
DIMSTYLE
105
DA
330
A
100
AcDbSymbolTableRecord
100
AcDbDimStyleTableRecord
  2
Default - Fraction (ANSI)
 70
     0
 41
0.0984251946210861
 43
0.2362204724409449
 44
0.125
 45
0.00000001
 46
0.3937007874015748
 79
     3
140
0.0799999982118607
146
1.500000119209289
147
0.031496062992126
171
     1
176
   256
177
   256
178
     5
272
     2
274
     1
276
     2
277
     5
284
    12
285
     4
286
    12
340
D7
371
    -1
372
    -1
  0
DIMSTYLE
105
DB
330
A
100
AcDbSymbolTableRecord
100
AcDbDimStyleTableRecord
  2
Default - Fraction (ANSI)$7
 70
     0
 41
0.0984251946210861
 43
0.2362204724409449
 44
0.125
 45
0.00000001
 46
0.3937007874015748
 79
     3
140
0.0799999982118607
146
1.500000119209289
147
0.031496062992126
171
     1
176
     5
177
   256
178
     5
272
     2
274
     1
276
     2
277
     5
284
    12
285
     4
286
    12
340
D7
371
    -1
372
    -1
  0
DIMSTYLE
105
DC
330
A
100
AcDbSymbolTableRecord
100
AcDbDimStyleTableRecord
  2
Default - mm (ANSI)
 70
     0
 41
0.0984251946210861
 42
0.063
 43
0.2362204724409449
 44
0.125
 45
0.00000001
 46
0.3937007874015748
 73
     0
 78
     4
 79
     1
140
0.0799999982118607
143
1.0
144
25.4
146
1.500000119209289
147
0.031496062992126
171
     1
176
   256
177
   256
178
     5
179
     1
271
     2
272
     2
274
     1
284
     4
285
     4
340
D7
371
    -1
372
    -1
  0
DIMSTYLE
105
DD
330
A
100
AcDbSymbolTableRecord
100
AcDbDimStyleTableRecord
  2
Default - mm (ANSI)$7
 70
     0
 41
0.0984251946210861
 42
0.063
 43
0.2362204724409449
 44
0.125
 45
0.00000001
 46
0.3937007874015748
 73
     0
 78
     4
 79
     1
140
0.0799999982118607
143
1.0
144
25.4
146
1.500000119209289
147
0.031496062992126
171
     1
176
     5
177
   256
178
     5
179
     1
271
     2
272
     2
274
     1
284
     4
285
     4
340
D7
371
    -1
372
    -1
  0
DIMSTYLE
105
DE
330
A
100
AcDbSymbolTableRecord
100
AcDbDimStyleTableRecord
  2
Default - mm [in] (ANSI)
 70
     0
  4
 in
 41
0.0984251946210861
 42
0.063
 43
0.25
 44
0.125
 45
0.00000001
 46
0.3937007874015748
 73
     0
 78
     4
 79
     1
140
0.0799999982118607
143
0.03937
144
25.4
146
1.500000119209289
147
0.031496062992126
170
     1
171
     3
176
   256
177
   256
178
     5
179
     1
271
     2
272
     2
274
     3
284
     4
285
     4
286
     4
340
D7
371
    -1
372
    -1
  0
DIMSTYLE
105
DF
330
A
100
AcDbSymbolTableRecord
100
AcDbDimStyleTableRecord
  2
Default - mm [in] (ANSI)$7
 70
     0
  4
 in
 41
0.0984251946210861
 42
0.063
 43
0.25
 44
0.125
 45
0.00000001
 46
0.3937007874015748
 73
     0
 78
     4
 79
     1
140
0.0799999982118607
143
0.03937
144
25.4
146
1.500000119209289
147
0.031496062992126
170
     1
171
     3
176
     5
177
   256
178
     5
179
     1
271
     2
272
     2
274
     3
284
     4
285
     4
286
     4
340
D7
371
    -1
372
    -1
  0
DIMSTYLE
105
E0
330
A
100
AcDbSymbolTableRecord
100
AcDbDimStyleTableRecord
  2
Default (ANSI)
 70
     0
 41
0.0984251946210861
 43
0.2362204724409449
 44
0.125
 45
0.00000001
 46
0.3937007874015748
 78
     4
 79
     1
140
0.0799999982118607
146
1.500000119209289
147
0.031496062992126
171
     1
176
   256
177
   256
178
     5
271
     2
272
     2
274
     1
284
     4
285
     4
340
D7
371
    -1
372
    -1
  0
DIMSTYLE
105
E1
330
A
100
AcDbSymbolTableRecord
100
AcDbDimStyleTableRecord
  2
Default (ANSI)$7
 70
     0
 41
0.0984251946210861
 43
0.2362204724409449
 44
0.125
 45
0.00000001
 46
0.3937007874015748
 78
     4
 79
     1
140
0.0799999982118607
146
1.500000119209289
147
0.031496062992126
171
     1
176
     5
177
   256
178
     5
271
     2
272
     2
274
     1
284
     4
285
     4
340
D7
371
    -1
372
    -1
  0
DIMSTYLE
105
E2
330
A
100
AcDbSymbolTableRecord
100
AcDbDimStyleTableRecord
  2
SST-STANDARD DIMEN
 70
     0
 41
0.0984251946210861
 43
0.2362204724409449
 44
0.062
 45
0.00000001
 46
0.3937007874015748
140
0.0799999982118607
147
0.031496062992126
171
     1
176
     5
177
     5
178
     5
271
     3
272
     3
274
     1
286
    12
340
D7
371
     9
372
     9
  0
DIMSTYLE
105
E3
330
A
100
AcDbSymbolTableRecord
100
AcDbDimStyleTableRecord
  2
SST-STANDARD DIMEN$7
 70
     0
 41
0.0984251946210861
 43
0.2362204724409449
 44
0.062
 45
0.00000001
 46
0.3937007874015748
140
0.0799999982118607
147
0.031496062992126
171
     1
176
     5
177
     5
178
     5
271
     3
272
     3
274
     1
286
    12
340
D7
371
    -1
372
     9
  0
DIMSTYLE
105
E4
330
A
100
AcDbSymbolTableRecord
100
AcDbDimStyleTableRecord
  2
SST-STANDARD DIMENSION-METRIC
 70
     0
 41
0.0984251946210861
 43
0.2362204724409449
 44
0.062
 45
0.00000001
 46
0.3937007874015748
140
0.0799999982118607
143
0.03937
144
25.4
147
0.031496062992126
171
     3
176
     5
177
     5
178
     5
271
     1
272
     1
274
     3
286
    12
340
D7
371
    25
372
    25
  0
DIMSTYLE
105
E5
330
A
100
AcDbSymbolTableRecord
100
AcDbDimStyleTableRecord
  2
SST-STANDARD DIMENSION-METRIC$7
 70
     0
 41
0.0984251946210861
 43
0.2362204724409449
 44
0.062
 45
0.00000001
 46
0.3937007874015748
140
0.0799999982118607
143
0.03937
144
25.4
147
0.031496062992126
171
     3
176
     5
177
     5
178
     5
271
     1
272
     1
274
     3
286
    12
340
D7
371
    -1
372
    25
  0
DIMSTYLE
105
E6
330
A
100
AcDbSymbolTableRecord
100
AcDbDimStyleTableRecord
  2
SST-STANDARD DIMENSIONS-FRACTION
 70
     0
 41
0.0984251946210861
 43
0.2362204724409449
 44
0.062
 45
0.00000001
 46
0.3937007874015748
 78
     1
140
0.0799999982118607
147
0.031496062992126
171
     1
176
     5
177
     5
178
     5
271
     5
272
     3
274
     1
276
     2
277
     5
286
    12
340
D7
371
     9
372
     9
  0
DIMSTYLE
105
E7
330
A
100
AcDbSymbolTableRecord
100
AcDbDimStyleTableRecord
  2
SST-STANDARD DIMENSIONS-FRACTION$7
 70
     0
 41
0.0984251946210861
 43
0.2362204724409449
 44
0.062
 45
0.00000001
 46
0.3937007874015748
 78
     1
140
0.0799999982118607
147
0.031496062992126
171
     1
176
     5
177
     5
178
     5
271
     5
272
     3
274
     1
276
     2
277
     5
286
    12
340
D7
371
    -1
372
     9
  0
DIMSTYLE
105
E8
330
A
100
AcDbSymbolTableRecord
100
AcDbDimStyleTableRecord
  2
Alternate (ANSI)
 70
     0
 41
0.0979999974370003
340
55
342
E9
  0
DIMSTYLE
105
FB
330
A
100
AcDbSymbolTableRecord
100
AcDbDimStyleTableRecord
  2
Datum (ANSI)
 70
     0
 41
0.0979999974370003
340
55
342
E9
  0
DIMSTYLE
105
10A
330
A
100
AcDbSymbolTableRecord
100
AcDbDimStyleTableRecord
  2
Large (ANSI)
 70
     0
 41
0.1959999948740005
340
55
342
E9
  0
ENDTAB
  0
TABLE
  2
BLOCK_RECORD
  5
1
330
0
100
AcDbSymbolTable
 70
     5
  0
BLOCK_RECORD
  5
6C
330
1
100
AcDbSymbolTableRecord
100
AcDbBlockTableRecord
  2
*Model_Space
340
6F
  0
BLOCK_RECORD
  5
68
330
1
100
AcDbSymbolTableRecord
100
AcDbBlockTableRecord
  2
*Paper_Space
340
6B
  0
BLOCK_RECORD
  5
70
330
1
100
AcDbSymbolTableRecord
100
AcDbBlockTableRecord
  2
*Paper_Space0
340
73
  0
BLOCK_RECORD
  5
E9
330
1
100
AcDbSymbolTableRecord
100
AcDbBlockTableRecord
  2
_Closed
340
0
  0
BLOCK_RECORD
  5
F0
330
1
100
AcDbSymbolTableRecord
100
AcDbBlockTableRecord
  2
DatumFilled45
340
0
  0
BLOCK_RECORD
  5
FC
330
1
100
AcDbSymbolTableRecord
100
AcDbBlockTableRecord
  2
Filled-1
340
0
  0
BLOCK_RECORD
  5
10B
330
1
100
AcDbSymbolTableRecord
100
AcDbBlockTableRecord
  2
Borders SST-LAND
340
0
102
{BLKREFS
331
112
102
}
  0
ENDTAB
  0
ENDSEC
  0
SECTION
  2
BLOCKS
  0
BLOCK
  5
6D
330
6C
100
AcDbEntity
  8
0
100
AcDbBlockBegin
  2
*Model_Space
 70
     0
 10
0.0
 20
0.0
 30
0.0
  3
*Model_Space
  1

  0
ENDBLK
  5
6E
330
6C
100
AcDbEntity
  8
0
100
AcDbBlockEnd
  0
BLOCK
  5
69
330
68
100
AcDbEntity
 67
     1
  8
0
100
AcDbBlockBegin
  2
*Paper_Space
 70
     0
 10
0.0
 20
0.0
 30
0.0
  3
*Paper_Space
  1

  0
ENDBLK
  5
6A
330
68
100
AcDbEntity
 67
     1
  8
0
100
AcDbBlockEnd
  0
BLOCK
  5
71
330
70
100
AcDbEntity
 67
     1
  8
0
100
AcDbBlockBegin
  2
*Paper_Space0
 70
     0
 10
0.0
 20
0.0
 30
0.0
  3
*Paper_Space0
  1

  0
ENDBLK
  5
72
330
70
100
AcDbEntity
 67
     1
  8
0
100
AcDbBlockEnd
  0
BLOCK
  5
EE
330
E9
100
AcDbEntity
  8
0
100
AcDbBlockBegin
  2
_Closed
 70
     0
 10
0.0
 20
0.0
 30
0.0
  3
_Closed
  1

  0
LINE
  5
EA
330
E9
100
AcDbEntity
  8
0
  6
ByBlock
 62
     0
370
    -2
100
AcDbLine
 10
-1.0
 20
0.1666666666666666
 30
0.0
 11
0.0
 21
0.0
 31
0.0
  0
LINE
  5
EB
330
E9
100
AcDbEntity
  8
0
  6
ByBlock
 62
     0
370
    -2
100
AcDbLine
 10
0.0
 20
0.0
 30
0.0
 11
-1.0
 21
-0.1666666666666666
 31
0.0
  0
LINE
  5
EC
330
E9
100
AcDbEntity
  8
0
  6
ByBlock
 62
     0
370
    -2
100
AcDbLine
 10
-1.0
 20
0.1666666666666666
 30
0.0
 11
-1.0
 21
-0.1666666666666666
 31
0.0
  0
LINE
  5
ED
330
E9
100
AcDbEntity
  8
0
  6
ByBlock
 62
     0
370
    -2
100
AcDbLine
 10
0.0
 20
0.0
 30
0.0
 11
-1.0
 21
0.0
 31
0.0
  0
ENDBLK
  5
EF
330
E9
100
AcDbEntity
  8
0
100
AcDbBlockEnd
  0
BLOCK
  5
F1
330
F0
100
AcDbEntity
  8
0
100
AcDbBlockBegin
  2
DatumFilled45
 70
     0
 10
0.0
 20
0.0
 30
0.0
  3
DatumFilled45
  1

  0
POLYLINE
  5
F3
330
F0
100
AcDbEntity
  8
0
 62
     0
100
AcDb2dPolyline
 66
     1
 10
0.0
 20
0.0
 30
0.0
 70
   128
  0
VERTEX
  5
F4
330
F3
100
AcDbEntity
  8
0
 62
     0
100
AcDbVertex
100
AcDb2dVertex
 10
0.0
 20
0.9999999999999998
 30
0.0
  0
VERTEX
  5
F5
330
F3
100
AcDbEntity
  8
0
 62
     0
100
AcDbVertex
100
AcDb2dVertex
 10
0.0
 20
-0.9999999999999998
 30
0.0
  0
VERTEX
  5
F7
330
F3
100
AcDbEntity
  8
0
 62
     0
100
AcDbVertex
100
AcDb2dVertex
 10
-0.9999999999999998
 20
0.0
 30
0.0
  0
VERTEX
  5
F8
330
F3
100
AcDbEntity
  8
0
 62
     0
100
AcDbVertex
100
AcDb2dVertex
 10
0.0
 20
0.9999999999999998
 30
0.0
  0
SEQEND
  5
F6
330
F3
100
AcDbEntity
  8
0
 62
     0
  0
SOLID
  5
FA
330
F0
100
AcDbEntity
  8
0
 62
     0
100
AcDbTrace
 10
0.0
 20
0.9999999999999998
 30
0.0
 11
0.0
 21
-0.9999999999999998
 31
0.0
 12
-0.9999999999999998
 22
0.0
 32
0.0
 13
0.0
 23
0.9999999999999998
 33
0.0
  0
ENDBLK
  5
F2
330
F0
100
AcDbEntity
  8
0
100
AcDbBlockEnd
  0
BLOCK
  5
FD
330
FC
100
AcDbEntity
  8
0
100
AcDbBlockBegin
  2
Filled-1
 70
     0
 10
0.0
 20
0.0
 30
0.0
  3
Filled-1
  1

  0
LINE
  5
FF
330
FC
100
AcDbEntity
  8
0
 62
     0
100
AcDbLine
 10
-0.9999999999999998
 20
0.0
 30
0.0
 11
0.0
 21
0.0
 31
0.0
  0
POLYLINE
  5
100
330
FC
100
AcDbEntity
  8
0
 62
     0
100
AcDb2dPolyline
 66
     1
 10
0.0
 20
0.0
 30
0.0
 70
   128
  0
VERTEX
  5
101
330
100
100
AcDbEntity
  8
0
 62
     0
100
AcDbVertex
100
AcDb2dVertex
 10
-0.9999999999999998
 20
-0.0994897959183674
 30
0.0
  0
VERTEX
  5
102
330
100
100
AcDbEntity
  8
0
 62
     0
100
AcDbVertex
100
AcDb2dVertex
 10
0.0
 20
0.0
 30
0.0
  0
VERTEX
  5
104
330
100
100
AcDbEntity
  8
0
 62
     0
100
AcDbVertex
100
AcDb2dVertex
 10
-0.9999999999999998
 20
0.0994897959183674
 30
0.0
  0
VERTEX
  5
105
330
100
100
AcDbEntity
  8
0
 62
     0
100
AcDbVertex
100
AcDb2dVertex
 10
-0.9999999999999998
 20
-0.0994897959183674
 30
0.0
  0
SEQEND
  5
103
330
100
100
AcDbEntity
  8
0
 62
     0
  0
SOLID
  5
106
330
FC
100
AcDbEntity
  8
0
 62
     0
100
AcDbTrace
 10
-0.9999999999999998
 20
-0.0994897959183674
 30
0.0
 11
0.0
 21
0.0
 31
0.0
 12
-0.9999999999999998
 22
0.0994897959183674
 32
0.0
 13
-0.9999999999999998
 23
-0.0994897959183674
 33
0.0
  0
LINE
  5
107
330
FC
100
AcDbEntity
  8
0
 62
     0
100
AcDbLine
 10
-0.9999999999999998
 20
-0.0994897959183674
 30
0.0
 11
0.0
 21
0.0
 31
0.0
  0
LINE
  5
108
330
FC
100
AcDbEntity
  8
0
 62
     0
100
AcDbLine
 10
0.0
 20
0.0
 30
0.0
 11
-0.9999999999999998
 21
0.0994897959183674
 31
0.0
  0
LINE
  5
109
330
FC
100
AcDbEntity
  8
0
 62
     0
100
AcDbLine
 10
-0.9999999999999998
 20
0.0994897959183674
 30
0.0
 11
-0.9999999999999998
 21
-0.0994897959183674
 31
0.0
  0
ENDBLK
  5
FE
330
FC
100
AcDbEntity
  8
0
100
AcDbBlockEnd
  0
BLOCK
  5
10C
330
10B
100
AcDbEntity
  8
0
100
AcDbBlockBegin
  2
Borders SST-LAND
 70
     0
 10
0.0
 20
0.0
 30
0.0
  3
Borders SST-LAND
  1

  0
LINE
  5
10E
330
10B
100
AcDbEntity
  8
Border (ANSI)
 62
     7
370
    50
100
AcDbLine
 10
0.4999999999999999
 20
16.49999999999999
 30
0.0
 11
0.500000000000005
 21
0.4999999999999984
 31
0.0
  0
LINE
  5
10F
330
10B
100
AcDbEntity
  8
Border (ANSI)
 62
     7
370
    50
100
AcDbLine
 10
21.5
 20
16.49999999999999
 30
0.0
 11
0.4999999999999984
 21
16.49999999999999
 31
0.0
  0
LINE
  5
110
330
10B
100
AcDbEntity
  8
Border (ANSI)
 62
     7
370
    50
100
AcDbLine
 10
21.5
 20
0.4999999999999999
 30
0.0
 11
21.5
 21
16.49999999999999
 31
0.0
  0
LINE
  5
111
330
10B
100
AcDbEntity
  8
Border (ANSI)
 62
     7
370
    50
100
AcDbLine
 10
0.500000000000005
 20
0.4999999999999999
 30
0.0
 11
21.5
 21
0.4999999999999999
 31
0.0
  0
ENDBLK
  5
10D
330
10B
100
AcDbEntity
  8
0
100
AcDbBlockEnd
  0
ENDSEC
  0
SECTION
  2
ENTITIES
  0
INSERT
  5
112
330
6C
100
AcDbEntity
  8
0
100
AcDbBlockReference
  2
Borders SST-LAND
 10
0.0
 20
0.0
 30
0.0
  0
SPLINE
  5
113
330
6C
100
AcDbEntity
  8
Visible (ANSI)
100
AcDbSpline
210
0.0
220
0.0
230
1.0
 70
     8
 71
     3
 72
    12
 73
     8
 74
     0
 42
0.0000000001
 43
0.0000000001
 40
0.2150237208379529
 40
0.2150237208379529
 40
0.2150237208379529
 40
0.2150237208379529
 40
0.2750881306777902
 40
0.2750881306777902
 40
0.3422257193793499
 40
0.3422257193793499
 40
0.359112393269192
 40
0.359112393269192
 40
0.359112393269192
 40
0.359112393269192
 10
10.28681668119967
 20
7.568367614522027
 30
0.0
 10
10.29461511278206
 20
7.568367614522027
 30
0.0
 10
10.30253436197561
 20
7.569687034351827
 30
0.0
 10
10.31535647552653
 20
7.574247787595685
 30
0.0
 10
10.32120936339855
 20
7.578047683775397
 30
0.0
 10
10.32626684228968
 20
7.583703193949236
 30
0.0
 10
10.32717699647507
 20
7.584882283485815
 30
0.0
 10
10.3279809174374
 20
7.5860876293096
 30
0.0
  0
LINE
  5
114
330
6C
100
AcDbEntity
  8
Visible Narrow (ANSI)
100
AcDbLine
 10
10.3279809174374
 20
7.5860876293096
 30
0.0
 11
10.19750851133909
 21
7.735438296004047
 31
0.0
  0
LINE
  5
115
330
6C
100
AcDbEntity
  8
Visible Narrow (ANSI)
100
AcDbLine
 10
10.19750851133909
 20
7.735438296004047
 30
0.0
 11
10.12231056628653
 21
7.669745540545996
 31
0.0
  0
LINE
  5
116
330
6C
100
AcDbEntity
  8
Visible Narrow (ANSI)
100
AcDbLine
 10
10.12231056628653
 20
7.669745540545996
 30
0.0
 11
10.21087409416595
 21
7.568367614522027
 31
0.0
  0
LINE
  5
117
330
6C
100
AcDbEntity
  8
Visible Narrow (ANSI)
100
AcDbLine
 10
10.19750851133905
 20
7.927546933039739
 30
0.0
 11
10.12231056628646
 21
7.993239688497715
 31
0.0
  0
SPLINE
  5
118
330
6C
100
AcDbEntity
  8
Visible Narrow (ANSI)
100
AcDbSpline
210
0.0
220
0.0
230
1.0
 70
     8
 71
     3
 72
    16
 73
    12
 74
     0
 42
0.0000000001
 43
0.0000000001
 40
-0.8951673419925231
 40
-0.8951673419925231
 40
-0.8951673419925231
 40
-0.8951673419925231
 40
-0.7511866793875484
 40
-0.7511866793875484
 40
-0.53094100690456
 40
-0.53094100690456
 40
-0.3310610724359477
 40
-0.3310610724359477
 40
-0.1273311817061337
 40
-0.1273311817061337
 40
0.0
 40
0.0
 40
0.0
 40
0.0
 10
10.12231056628646
 20
7.993239688497715
 30
0.0
 10
10.10987936107099
 20
7.979009792366647
 30
0.0
 10
10.09882377747433
 20
7.963333423683025
 30
0.0
 10
10.07576291604535
 20
7.921184208174623
 30
0.0
 10
10.06630180794037
 20
7.893261134094588
 30
0.0
 10
10.0585136683555
 20
7.838440168985652
 30
0.0
 10
10.0592363145316
 20
7.811696318852105
 30
0.0
 10
10.06962768496748
 20
7.759287397498215
 30
0.0
 10
10.0793290380958
 20
7.734015737006799
 30
0.0
 10
10.10136941097018
 20
7.69607256389208
 30
0.0
 10
10.11131686740025
 20
7.682329935263673
 30
0.0
 10
10.12231056628647
 20
7.66974554054606
 30
0.0
  0
SPLINE
  5
119
330
6C
100
AcDbEntity
  8
Visible Narrow (ANSI)
100
AcDbSpline
210
0.0
220
0.0
230
1.0
 70
     8
 71
     3
 72
    16
 73
    12
 74
     0
 42
0.0000000001
 43
0.0000000001
 40
0.0
 40
0.0
 40
0.0
 40
0.0
 40
0.1273311817061337
 40
0.1273311817061337
 40
0.3310610724359477
 40
0.3310610724359477
 40
0.53094100690456
 40
0.53094100690456
 40
0.7511866793875484
 40
0.7511866793875484
 40
0.8951673419925231
 40
0.8951673419925231
 40
0.8951673419925231
 40
0.8951673419925231
 10
10.19750851133906
 20
7.735438296004041
 30
0.0
 10
10.18907657349753
 20
7.742157838046955
 30
0.0
 10
10.18132540585653
 20
7.749777071313359
 30
0.0
 10
10.16397582303226
 20
7.771569568581353
 30
0.0
 10
10.15615323022886
 20
7.786797451541231
 30
0.0
 10
10.14775623980908
 20
7.819089044567862
 30
0.0
 10
10.14716452941505
 20
7.835873164933073
 30
0.0
 10
10.15347054280045
 20
7.869828662035655
 30
0.0
 10
10.161133231215
 20
7.886814941825326
 30
0.0
 10
10.17933871901052
 20
7.911215454382469
 30
0.0
 10
10.18797403611311
 20
7.919948761855136
 30
0.0
 10
10.19750851133905
 20
7.927546933039739
 30
0.0
  0
LINE
  5
11A
330
6C
100
AcDbEntity
  8
Visible Narrow (ANSI)
100
AcDbLine
 10
10.21087409416604
 20
8.094617614522027
 30
0.0
 11
10.12231056628646
 21
7.993239688497715
 31
0.0
  0
LINE
  5
11B
330
6C
100
AcDbEntity
  8
Visible Narrow (ANSI)
100
AcDbLine
 10
10.19750851133905
 20
7.927546933039739
 30
0.0
 11
10.3279809174374
 21
8.076897599734463
 31
0.0
  0
SPLINE
  5
11C
330
6C
100
AcDbEntity
  8
Visible (ANSI)
100
AcDbSpline
210
0.0
220
0.0
230
1.0
 70
     8
 71
     3
 72
    12
 73
     8
 74
     0
 42
0.0000000001
 43
0.0000000001
 40
2.466043470984506
 40
2.466043470984506
 40
2.466043470984506
 40
2.466043470984506
 40
2.486042468444811
 40
2.486042468444811
 40
2.556409122045179
 40
2.556409122045179
 40
2.610533610397303
 40
2.610533610397303
 40
2.610533610397303
 40
2.610533610397303
 10
10.3279809174374
 20
8.076897599734463
 30
0.0
 10
10.32703203833645
 20
8.078320286186499
 30
0.0
 10
10.32593495447841
 20
8.079706369925922
 30
0.0
 10
10.32030816525399
 20
8.085686799971218
 30
0.0
 10
10.31394537048696
 20
8.089514585969951
 30
0.0
 10
10.30099885613652
 20
8.093556031171821
 30
0.0
 10
10.29394184356575
 20
8.094617614522027
 30
0.0
 10
10.28681668119969
 20
8.094617614522027
 30
0.0
  0
LINE
  5
11D
330
6C
100
AcDbEntity
  8
Visible Narrow (ANSI)
100
AcDbLine
 10
10.30685330221873
 20
7.927546933039739
 30
0.0
 11
10.19750851133905
 21
7.927546933039739
 31
0.0
  0
LINE
  5
11E
330
6C
100
AcDbEntity
  8
Visible (ANSI)
100
AcDbLine
 10
10.30685330221873
 20
7.927546933039739
 30
0.0
 11
10.33149734382985
 21
8.004617614522027
 31
0.0
  0
ELLIPSE
  5
11F
330
6C
100
AcDbEntity
  8
Visible (ANSI)
100
AcDbEllipse
 10
10.26561277114849
 20
8.004617614522027
 30
0.0
 11
0.0493845960130105
 21
0.0846850811842677
 31
0.0
210
0.0
220
0.0
230
1.0
 40
0.6169993694450852
 41
5.057773480180995
 42
5.990271680306969
  0
LINE
  5
120
330
6C
100
AcDbEntity
  8
Visible Narrow (ANSI)
100
AcDbLine
 10
10.30685330221873
 20
7.735438296004047
 30
0.0
 11
10.19750851133909
 21
7.735438296004047
 31
0.0
  0
ELLIPSE
  5
121
330
6C
100
AcDbEntity
  8
Visible (ANSI)
100
AcDbEllipse
 10
10.34709873645712
 20
7.831492614521893
 30
0.0
 11
-0.0000000000000001
 21
-0.1459999999999999
 31
0.0
210
0.0
220
0.0
230
1.0
 40
0.366025403785321
 41
3.994353728665638
 42
5.430424232103749
  0
ELLIPSE
  5
122
330
6C
100
AcDbEntity
  8
Visible (ANSI)
100
AcDbEllipse
 10
10.26561277114844
 20
7.658367614522027
 30
0.0
 11
-0.0493845960130611
 21
0.0846850811842633
 31
0.0
210
0.0
220
0.0
230
1.0
 40
0.6169993694448115
 41
3.434506280462692
 42
4.367004480588263
  0
LINE
  5
123
330
6C
100
AcDbEntity
  8
Visible (ANSI)
100
AcDbLine
 10
10.3314973438298
 20
7.658367614522027
 30
0.0
 11
10.30685330221873
 21
7.735438296004047
 31
0.0
  0
ELLIPSE
  5
124
330
6C
100
AcDbEntity
  8
Visible (ANSI)
100
AcDbEllipse
 10
10.29481372804284
 20
7.658367614522027
 30
0.0
 11
0.1039230484541326
 21
-0.0000000000000001
 31
0.0
210
0.0
220
0.0
230
1.0
 40
0.8660254037844389
 41
4.712388980384689
 42
5.223629035084053
  0
ELLIPSE
  5
125
330
6C
100
AcDbEntity
  8
Visible (ANSI)
100
AcDbEllipse
 10
10.29088607615118
 20
7.658367614522027
 30
0.0
 11
0.0493845960130666
 21
-0.0846850811842602
 31
0.0
210
0.0
220
0.0
230
1.0
 40
0.6169993694448116
 41
0.3256632985091397
 42
1.225411826998342
  0
LINE
  5
126
330
6C
100
AcDbEntity
  8
Visible Narrow (ANSI)
100
AcDbLine
 10
10.35677064883253
 20
7.658367614522027
 30
0.0
 11
10.3314973438298
 21
7.658367614522027
 31
0.0
  0
LINE
  5
127
330
6C
100
AcDbEntity
  8
Visible (ANSI)
100
AcDbLine
 10
10.32118729249543
 20
7.769649423147335
 30
0.0
 11
10.35677064883253
 21
7.658367614522027
 31
0.0
  0
ELLIPSE
  5
128
330
6C
100
AcDbEntity
  8
Visible (ANSI)
100
AcDbEllipse
 10
10.34709873645712
 20
7.831492614521893
 30
0.0
 11
-0.0000000000000001
 21
-0.094
 31
0.0
210
0.0
220
0.0
230
1.0
 40
0.366025403785321
 41
3.99435372866384
 42
5.430424232104551
  0
LINE
  5
129
330
6C
100
AcDbEntity
  8
Visible (ANSI)
100
AcDbLine
 10
10.35677064883256
 20
8.004617614522027
 30
0.0
 11
10.32118729249545
 21
7.893335805896525
 31
0.0
  0
LINE
  5
12A
330
6C
100
AcDbEntity
  8
Visible Narrow (ANSI)
100
AcDbLine
 10
10.33149734382985
 20
8.004617614522027
 30
0.0
 11
10.35677064883256
 21
8.004617614522027
 31
0.0
  0
ELLIPSE
  5
12B
330
6C
100
AcDbEntity
  8
Visible (ANSI)
100
AcDbEllipse
 10
10.29481372804284
 20
8.004617614522027
 30
0.0
 11
0.1039230484541326
 21
-0.0000000000000001
 31
0.0
210
0.0
220
0.0
230
1.0
 40
0.8660254037844389
 41
1.059556272095534
 42
1.570796326794897
  0
ELLIPSE
  5
12C
330
6C
100
AcDbEntity
  8
Visible (ANSI)
100
AcDbEllipse
 10
10.2908860761512
 20
8.004617614522027
 30
0.0
 11
-0.0493845960130051
 21
-0.0846850811842709
 31
0.0
210
0.0
220
0.0
230
1.0
 40
0.616999369445085
 41
1.916180826591058
 42
2.815929355079882
  0
LINE
  5
12D
330
6C
100
AcDbEntity
  8
Visible (ANSI)
100
AcDbLine
 10
10.21087409416595
 20
7.568367614522027
 30
0.0
 11
10.28681668119968
 21
7.568367614522027
 31
0.0
  0
LINE
  5
12E
330
6C
100
AcDbEntity
  8
Visible (ANSI)
100
AcDbLine
 10
10.28681668119968
 20
8.094617614522027
 30
0.0
 11
10.21087409416604
 21
8.094617614522027
 31
0.0
  0
LINE
  5
12F
330
6C
100
AcDbEntity
  8
Visible (ANSI)
100
AcDbLine
 10
10.28681668119968
 20
7.568367614522027
 30
0.0
 11
10.29481372804284
 21
7.568367614522027
 31
0.0
  0
ELLIPSE
  5
130
330
6C
100
AcDbEntity
  8
Visible (ANSI)
100
AcDbEllipse
 10
10.31342439930887
 20
7.658367614522027
 30
0.0
 11
0.0
 21
0.09
 31
0.0
210
0.0
220
0.0
230
0.9999999999999998
 40
0.7320508075706425
 41
3.65283270828916
 42
3.812640451895502
  0
ELLIPSE
  5
131
330
6C
100
AcDbEntity
  8
Visible (ANSI)
100
AcDbEllipse
 10
10.31342439930887
 20
8.004617614522027
 30
0.0
 11
0.0
 21
0.09
 31
0.0
210
0.0
220
0.0
230
0.9999999999999998
 40
0.7320508075706426
 41
5.612137508873551
 42
5.771945252480218
  0
LINE
  5
132
330
6C
100
AcDbEntity
  8
Visible (ANSI)
100
AcDbLine
 10
10.28681668119969
 20
8.094617614522027
 30
0.0
 11
10.29481372804284
 21
8.094617614522027
 31
0.0
  0
LINE
  5
133
330
6C
100
AcDbEntity
  8
Visible (ANSI)
100
AcDbLine
 10
10.21087409416595
 20
11.31836761452202
 30
0.0
 11
10.28681668119968
 21
11.31836761452202
 31
0.0
  0
LINE
  5
134
330
6C
100
AcDbEntity
  8
Visible (ANSI)
100
AcDbLine
 10
10.28681668119969
 20
11.84461761452202
 30
0.0
 11
10.21087409416604
 21
11.84461761452202
 31
0.0
  0
LINE
  5
135
330
6C
100
AcDbEntity
  8
Visible (ANSI)
100
AcDbLine
 10
10.28681668119968
 20
11.31836761452202
 30
0.0
 11
10.29481372804284
 21
11.31836761452202
 31
0.0
  0
ELLIPSE
  5
136
330
6C
100
AcDbEntity
  8
Visible (ANSI)
100
AcDbEllipse
 10
10.31342439930887
 20
11.40836761452202
 30
0.0
 11
0.0
 21
0.09
 31
0.0
210
0.0
220
0.0
230
0.9999999999999998
 40
0.7320508075706425
 41
3.652832708289167
 42
3.812640451895502
  0
ELLIPSE
  5
137
330
6C
100
AcDbEntity
  8
Visible (ANSI)
100
AcDbEllipse
 10
10.31342439930887
 20
11.75461761452202
 30
0.0
 11
0.0
 21
0.09
 31
0.0
210
0.0
220
0.0
230
0.9999999999999998
 40
0.7320508075706426
 41
5.612137508873551
 42
5.771945252480211
  0
LINE
  5
138
330
6C
100
AcDbEntity
  8
Visible (ANSI)
100
AcDbLine
 10
10.28681668119969
 20
11.84461761452202
 30
0.0
 11
10.29481372804284
 21
11.84461761452202
 31
0.0
  0
LINE
  5
139
330
6C
100
AcDbEntity
  8
Visible (ANSI)
100
AcDbLine
 10
10.21087409416595
 20
9.318367614522026
 30
0.0
 11
10.28681668119968
 21
9.318367614522026
 31
0.0
  0
LINE
  5
13A
330
6C
100
AcDbEntity
  8
Visible (ANSI)
100
AcDbLine
 10
10.28681668119969
 20
9.844617614522027
 30
0.0
 11
10.21087409416604
 21
9.844617614522027
 31
0.0
  0
LINE
  5
13B
330
6C
100
AcDbEntity
  8
Visible (ANSI)
100
AcDbLine
 10
10.28681668119968
 20
9.318367614522026
 30
0.0
 11
10.29481372804284
 21
9.318367614522026
 31
0.0
  0
ELLIPSE
  5
13C
330
6C
100
AcDbEntity
  8
Visible (ANSI)
100
AcDbEllipse
 10
10.31342439930887
 20
9.408367614522026
 30
0.0
 11
0.0
 21
0.09
 31
0.0
210
0.0
220
0.0
230
0.9999999999999998
 40
0.7320508075706425
 41
3.652832708289168
 42
3.812640451895502
  0
ELLIPSE
  5
13D
330
6C
100
AcDbEntity
  8
Visible (ANSI)
100
AcDbEllipse
 10
10.31342439930887
 20
9.754617614522027
 30
0.0
 11
0.0
 21
0.09
 31
0.0
210
0.0
220
0.0
230
0.9999999999999998
 40
0.7320508075706426
 41
5.612137508873551
 42
5.771945252480218
  0
LINE
  5
13E
330
6C
100
AcDbEntity
  8
Visible (ANSI)
100
AcDbLine
 10
10.28681668119969
 20
9.844617614522027
 30
0.0
 11
10.29481372804284
 21
9.844617614522027
 31
0.0
  0
ARC
  5
13F
330
6C
100
AcDbEntity
  8
Visible (ANSI)
100
AcDbCircle
 10
10.13941819511887
 20
7.831492614522026
 30
0.0
 40
0.3050000000000001
100
AcDbArc
 50
317.0797979172218
 51
42.92020208277519
  0
ARC
  5
140
330
6C
100
AcDbEntity
  8
Visible (ANSI)
100
AcDbCircle
 10
10.13941819511887
 20
11.58149261452202
 30
0.0
 40
0.3050000000000001
100
AcDbArc
 50
317.0797979172216
 51
42.92020208277519
  0
ELLIPSE
  5
141
330
6C
100
AcDbEntity
  8
Visible (ANSI)
100
AcDbEllipse
 10
10.29481372804284
 20
9.754617614522027
 30
0.0
 11
0.1039230484541326
 21
-0.0000000000000001
 31
0.0
210
0.0
220
0.0
230
1.0
 40
0.8660254037844389
 41
1.059556272095534
 42
1.570796326794897
  0
ARC
  5
142
330
6C
100
AcDbEntity
  8
Visible (ANSI)
100
AcDbCircle
 10
10.13941819511887
 20
9.581492614522026
 30
0.0
 40
0.305000000000001
100
AcDbArc
 50
317.079797917222
 51
42.92020208277519
  0
ELLIPSE
  5
143
330
6C
100
AcDbEntity
  8
Visible (ANSI)
100
AcDbEllipse
 10
10.29481372804284
 20
9.408367614522026
 30
0.0
 11
0.1039230484541326
 21
-0.0000000000000001
 31
0.0
210
0.0
220
0.0
230
1.0
 40
0.8660254037844389
 41
4.712388980384689
 42
5.223629035084073
  0
LINE
  5
144
330
6C
100
AcDbEntity
  8
Visible Narrow (ANSI)
100
AcDbLine
 10
9.479268633469908
 20
13.41163191556434
 30
0.0
 11
9.479268633469908
 21
7.157637381565859
 31
0.0
  0
ARC
  5
145
330
6C
100
AcDbEntity
  8
Visible (ANSI)
100
AcDbCircle
 10
9.506918195118874
 20
6.706492614521996
 30
0.0
 40
0.1250000000000305
100
AcDbArc
 50
90.00000000000062
 51
96.7303316889923
  0
LINE
  5
146
330
6C
100
AcDbEntity
  8
Visible (ANSI)
100
AcDbLine
 10
9.86048057355693
 20
6.831492614522016
 30
0.0
 11
9.506918195118872
 21
6.831492614522027
 31
0.0
  0
ARC
  5
147
330
6C
100
AcDbEntity
  8
Visible (ANSI)
100
AcDbCircle
 10
9.86048057355693
 20
6.893992614522027
 30
0.0
 40
0.0625000000000006
100
AcDbArc
 50
270.0
 51
325.0000000000101
  0
LINE
  5
148
330
6C
100
AcDbEntity
  8
Visible (ANSI)
100
AcDbLine
 10
10.26822119235081
 20
7.367341141793967
 30
0.0
 11
9.911677576325008
 21
6.85814408725009
 31
0.0
  0
ARC
  5
149
330
6C
100
AcDbEntity
  8
Visible (ANSI)
100
AcDbCircle
 10
10.31941819511887
 20
7.331492614522024
 30
0.0
 40
0.0625000000000016
100
AcDbArc
 50
90.00000000000127
 51
144.999999999999
  0
LINE
  5
14A
330
6C
100
AcDbEntity
  8
Visible (ANSI)
100
AcDbLine
 10
10.50691819511887
 20
7.393992614522026
 30
0.0
 11
10.31941819511887
 21
7.393992614522026
 31
0.0
  0
LINE
  5
14B
330
6C
100
AcDbEntity
  8
Visible (ANSI)
100
AcDbLine
 10
10.63141819511882
 20
7.518492614521976
 30
0.0
 11
10.50691819511887
 21
7.393992614522026
 31
0.0
  0
LINE
  5
14C
330
6C
100
AcDbEntity
  8
Visible (ANSI)
100
AcDbLine
 10
10.63141819511894
 20
7.880792614521974
 30
0.0
 11
10.63141819511882
 21
7.518492614521976
 31
0.0
  0
ARC
  5
14D
330
6C
100
AcDbEntity
  8
Visible (ANSI)
100
AcDbCircle
 10
10.25691819511881
 20
7.880792614522027
 30
0.0
 40
0.3745000000001224
100
AcDbArc
 50
0.0
 51
75.15912500306787
  0
LINE
  5
14E
330
6C
100
AcDbEntity
  8
Visible (ANSI)
100
AcDbLine
 10
10.16061127421719
 20
8.293735633563729
 30
0.0
 11
10.35284091284805
 21
8.242799634099743
 31
0.0
  0
ARC
  5
14F
330
6C
100
AcDbEntity
  8
Visible (ANSI)
100
AcDbCircle
 10
10.25691819511881
 20
8.657192614522028
 30
0.0
 40
0.3760000000000004
100
AcDbArc
 50
180.0
 51
255.1591249993575
  0
LINE
  5
150
330
6C
100
AcDbEntity
  8
Visible (ANSI)
100
AcDbLine
 10
9.880918195118812
 20
8.755792614522027
 30
0.0
 11
9.880918195118812
 21
8.657192614522028
 31
0.0
  0
ARC
  5
151
330
6C
100
AcDbEntity
  8
Visible (ANSI)
100
AcDbCircle
 10
10.25691819511881
 20
8.755792614522027
 30
0.0
 40
0.3759999999999994
100
AcDbArc
 50
104.984256112765
 51
180.0
  0
LINE
  5
152
330
6C
100
AcDbEntity
  8
Visible (ANSI)
100
AcDbLine
 10
10.35361724737484
 20
9.170909770627128
 30
0.0
 11
10.15970203563147
 21
9.119007452234548
 31
0.0
  0
ARC
  5
153
330
6C
100
AcDbEntity
  8
Visible (ANSI)
100
AcDbCircle
 10
10.25691819511899
 20
9.532192614522024
 30
0.0
 40
0.3739999999999974
100
AcDbArc
 50
284.9842561127384
 51
0.0
  0
LINE
  5
154
330
6C
100
AcDbEntity
  8
Visible (ANSI)
100
AcDbLine
 10
10.63091819511881
 20
9.630792614522027
 30
0.0
 11
10.63091819511881
 21
9.532192614522026
 31
0.0
  0
ARC
  5
155
330
6C
100
AcDbEntity
  8
Visible (ANSI)
100
AcDbCircle
 10
10.25691819511899
 20
9.630792614522027
 30
0.0
 40
0.3740000000000012
100
AcDbArc
 50
0.0
 51
75.01574388724354
  0
LINE
  5
156
330
6C
100
AcDbEntity
  8
Visible (ANSI)
100
AcDbLine
 10
10.15970203563159
 20
10.04397777680949
 30
0.0
 11
10.35361724737496
 21
9.992075458416941
 31
0.0
  0
ARC
  5
157
330
6C
100
AcDbEntity
  8
Visible (ANSI)
100
AcDbCircle
 10
10.25691819511887
 20
10.40719261452203
 30
0.0
 40
0.3759999999999985
100
AcDbArc
 50
180.0
 51
255.0157438872437
  0
LINE
  5
158
330
6C
100
AcDbEntity
  8
Visible (ANSI)
100
AcDbLine
 10
9.880918195119047
 20
10.75579261452221
 30
0.0
 11
9.880918195118871
 21
10.40719261452221
 31
0.0
  0
ARC
  5
159
330
6C
100
AcDbEntity
  8
Visible (ANSI)
100
AcDbCircle
 10
10.25691819511904
 20
10.75579261452203
 30
0.0
 40
0.376
100
AcDbArc
 50
104.9842561128043
 51
180.0
  0
LINE
  5
15A
330
6C
100
AcDbEntity
  8
Visible (ANSI)
100
AcDbLine
 10
10.35361724737499
 20
11.1709097706271
 30
0.0
 11
10.15970203563144
 21
11.11900745223455
 31
0.0
  0
ARC
  5
15B
330
6C
100
AcDbEntity
  8
Visible (ANSI)
100
AcDbCircle
 10
10.25691819511881
 20
11.53219261452202
 30
0.0
 40
0.3740000000000005
100
AcDbArc
 50
284.9842561127872
 51
0.0
  0
LINE
  5
15C
330
6C
100
AcDbEntity
  8
Visible (ANSI)
100
AcDbLine
 10
10.63091819511881
 20
11.88079261452203
 30
0.0
 11
10.63091819511881
 21
11.53219261452202
 31
0.0
  0
ARC
  5
15D
330
6C
100
AcDbEntity
  8
Visible (ANSI)
100
AcDbCircle
 10
10.25691819511881
 20
11.88079261452202
 30
0.0
 40
0.3740000000000025
100
AcDbArc
 50
0.0
 51
75.01574388723451
  0
LINE
  5
15E
330
6C
100
AcDbEntity
  8
Visible (ANSI)
100
AcDbLine
 10
10.15970203563147
 20
12.29397777680951
 30
0.0
 11
10.35361724737484
 21
12.24207545841693
 31
0.0
  0
ARC
  5
15F
330
6C
100
AcDbEntity
  8
Visible (ANSI)
100
AcDbCircle
 10
10.25691819511881
 20
12.65719261452203
 30
0.0
 40
0.3759999999999997
100
AcDbArc
 50
180.0
 51
255.0157438872345
  0
LINE
  5
160
330
6C
100
AcDbEntity
  8
Visible (ANSI)
100
AcDbLine
 10
9.880918195118812
 20
13.0580835230862
 30
0.0
 11
9.880918195118875
 21
12.65719261452203
 31
0.0
  0
LINE
  5
161
330
6C
100
AcDbEntity
  8
Visible (ANSI)
100
AcDbLine
 10
9.688927449545763
 20
13.25178811882527
 30
0.0
 11
9.880918195118812
 21
13.0580835230862
 31
0.0
  0
ARC
  5
162
330
6C
100
AcDbEntity
  8
Visible (ANSI)
100
AcDbCircle
 10
9.422586766286233
 20
12.9878039517984
 30
0.0
 40
0.3750000000000305
100
AcDbArc
 50
44.74540596055954
 51
66.05986857310603
  0
ARC
  5
163
330
6C
100
AcDbEntity
  8
Visible (ANSI)
100
AcDbCircle
 10
9.761450299381204
 20
13.6471495105777
 30
0.0
 40
0.3675527583046439
100
AcDbArc
 50
219.8494257444726
 51
239.4731819388333
  0
ARC
  5
164
330
6C
100
AcDbEntity
  8
Visible (ANSI)
100
AcDbCircle
 10
10.13941819511887
 20
12.83149261452203
 30
0.0
 40
0.3050000000048004
100
AcDbArc
 50
290.7443326345152
 51
69.28863497521381
  0
LINE
  5
165
330
6C
100
AcDbEntity
  8
Visible Narrow (ANSI)
100
AcDbLine
 10
9.479268633469908
 20
13.41327379987386
 30
0.0
 11
9.479268633469908
 21
13.41163191556434
 31
0.0
  0
LINE
  5
166
330
6C
100
AcDbEntity
  8
Visible (ANSI)
100
AcDbLine
 10
10.25351792732223
 20
8.269117716855022
 30
0.0
 11
10.35361724737496
 21
8.295909770627128
 31
0.0
  0
ARC
  5
167
330
6C
100
AcDbEntity
  8
Visible (ANSI)
100
AcDbCircle
 10
10.25691819511893
 20
8.657192614522026
 30
0.0
 40
0.3739999999999997
100
AcDbArc
 50
284.9842561127651
 51
0.0
  0
LINE
  5
168
330
6C
100
AcDbEntity
  8
Visible (ANSI)
100
AcDbLine
 10
10.63091819511893
 20
8.657192614522028
 30
0.0
 11
10.63091819511893
 21
8.755792614522027
 31
0.0
  0
ARC
  5
169
330
6C
100
AcDbEntity
  8
Visible (ANSI)
100
AcDbCircle
 10
10.25691819511893
 20
8.755792614522029
 30
0.0
 40
0.3739999999999992
100
AcDbArc
 50
0.0
 51
75.01574388723508
  0
LINE
  5
16A
330
6C
100
AcDbEntity
  8
Visible (ANSI)
100
AcDbLine
 10
10.35361724737496
 20
9.117075458416927
 30
0.0
 11
10.25305052536126
 21
9.143992614522044
 31
0.0
  0
LINE
  5
16B
330
6C
100
AcDbEntity
  8
Visible (ANSI)
100
AcDbLine
 10
10.25305052536126
 20
10.01899261452204
 30
0.0
 11
10.35361724737484
 21
10.04590977062711
 31
0.0
  0
ARC
  5
16C
330
6C
100
AcDbEntity
  8
Visible (ANSI)
100
AcDbCircle
 10
10.25691819511887
 20
10.40719261452203
 30
0.0
 40
0.3740000000000021
100
AcDbArc
 50
284.9842561127564
 51
0.0
  0
LINE
  5
16D
330
6C
100
AcDbEntity
  8
Visible (ANSI)
100
AcDbLine
 10
10.6309181951203
 20
10.40719261452341
 30
0.0
 11
10.63091819511901
 21
10.75579261452341
 31
0.0
  0
ARC
  5
16E
330
6C
100
AcDbEntity
  8
Visible (ANSI)
100
AcDbCircle
 10
10.2569181951187
 20
10.75579261452203
 30
0.0
 40
0.3739999999999994
100
AcDbArc
 50
0.0
 51
75.01574388720928
  0
LINE
  5
16F
330
6C
100
AcDbEntity
  8
Visible (ANSI)
100
AcDbLine
 10
10.3536172473749
 20
11.11707545841692
 30
0.0
 11
10.25305052536128
 21
11.14399261452202
 31
0.0
  0
LINE
  5
170
330
6C
100
AcDbEntity
  8
Visible (ANSI)
100
AcDbLine
 10
10.25305052536127
 20
12.26899261452201
 30
0.0
 11
10.35361724737496
 21
12.29590977062712
 31
0.0
  0
ARC
  5
171
330
6C
100
AcDbEntity
  8
Visible (ANSI)
100
AcDbCircle
 10
10.25691819511893
 20
12.65719261452203
 30
0.0
 40
0.3739999999999982
100
AcDbArc
 50
284.984256112765
 51
0.0
  0
LINE
  5
172
330
6C
100
AcDbEntity
  8
Visible (ANSI)
100
AcDbLine
 10
10.63091819511893
 20
12.65719261452203
 30
0.0
 11
10.63091819511893
 21
13.0580835230862
 31
0.0
  0
LINE
  5
173
330
6C
100
AcDbEntity
  8
Visible (ANSI)
100
AcDbLine
 10
10.63091819511893
 20
13.0580835230862
 30
0.0
 11
10.52865828020566
 21
13.16120276501555
 31
0.0
  0
ARC
  5
174
330
6C
100
AcDbEntity
  8
Visible (ANSI)
100
AcDbCircle
 10
10.26238609085655
 20
12.89714951057769
 30
0.0
 40
0.3749999999999903
100
AcDbArc
 50
44.76027010391955
 51
89.99999999999914
  0
LINE
  5
175
330
6C
100
AcDbEntity
  8
Visible (ANSI)
100
AcDbLine
 10
10.26238609085656
 20
13.27214951057768
 30
0.0
 11
9.772401968221831
 21
13.27214951057769
 31
0.0
  0
ARC
  5
176
330
6C
100
AcDbEntity
  8
Visible (ANSI)
100
AcDbCircle
 10
9.772401968221826
 20
13.64714951057769
 30
0.0
 40
0.3750000000000071
100
AcDbArc
 50
247.670908110989
 51
270.0000000000009
  0
ARC
  5
177
330
6C
100
AcDbEntity
  8
Visible (ANSI)
100
AcDbCircle
 10
9.772401968221696
 20
13.64714951057757
 30
0.0
 40
0.3749999999998276
100
AcDbArc
 50
218.5845300246644
 51
226.5390748006622
  0
ARC
  5
178
330
6C
100
AcDbEntity
  8
Visible (ANSI)
100
AcDbCircle
 10
10.13941819511887
 20
10.45649261452203
 30
0.0
 40
0.3050000000048001
100
AcDbArc
 50
290.7443326345149
 51
69.28863497521381
  0
ARC
  5
179
330
6C
100
AcDbEntity
  8
Visible (ANSI)
100
AcDbCircle
 10
10.13941819511887
 20
8.706492614522026
 30
0.0
 40
0.3050000000048004
100
AcDbArc
 50
290.7443326345152
 51
69.28863497521374
  0
LINE
  5
17A
330
6C
100
AcDbEntity
  8
Visible (ANSI)
100
AcDbLine
 10
9.440268633469907
 20
13.61274261950163
 30
0.0
 11
9.440268633469907
 21
13.83296661771839
 31
0.0
  0
LINE
  5
17B
330
6C
100
AcDbEntity
  8
Visible (ANSI)
100
AcDbLine
 10
9.440268633469907
 20
11.81830767616725
 30
0.0
 11
9.440268633469907
 21
13.61274261950163
 31
0.0
  0
LINE
  5
17C
330
6C
100
AcDbEntity
  8
Visible (ANSI)
100
AcDbLine
 10
9.440268633469907
 20
11.4433076762233
 30
0.0
 11
9.440268633469907
 21
11.81830767611119
 31
0.0
  0
LINE
  5
17D
330
6C
100
AcDbEntity
  8
Visible (ANSI)
100
AcDbLine
 10
9.440268633469907
 20
7.393992570163306
 30
0.0
 11
9.440268633469907
 21
11.4433076762222
 31
0.0
  0
LINE
  5
17E
330
6C
100
AcDbEntity
  8
Visible (ANSI)
100
AcDbLine
 10
9.440268633469907
 20
7.308492114994136
 30
0.0
 11
9.440268633469907
 21
7.393992570160898
 31
0.0
  0
LINE
  5
17F
330
6C
100
AcDbEntity
  8
Visible (ANSI)
100
AcDbLine
 10
9.440268633469907
 20
7.2585504797136
 30
0.0
 11
9.440268633469907
 21
7.308492114994136
 31
0.0
  0
LINE
  5
180
330
6C
100
AcDbEntity
  8
Visible (ANSI)
100
AcDbLine
 10
9.440268633469907
 20
7.173050564265134
 30
0.0
 11
9.440268633469907
 21
7.2585504797136
 31
0.0
  0
LINE
  5
181
330
6C
100
AcDbEntity
  8
Visible (ANSI)
100
AcDbLine
 10
9.440268633469907
 20
5.675814779368042
 30
0.0
 11
9.440268633469907
 21
7.173050564265134
 31
0.0
  0
LINE
  5
182
330
6C
100
AcDbEntity
  8
Visible Narrow (ANSI)
100
AcDbLine
 10
9.455499080848207
 20
5.639045226746342
 30
0.0
 11
9.418729528226506
 21
5.602275674124642
 31
0.0
  0
LINE
  5
183
330
6C
100
AcDbEntity
  8
Visible Narrow (ANSI)
100
AcDbLine
 10
9.388268633469907
 20
5.675814779368042
 30
0.0
 11
9.440268633469907
 21
5.675814779368042
 31
0.0
  0
LINE
  5
184
330
6C
100
AcDbEntity
  8
Visible (ANSI)
100
AcDbLine
 10
9.388268633469907
 20
5.675814779368042
 30
0.0
 11
9.388268633469907
 21
7.173050564265134
 31
0.0
  0
LINE
  5
185
330
6C
100
AcDbEntity
  8
Visible (ANSI)
100
AcDbLine
 10
9.388268633469907
 20
7.173050564265134
 30
0.0
 11
9.388268633469907
 21
7.2585504797136
 31
0.0
  0
LINE
  5
186
330
6C
100
AcDbEntity
  8
Visible (ANSI)
100
AcDbLine
 10
9.388268633469907
 20
7.2585504797136
 30
0.0
 11
9.388268633469907
 21
7.308492114994136
 31
0.0
  0
LINE
  5
187
330
6C
100
AcDbEntity
  8
Visible (ANSI)
100
AcDbLine
 10
9.388268633469907
 20
7.308492114994136
 30
0.0
 11
9.388268633469907
 21
7.393992570160898
 31
0.0
  0
LINE
  5
188
330
6C
100
AcDbEntity
  8
Visible (ANSI)
100
AcDbLine
 10
9.388268633469907
 20
7.393992570163306
 30
0.0
 11
9.388268633469907
 21
11.4433076762222
 31
0.0
  0
LINE
  5
189
330
6C
100
AcDbEntity
  8
Visible (ANSI)
100
AcDbLine
 10
9.388268633469907
 20
11.4433076762233
 30
0.0
 11
9.388268633469907
 21
11.81830767611119
 31
0.0
  0
LINE
  5
18A
330
6C
100
AcDbEntity
  8
Visible (ANSI)
100
AcDbLine
 10
9.388268633469907
 20
11.81830767616725
 30
0.0
 11
9.388268633469907
 21
13.61274261950163
 31
0.0
  0
LINE
  5
18B
330
6C
100
AcDbEntity
  8
Visible (ANSI)
100
AcDbLine
 10
9.388268633469907
 20
13.61274261950163
 30
0.0
 11
9.388268633469907
 21
13.83296661771839
 31
0.0
  0
LINE
  5
18C
330
6C
100
AcDbEntity
  8
Visible (ANSI)
100
AcDbLine
 10
9.388268633469907
 20
7.173050564265134
 30
0.0
 11
9.440268633469907
 21
7.173050564265134
 31
0.0
  0
LINE
  5
18D
330
6C
100
AcDbEntity
  8
Visible (ANSI)
100
AcDbLine
 10
9.388268633469907
 20
13.83296661771839
 30
0.0
 11
9.440268633469907
 21
13.83296661771839
 31
0.0
  0
LINE
  5
18E
330
6C
100
AcDbEntity
  8
Visible (ANSI)
100
AcDbLine
 10
9.388268633469907
 20
13.61274261950163
 30
0.0
 11
9.440268633469907
 21
13.61274261950163
 31
0.0
  0
LINE
  5
18F
330
6C
100
AcDbEntity
  8
Visible (ANSI)
100
AcDbLine
 10
9.388268633469907
 20
11.81830767616725
 30
0.0
 11
9.440268633469907
 21
11.81830767616725
 31
0.0
  0
LINE
  5
190
330
6C
100
AcDbEntity
  8
Visible (ANSI)
100
AcDbLine
 10
9.388268633469907
 20
11.4433076762222
 30
0.0
 11
9.440268633469907
 21
11.4433076762222
 31
0.0
  0
LINE
  5
191
330
6C
100
AcDbEntity
  8
Visible (ANSI)
100
AcDbLine
 10
9.388268633469907
 20
7.393992570163306
 30
0.0
 11
9.440268633469907
 21
7.393992570163306
 31
0.0
  0
LINE
  5
192
330
6C
100
AcDbEntity
  8
Visible Narrow (ANSI)
100
AcDbLine
 10
9.388268633469907
 20
7.308492114994136
 30
0.0
 11
9.440268633469907
 21
7.308492114994136
 31
0.0
  0
LINE
  5
193
330
6C
100
AcDbEntity
  8
Visible Narrow (ANSI)
100
AcDbLine
 10
9.388268633469907
 20
7.2585504797136
 30
0.0
 11
9.440268633469907
 21
7.2585504797136
 31
0.0
  0
LINE
  5
194
330
6C
100
AcDbEntity
  8
Visible (ANSI)
100
AcDbLine
 10
10.90224772250141
 20
4.118757479849737
 30
0.0
 11
10.45982733295233
 21
4.561177869398814
 31
0.0
  0
LINE
  5
195
330
6C
100
AcDbEntity
  8
Visible (ANSI)
100
AcDbLine
 10
10.45982733295233
 20
4.561177869398814
 30
0.0
 11
10.41575825704506
 21
4.605246945306081
 31
0.0
  0
LINE
  5
196
330
6C
100
AcDbEntity
  8
Visible (ANSI)
100
AcDbLine
 10
10.41575825704506
 20
4.605246945306081
 30
0.0
 11
10.0404613329303
 21
4.980543869420842
 31
0.0
  0
LINE
  5
197
330
6C
100
AcDbEntity
  8
Visible (ANSI)
100
AcDbLine
 10
10.0404613329303
 20
4.980543869420842
 30
0.0
 11
9.418729528226506
 21
5.602275674124642
 31
0.0
  0
LINE
  5
198
330
6C
100
AcDbEntity
  8
Visible (ANSI)
100
AcDbLine
 10
10.48092265088984
 20
4.582273187336323
 30
0.0
 11
10.49659688557403
 21
4.597947422020514
 31
0.0
  0
LINE
  5
199
330
6C
100
AcDbEntity
  8
Visible (ANSI)
100
AcDbLine
 10
10.45982733295233
 20
4.561177869398814
 30
0.0
 11
10.48092265088984
 21
4.582273187336323
 31
0.0
  0
LINE
  5
19A
330
6C
100
AcDbEntity
  8
Visible Narrow (ANSI)
100
AcDbLine
 10
10.53370147999035
 20
4.634381932847595
 30
0.0
 11
10.97578682774481
 21
4.192296585093138
 31
0.0
  0
LINE
  5
19B
330
6C
100
AcDbEntity
  8
Visible (ANSI)
100
AcDbLine
 10
10.49659688557403
 20
4.597947422020514
 30
0.0
 11
10.45252780966676
 21
4.642016497927782
 31
0.0
  0
LINE
  5
19C
330
6C
100
AcDbEntity
  8
Visible (ANSI)
100
AcDbLine
 10
10.41575825704506
 20
4.605246945306081
 30
0.0
 11
10.45252780966676
 21
4.642016497927782
 31
0.0
  0
LINE
  5
19D
330
6C
100
AcDbEntity
  8
Visible (ANSI)
100
AcDbLine
 10
10.45252780966676
 20
4.642016497927782
 30
0.0
 11
10.077230885552
 21
5.017313422042542
 31
0.0
  0
LINE
  5
19E
330
6C
100
AcDbEntity
  8
Visible (ANSI)
100
AcDbLine
 10
10.0404613329303
 20
4.980543869420842
 30
0.0
 11
10.077230885552
 21
5.017313422042542
 31
0.0
  0
LINE
  5
19F
330
6C
100
AcDbEntity
  8
Visible (ANSI)
100
AcDbLine
 10
10.077230885552
 20
5.017313422042542
 30
0.0
 11
9.455499080848207
 21
5.639045226746342
 31
0.0
  0
ARC
  5
1A0
330
6C
100
AcDbEntity
  8
Visible (ANSI)
100
AcDbCircle
 10
10.44824230807319
 20
4.637023889553025
 30
0.0
 40
0.0854999999999998
100
AcDbArc
 50
358.2292740573902
 51
44.66493505210354
  0
LINE
  5
1A1
330
6C
100
AcDbEntity
  8
Visible (ANSI)
100
AcDbLine
 10
10.75830863162349
 20
4.946383106322138
 30
0.0
 11
10.50905245746455
 21
4.697126932163198
 31
0.0
  0
LINE
  5
1A2
330
6C
100
AcDbEntity
  8
Visible (ANSI)
100
AcDbLine
 10
10.93437822013894
 20
4.946383106322139
 30
0.0
 11
10.75830863162349
 21
4.946383106322138
 31
0.0
  0
LINE
  5
1A3
330
6C
100
AcDbEntity
  8
Visible (ANSI)
100
AcDbLine
 10
11.24373743690806
 20
4.637023889553024
 30
0.0
 11
10.93437822013894
 21
4.946383106322139
 31
0.0
  0
LINE
  5
1A4
330
6C
100
AcDbEntity
  8
Visible (ANSI)
100
AcDbLine
 10
11.24373743690806
 20
4.460247194256387
 30
0.0
 11
11.24373743690806
 21
4.637023889553024
 31
0.0
  0
LINE
  5
1A5
330
6C
100
AcDbEntity
  8
Visible (ANSI)
100
AcDbLine
 10
10.97578682774481
 20
4.192296585093138
 30
0.0
 11
11.24373743690806
 21
4.460247194256387
 31
0.0
  0
ELLIPSE
  5
1A6
330
6C
100
AcDbEntity
  8
Visible (ANSI)
100
AcDbEllipse
 10
10.29481372804284
 20
11.75461761452202
 30
0.0
 11
0.1039230484541326
 21
-0.0000000000000001
 31
0.0
210
0.0
220
0.0
230
1.0
 40
0.8660254037844389
 41
1.059556272095514
 42
1.570796326794897
  0
ELLIPSE
  5
1A7
330
6C
100
AcDbEntity
  8
Visible (ANSI)
100
AcDbEllipse
 10
10.29481372804284
 20
11.40836761452202
 30
0.0
 11
0.1039230484541326
 21
-0.0000000000000001
 31
0.0
210
0.0
220
0.0
230
1.0
 40
0.8660254037844389
 41
4.712388980384689
 42
5.223629035084073
  0
LINE
  5
1A8
330
6C
100
AcDbEntity
  8
Visible Narrow (ANSI)
100
AcDbLine
 10
10.12231056628653
 20
11.41974554054599
 30
0.0
 11
10.21087409416595
 21
11.31836761452202
 31
0.0
  0
SPLINE
  5
1A9
330
6C
100
AcDbEntity
  8
Visible Narrow (ANSI)
100
AcDbSpline
210
0.0
220
0.0
230
1.0
 70
     8
 71
     3
 72
    16
 73
    12
 74
     0
 42
0.0000000001
 43
0.0000000001
 40
-0.8951673419923228
 40
-0.8951673419923228
 40
-0.8951673419923228
 40
-0.8951673419923228
 40
-0.751186679275945
 40
-0.751186679275945
 40
-0.5309410068954592
 40
-0.5309410068954592
 40
-0.3310610724315122
 40
-0.3310610724315122
 40
-0.1273311817044278
 40
-0.1273311817044278
 40
0.0
 40
0.0
 40
0.0
 40
0.0
 10
10.12231056628646
 20
11.74323968849771
 30
0.0
 10
10.10987936106137
 20
11.72900979235564
 30
0.0
 10
10.09882377745729
 20
11.71333342365878
 30
0.0
 10
10.07576291603534
 20
11.67118420814578
 30
0.0
 10
10.06630180793756
 20
11.64326113407782
 30
0.0
 10
10.05851366835549
 20
11.58844016898292
 30
0.0
 10
10.05923631453186
 20
11.56169631884979
 30
0.0
 10
10.06962768496796
 20
11.50928739749684
 30
0.0
 10
10.07932903809627
 20
11.48401573700585
 30
0.0
 10
10.10136941097045
 20
11.44607256389171
 30
0.0
 10
10.1113168674004
 20
11.4323299352635
 30
0.0
 10
10.12231056628647
 20
11.41974554054606
 30
0.0
  0
LINE
  5
1AA
330
6C
100
AcDbEntity
  8
Visible Narrow (ANSI)
100
AcDbLine
 10
10.21087409416604
 20
11.84461761452202
 30
0.0
 11
10.12231056628646
 21
11.74323968849771
 31
0.0
  0
SPLINE
  5
1AB
330
6C
100
AcDbEntity
  8
Visible (ANSI)
100
AcDbSpline
210
0.0
220
0.0
230
1.0
 70
     8
 71
     3
 72
    12
 73
     8
 74
     0
 42
0.0000000001
 43
0.0000000001
 40
0.2150237208379536
 40
0.2150237208379536
 40
0.2150237208379536
 40
0.2150237208379536
 40
0.2750881306777925
 40
0.2750881306777925
 40
0.3422257193793513
 40
0.3422257193793513
 40
0.3591123932691957
 40
0.3591123932691957
 40
0.3591123932691957
 40
0.3591123932691957
 10
10.28681668119967
 20
11.31836761452202
 30
0.0
 10
10.29461511278206
 20
11.31836761452202
 30
0.0
 10
10.30253436197561
 20
11.31968703435182
 30
0.0
 10
10.31535647552653
 20
11.32424778759568
 30
0.0
 10
10.32120936339855
 20
11.3280476837754
 30
0.0
 10
10.32626684228968
 20
11.33370319394923
 30
0.0
 10
10.32717699647507
 20
11.33488228348581
 30
0.0
 10
10.3279809174374
 20
11.3360876293096
 30
0.0
  0
LINE
  5
1AC
330
6C
100
AcDbEntity
  8
Visible Narrow (ANSI)
100
AcDbLine
 10
10.3279809174374
 20
11.3360876293096
 30
0.0
 11
10.19750851133909
 21
11.48543829600405
 31
0.0
  0
LINE
  5
1AD
330
6C
100
AcDbEntity
  8
Visible Narrow (ANSI)
100
AcDbLine
 10
10.19750851133909
 20
11.48543829600404
 30
0.0
 11
10.12231056628653
 21
11.41974554054599
 31
0.0
  0
LINE
  5
1AE
330
6C
100
AcDbEntity
  8
Visible Narrow (ANSI)
100
AcDbLine
 10
10.19750851133905
 20
11.67754693303974
 30
0.0
 11
10.12231056628646
 21
11.74323968849771
 31
0.0
  0
SPLINE
  5
1AF
330
6C
100
AcDbEntity
  8
Visible Narrow (ANSI)
100
AcDbSpline
210
0.0
220
0.0
230
1.0
 70
     8
 71
     3
 72
    16
 73
    12
 74
     0
 42
0.0000000001
 43
0.0000000001
 40
0.0
 40
0.0
 40
0.0
 40
0.0
 40
0.1273311817044278
 40
0.1273311817044278
 40
0.3310610724315122
 40
0.3310610724315122
 40
0.5309410068954592
 40
0.5309410068954592
 40
0.751186679275945
 40
0.751186679275945
 40
0.8951673419923228
 40
0.8951673419923228
 40
0.8951673419923228
 40
0.8951673419923228
 10
10.19750851133906
 20
11.48543829600404
 30
0.0
 10
10.18907657349764
 20
11.49215783804686
 30
0.0
 10
10.18132540585674
 20
11.49977707131315
 30
0.0
 10
10.16397582303264
 20
11.52156956858079
 30
0.0
 10
10.15615323022924
 20
11.5367974515404
 30
0.0
 10
10.14775623980929
 20
11.56908904456642
 30
0.0
 10
10.14716452941504
 20
11.58587316493136
 30
0.0
 10
10.15347054279818
 20
11.61982866202529
 30
0.0
 10
10.16113323120688
 20
11.63681494180785
 30
0.0
 10
10.17933871899721
 20
11.66121545436894
 30
0.0
 10
10.18797403610573
 20
11.66994876184926
 30
0.0
 10
10.19750851133905
 20
11.67754693303974
 30
0.0
  0
LINE
  5
1B0
330
6C
100
AcDbEntity
  8
Visible Narrow (ANSI)
100
AcDbLine
 10
10.19750851133905
 20
11.67754693303974
 30
0.0
 11
10.3279809174374
 21
11.82689759973446
 31
0.0
  0
SPLINE
  5
1B1
330
6C
100
AcDbEntity
  8
Visible (ANSI)
100
AcDbSpline
210
0.0
220
0.0
230
1.0
 70
     8
 71
     3
 72
    12
 73
     8
 74
     0
 42
0.0000000001
 43
0.0000000001
 40
2.466043470984515
 40
2.466043470984515
 40
2.466043470984515
 40
2.466043470984515
 40
2.48604246844482
 40
2.48604246844482
 40
2.556409122045188
 40
2.556409122045188
 40
2.610533610397315
 40
2.610533610397315
 40
2.610533610397315
 40
2.610533610397315
 10
10.3279809174374
 20
11.82689759973446
 30
0.0
 10
10.32703203833645
 20
11.82832028618649
 30
0.0
 10
10.32593495447841
 20
11.82970636992592
 30
0.0
 10
10.32030816525399
 20
11.83568679997122
 30
0.0
 10
10.31394537048696
 20
11.83951458596995
 30
0.0
 10
10.30099885613652
 20
11.84355603117182
 30
0.0
 10
10.29394184356575
 20
11.84461761452202
 30
0.0
 10
10.28681668119969
 20
11.84461761452202
 30
0.0
  0
LINE
  5
1B2
330
6C
100
AcDbEntity
  8
Visible Narrow (ANSI)
100
AcDbLine
 10
10.30685330221873
 20
11.67754693303974
 30
0.0
 11
10.19750851133905
 21
11.67754693303974
 31
0.0
  0
LINE
  5
1B3
330
6C
100
AcDbEntity
  8
Visible (ANSI)
100
AcDbLine
 10
10.30685330221873
 20
11.67754693303974
 30
0.0
 11
10.33149734382985
 21
11.75461761452202
 31
0.0
  0
ELLIPSE
  5
1B4
330
6C
100
AcDbEntity
  8
Visible (ANSI)
100
AcDbEllipse
 10
10.26561277114849
 20
11.75461761452202
 30
0.0
 11
0.0493845960130105
 21
0.0846850811842677
 31
0.0
210
0.0
220
0.0
230
1.0
 40
0.6169993694450852
 41
5.057773480180995
 42
5.990271680306952
  0
LINE
  5
1B5
330
6C
100
AcDbEntity
  8
Visible Narrow (ANSI)
100
AcDbLine
 10
10.30685330221873
 20
11.48543829600405
 30
0.0
 11
10.19750851133909
 21
11.48543829600405
 31
0.0
  0
ELLIPSE
  5
1B6
330
6C
100
AcDbEntity
  8
Visible (ANSI)
100
AcDbEllipse
 10
10.34709873645712
 20
11.58149261452189
 30
0.0
 11
-0.0000000000000001
 21
-0.1459999999999999
 31
0.0
210
0.0
220
0.0
230
1.0
 40
0.366025403785321
 41
3.994353728665638
 42
5.430424232103749
  0
ELLIPSE
  5
1B7
330
6C
100
AcDbEntity
  8
Visible (ANSI)
100
AcDbEllipse
 10
10.26561277114844
 20
11.40836761452202
 30
0.0
 11
-0.0493845960130611
 21
0.0846850811842633
 31
0.0
210
0.0
220
0.0
230
1.0
 40
0.6169993694448115
 41
3.434506280462692
 42
4.367004480588263
  0
LINE
  5
1B8
330
6C
100
AcDbEntity
  8
Visible (ANSI)
100
AcDbLine
 10
10.3314973438298
 20
11.40836761452202
 30
0.0
 11
10.30685330221873
 21
11.48543829600405
 31
0.0
  0
ELLIPSE
  5
1B9
330
6C
100
AcDbEntity
  8
Visible (ANSI)
100
AcDbEllipse
 10
10.29088607615118
 20
11.40836761452202
 30
0.0
 11
0.0493845960130666
 21
-0.0846850811842602
 31
0.0
210
0.0
220
0.0
230
1.0
 40
0.6169993694448116
 41
0.3256632985091397
 42
1.225411826998342
  0
LINE
  5
1BA
330
6C
100
AcDbEntity
  8
Visible Narrow (ANSI)
100
AcDbLine
 10
10.35677064883253
 20
11.40836761452202
 30
0.0
 11
10.3314973438298
 21
11.40836761452202
 31
0.0
  0
LINE
  5
1BB
330
6C
100
AcDbEntity
  8
Visible (ANSI)
100
AcDbLine
 10
10.32118729249543
 20
11.51964942314733
 30
0.0
 11
10.35677064883253
 21
11.40836761452202
 31
0.0
  0
ELLIPSE
  5
1BC
330
6C
100
AcDbEntity
  8
Visible (ANSI)
100
AcDbEllipse
 10
10.34709873645712
 20
11.58149261452189
 30
0.0
 11
-0.0000000000000001
 21
-0.094
 31
0.0
210
0.0
220
0.0
230
1.0
 40
0.366025403785321
 41
3.99435372866384
 42
5.430424232104551
  0
LINE
  5
1BD
330
6C
100
AcDbEntity
  8
Visible (ANSI)
100
AcDbLine
 10
10.35677064883256
 20
11.75461761452202
 30
0.0
 11
10.32118729249545
 21
11.64333580589652
 31
0.0
  0
LINE
  5
1BE
330
6C
100
AcDbEntity
  8
Visible Narrow (ANSI)
100
AcDbLine
 10
10.33149734382985
 20
11.75461761452202
 30
0.0
 11
10.35677064883256
 21
11.75461761452202
 31
0.0
  0
ELLIPSE
  5
1BF
330
6C
100
AcDbEntity
  8
Visible (ANSI)
100
AcDbEllipse
 10
10.2908860761512
 20
11.75461761452202
 30
0.0
 11
-0.0493845960130051
 21
-0.0846850811842709
 31
0.0
210
0.0
220
0.0
230
1.0
 40
0.616999369445085
 41
1.916180826591058
 42
2.815929355079882
  0
LINE
  5
1C0
330
6C
100
AcDbEntity
  8
Visible Narrow (ANSI)
100
AcDbLine
 10
10.12231056628653
 20
9.419745540545994
 30
0.0
 11
10.21087409416595
 21
9.318367614522026
 31
0.0
  0
SPLINE
  5
1C1
330
6C
100
AcDbEntity
  8
Visible Narrow (ANSI)
100
AcDbSpline
210
0.0
220
0.0
230
1.0
 70
     8
 71
     3
 72
    16
 73
    12
 74
     0
 42
0.0000000001
 43
0.0000000001
 40
-0.8951673372187267
 40
-0.8951673372187267
 40
-0.8951673372187267
 40
-0.8951673372187267
 40
-0.7511839907472357
 40
-0.7511839907472357
 40
-0.5309407765780115
 40
-0.5309407765780115
 40
-0.3310609672181943
 40
-0.3310609672181943
 40
-0.127331141237767
 40
-0.127331141237767
 40
0.0
 40
0.0
 40
0.0
 40
0.0
 10
10.12231056628646
 20
9.743239688497714
 30
0.0
 10
10.10987912934754
 20
9.729009527114763
 30
0.0
 10
10.09882336704325
 20
9.713332839609089
 30
0.0
 10
10.07576267414127
 20
9.671183511972301
 30
0.0
 10
10.06630173941761
 20
9.643260727333473
 30
0.0
 10
10.05851366834527
 20
9.588440100328027
 30
0.0
 10
10.05923632103941
 20
9.561696262219427
 30
0.0
 10
10.0696276962371
 20
9.509287364928994
 30
0.0
 10
10.07932904918175
 20
9.484015714478765
 30
0.0
 10
10.10136941733033
 20
9.446072555094914
 30
0.0
 10
10.11131687089427
 20
9.432329931264103
 30
0.0
 10
10.12231056628647
 20
9.419745540546058
 30
0.0
  0
LINE
  5
1C2
330
6C
100
AcDbEntity
  8
Visible Narrow (ANSI)
100
AcDbLine
 10
10.21087409416604
 20
9.844617614522027
 30
0.0
 11
10.12231056628646
 21
9.743239688497714
 31
0.0
  0
SPLINE
  5
1C3
330
6C
100
AcDbEntity
  8
Visible (ANSI)
100
AcDbSpline
210
0.0
220
0.0
230
1.0
 70
     8
 71
     3
 72
    12
 73
     8
 74
     0
 42
0.0000000001
 43
0.0000000001
 40
0.215023720837954
 40
0.215023720837954
 40
0.215023720837954
 40
0.215023720837954
 40
0.2750881306777917
 40
0.2750881306777917
 40
0.3422257193793505
 40
0.3422257193793505
 40
0.3591123932691929
 40
0.3591123932691929
 40
0.3591123932691929
 40
0.3591123932691929
 10
10.28681668119967
 20
9.318367614522026
 30
0.0
 10
10.29461511278206
 20
9.318367614522026
 30
0.0
 10
10.30253436197561
 20
9.319687034351826
 30
0.0
 10
10.31535647552653
 20
9.324247787595686
 30
0.0
 10
10.32120936339855
 20
9.328047683775396
 30
0.0
 10
10.32626684228968
 20
9.333703193949236
 30
0.0
 10
10.32717699647507
 20
9.334882283485816
 30
0.0
 10
10.3279809174374
 20
9.3360876293096
 30
0.0
  0
LINE
  5
1C4
330
6C
100
AcDbEntity
  8
Visible Narrow (ANSI)
100
AcDbLine
 10
10.3279809174374
 20
9.3360876293096
 30
0.0
 11
10.19750851133909
 21
9.485438296004046
 31
0.0
  0
LINE
  5
1C5
330
6C
100
AcDbEntity
  8
Visible Narrow (ANSI)
100
AcDbLine
 10
10.19750851133909
 20
9.485438296004046
 30
0.0
 11
10.12231056628653
 21
9.419745540545994
 31
0.0
  0
LINE
  5
1C6
330
6C
100
AcDbEntity
  8
Visible Narrow (ANSI)
100
AcDbLine
 10
10.19750851133905
 20
9.677546933039739
 30
0.0
 11
10.12231056628646
 21
9.743239688497716
 31
0.0
  0
SPLINE
  5
1C7
330
6C
100
AcDbEntity
  8
Visible Narrow (ANSI)
100
AcDbSpline
210
0.0
220
0.0
230
1.0
 70
     8
 71
     3
 72
    16
 73
    12
 74
     0
 42
0.0000000001
 43
0.0000000001
 40
0.0
 40
0.0
 40
0.0
 40
0.0
 40
0.127331141237767
 40
0.127331141237767
 40
0.3310609672181943
 40
0.3310609672181943
 40
0.5309407765780115
 40
0.5309407765780115
 40
0.7511839907472357
 40
0.7511839907472357
 40
0.8951673372187267
 40
0.8951673372187267
 40
0.8951673372187267
 40
0.8951673372187267
 10
10.19750851133906
 20
9.485438296004041
 30
0.0
 10
10.18907657617737
 20
9.492157835911351
 30
0.0
 10
10.18132541081358
 20
9.499777066431105
 30
0.0
 10
10.16397583183799
 20
9.521569555369898
 30
0.0
 10
10.15615323930388
 20
9.536797431793207
 30
0.0
 10
10.14775624509893
 20
9.569089009360453
 30
0.0
 10
10.14716452937302
 20
9.585873121932291
 30
0.0
 10
10.15347048735513
 20
9.619828410615738
 30
0.0
 10
10.16113303515018
 20
9.636814520171936
 30
0.0
 10
10.17933839832327
 20
9.661215128427318
 30
0.0
 10
10.18797385838606
 20
9.669948620221692
 30
0.0
 10
10.19750851133905
 20
9.677546933039739
 30
0.0
  0
LINE
  5
1C8
330
6C
100
AcDbEntity
  8
Visible Narrow (ANSI)
100
AcDbLine
 10
10.19750851133905
 20
9.677546933039739
 30
0.0
 11
10.3279809174374
 21
9.826897599734463
 31
0.0
  0
SPLINE
  5
1C9
330
6C
100
AcDbEntity
  8
Visible (ANSI)
100
AcDbSpline
210
0.0
220
0.0
230
1.0
 70
     8
 71
     3
 72
    12
 73
     8
 74
     0
 42
0.0000000001
 43
0.0000000001
 40
2.466043470984512
 40
2.466043470984512
 40
2.466043470984512
 40
2.466043470984512
 40
2.486042468444817
 40
2.486042468444817
 40
2.556409122045184
 40
2.556409122045184
 40
2.610533610397311
 40
2.610533610397311
 40
2.610533610397311
 40
2.610533610397311
 10
10.3279809174374
 20
9.826897599734463
 30
0.0
 10
10.32703203833645
 20
9.828320286186498
 30
0.0
 10
10.32593495447841
 20
9.82970636992592
 30
0.0
 10
10.32030816525399
 20
9.835686799971218
 30
0.0
 10
10.31394537048696
 20
9.839514585969949
 30
0.0
 10
10.30099885613652
 20
9.843556031171823
 30
0.0
 10
10.29394184356575
 20
9.844617614522027
 30
0.0
 10
10.28681668119969
 20
9.844617614522027
 30
0.0
  0
LINE
  5
1CA
330
6C
100
AcDbEntity
  8
Visible Narrow (ANSI)
100
AcDbLine
 10
10.30685330221873
 20
9.677546933039739
 30
0.0
 11
10.19750851133905
 21
9.677546933039739
 31
0.0
  0
LINE
  5
1CB
330
6C
100
AcDbEntity
  8
Visible Narrow (ANSI)
100
AcDbLine
 10
10.30685330221873
 20
9.485438296004046
 30
0.0
 11
10.19750851133909
 21
9.485438296004046
 31
0.0
  0
LINE
  5
1CC
330
6C
100
AcDbEntity
  8
Visible (ANSI)
100
AcDbLine
 10
10.30685330221873
 20
9.677546933039739
 30
0.0
 11
10.33149734382985
 21
9.754617614522027
 31
0.0
  0
ELLIPSE
  5
1CD
330
6C
100
AcDbEntity
  8
Visible (ANSI)
100
AcDbEllipse
 10
10.34709873645712
 20
9.581492614521893
 30
0.0
 11
-0.0000000000000001
 21
-0.1459999999999999
 31
0.0
210
0.0
220
0.0
230
1.0
 40
0.366025403785321
 41
3.994353728665638
 42
5.430424232103749
  0
LINE
  5
1CE
330
6C
100
AcDbEntity
  8
Visible (ANSI)
100
AcDbLine
 10
10.3314973438298
 20
9.408367614522026
 30
0.0
 11
10.30685330221873
 21
9.485438296004046
 31
0.0
  0
LINE
  5
1CF
330
6C
100
AcDbEntity
  8
Visible (ANSI)
100
AcDbLine
 10
10.32118729249543
 20
9.519649423147335
 30
0.0
 11
10.35677064883253
 21
9.408367614522026
 31
0.0
  0
LINE
  5
1D0
330
6C
100
AcDbEntity
  8
Visible (ANSI)
100
AcDbLine
 10
10.35677064883256
 20
9.754617614522027
 30
0.0
 11
10.32118729249545
 21
9.643335805896525
 31
0.0
  0
ELLIPSE
  5
1D1
330
6C
100
AcDbEntity
  8
Visible (ANSI)
100
AcDbEllipse
 10
10.34709873645712
 20
9.581492614521893
 30
0.0
 11
-0.0000000000000001
 21
-0.094
 31
0.0
210
0.0
220
0.0
230
1.0
 40
0.366025403785321
 41
3.99435372866384
 42
5.430424232104551
  0
ELLIPSE
  5
1D2
330
6C
100
AcDbEntity
  8
Visible (ANSI)
100
AcDbEllipse
 10
10.26561277114849
 20
9.754617614522027
 30
0.0
 11
0.0493845960130105
 21
0.0846850811842677
 31
0.0
210
0.0
220
0.0
230
1.0
 40
0.6169993694450852
 41
5.057773480180995
 42
5.990271680306952
  0
ELLIPSE
  5
1D3
330
6C
100
AcDbEntity
  8
Visible (ANSI)
100
AcDbEllipse
 10
10.26561277114844
 20
9.408367614522026
 30
0.0
 11
-0.0493845960130611
 21
0.0846850811842633
 31
0.0
210
0.0
220
0.0
230
1.0
 40
0.6169993694448115
 41
3.434506280462692
 42
4.367004480588263
  0
ELLIPSE
  5
1D4
330
6C
100
AcDbEntity
  8
Visible (ANSI)
100
AcDbEllipse
 10
10.29088607615118
 20
9.408367614522026
 30
0.0
 11
0.0493845960130666
 21
-0.0846850811842602
 31
0.0
210
0.0
220
0.0
230
1.0
 40
0.6169993694448116
 41
0.3256632985091397
 42
1.225411826998342
  0
ELLIPSE
  5
1D5
330
6C
100
AcDbEntity
  8
Visible (ANSI)
100
AcDbEllipse
 10
10.2908860761512
 20
9.754617614522027
 30
0.0
 11
-0.0493845960130051
 21
-0.0846850811842709
 31
0.0
210
0.0
220
0.0
230
1.0
 40
0.616999369445085
 41
1.916180826591058
 42
2.815929355079882
  0
LINE
  5
1D6
330
6C
100
AcDbEntity
  8
Visible Narrow (ANSI)
100
AcDbLine
 10
10.35677064883253
 20
9.408367614522026
 30
0.0
 11
10.3314973438298
 21
9.408367614522026
 31
0.0
  0
LINE
  5
1D7
330
6C
100
AcDbEntity
  8
Visible Narrow (ANSI)
100
AcDbLine
 10
10.33149734382985
 20
9.754617614522027
 30
0.0
 11
10.35677064883256
 21
9.754617614522027
 31
0.0
  0
LINE
  5
1D8
330
6C
100
AcDbEntity
  8
Visible Narrow (ANSI)
100
AcDbLine
 10
10.24728461370192
 20
13.11678165347199
 30
0.0
 11
10.11053343490347
 21
12.96024158084225
 31
0.0
  0
LINE
  5
1D9
330
6C
100
AcDbEntity
  8
Visible Narrow (ANSI)
100
AcDbLine
 10
10.18573166489228
 20
12.89454947771636
 30
0.0
 11
10.11053343490347
 21
12.96024158084225
 31
0.0
  0
LINE
  5
1DA
330
6C
100
AcDbEntity
  8
Visible Narrow (ANSI)
100
AcDbLine
 10
10.18573166489228
 20
12.89454947771636
 30
0.0
 11
10.33505573462697
 21
13.06548183038068
 31
0.0
  0
LINE
  5
1DB
330
6C
100
AcDbEntity
  8
Visible Narrow (ANSI)
100
AcDbLine
 10
10.18573166489228
 20
12.76868575132769
 30
0.0
 11
10.11053343490348
 21
12.7029936482018
 31
0.0
  0
ARC
  5
1DC
330
6C
100
AcDbEntity
  8
Visible Narrow (ANSI)
100
AcDbCircle
 10
10.25777022808219
 20
12.83161761452203
 30
0.0
 40
0.1955065164578861
100
AcDbArc
 50
138.8600000000013
 51
221.1400000000015
  0
LINE
  5
1DD
330
6C
100
AcDbEntity
  8
Visible Narrow (ANSI)
100
AcDbLine
 10
10.33518191682667
 20
12.59760895697828
 30
0.0
 11
10.18573166489228
 21
12.76868575132768
 31
0.0
  0
LINE
  5
1DE
330
6C
100
AcDbEntity
  8
Visible Narrow (ANSI)
100
AcDbLine
 10
10.11053343490348
 20
12.7029936482018
 30
0.0
 11
10.24744874924872
 21
12.54626568841349
 31
0.0
  0
ELLIPSE
  5
1DF
330
6C
100
AcDbEntity
  8
Visible (ANSI)
100
AcDbEllipse
 10
10.29092555730938
 20
12.65836761452203
 30
0.0
 11
-0.0493841120560971
 21
0.0846851467648638
 31
0.0
210
0.0
220
0.0
230
1.0
 40
0.6170017251488912
 41
3.973218800080775
 42
4.36700663287668
  0
LINE
  5
1E0
330
6C
100
AcDbEntity
  8
Visible (ANSI)
100
AcDbLine
 10
10.35681012999058
 20
12.65836761452203
 30
0.0
 11
10.32118713863718
 21
12.76977490434973
 31
0.0
  0
LINE
  5
1E1
330
6C
100
AcDbEntity
  8
Visible Narrow (ANSI)
100
AcDbLine
 10
10.32118713863718
 20
12.76977490434973
 30
0.0
 11
10.18697842630724
 21
12.76977490434973
 31
0.0
  0
LINE
  5
1E2
330
6C
100
AcDbEntity
  8
Visible (ANSI)
100
AcDbLine
 10
10.32118713863718
 20
12.89346032469432
 30
0.0
 11
10.35673019134517
 21
13.00461761452203
 31
0.0
  0
ELLIPSE
  5
1E3
330
6C
100
AcDbEntity
  8
Visible (ANSI)
100
AcDbEllipse
 10
10.34709873646648
 20
12.83161761452202
 30
0.0
 11
-0.0000000000000004
 21
0.094
 31
0.0
210
0.0
220
0.0
230
1.0
 40
0.3660254037844392
 41
0.8527678725243603
 42
2.28882478106529
  0
ELLIPSE
  5
1E4
330
6C
100
AcDbEntity
  8
Visible (ANSI)
100
AcDbEllipse
 10
10.29084561866397
 20
13.00461761452203
 30
0.0
 11
0.0493841120561018
 21
0.0846851467648606
 31
0.0
210
0.0
220
0.0
230
0.9999999999999998
 40
0.6170017251489002
 41
5.057771327892856
 42
5.4525770937102
  0
LINE
  5
1E5
330
6C
100
AcDbEntity
  8
Visible Narrow (ANSI)
100
AcDbLine
 10
10.32118713863718
 20
12.89346032469432
 30
0.0
 11
10.18697842630723
 21
12.89346032469432
 31
0.0
  0
ARC
  5
1E6
330
6C
100
AcDbEntity
  8
Visible Narrow (ANSI)
100
AcDbCircle
 10
10.25777022808219
 20
12.83161761452203
 30
0.0
 40
0.0956554964002477
100
AcDbArc
 50
138.8600000000015
 51
221.1400000000021
  0
LINE
  5
1E7
330
6C
100
AcDbEntity
  8
Visible Narrow (ANSI)
100
AcDbLine
 10
10.18697842630724
 20
12.76977490434973
 30
0.0
 11
10.18573166489228
 21
12.76868575132768
 31
0.0
  0
ARC
  5
1E8
330
6C
100
AcDbEntity
  8
Visible (ANSI)
100
AcDbCircle
 10
10.25777022808219
 20
12.83161761452202
 30
0.0
 40
0.0940000000000006
100
AcDbArc
 50
138.8599999999999
 51
221.1399999999994
  0
LINE
  5
1E9
330
6C
100
AcDbEntity
  8
Visible Narrow (ANSI)
100
AcDbLine
 10
10.18697842630723
 20
12.89346032469432
 30
0.0
 11
10.18573166489228
 21
12.89454947771636
 31
0.0
  0
ARC
  5
1EA
330
6C
100
AcDbEntity
  8
Visible Narrow (ANSI)
100
AcDbCircle
 10
10.25777022808219
 20
8.706617614522025
 30
0.0
 40
0.0956554964002495
100
AcDbArc
 50
138.8600000000008
 51
221.1400000000009
  0
LINE
  5
1EB
330
6C
100
AcDbEntity
  8
Visible Narrow (ANSI)
100
AcDbLine
 10
10.18697842630723
 20
8.644774904349727
 30
0.0
 11
10.18573166489228
 21
8.643685751327685
 31
0.0
  0
ARC
  5
1EC
330
6C
100
AcDbEntity
  8
Visible (ANSI)
100
AcDbCircle
 10
10.25777022808219
 20
8.706617614522025
 30
0.0
 40
0.0940000000000006
100
AcDbArc
 50
138.8600000000005
 51
221.14
  0
LINE
  5
1ED
330
6C
100
AcDbEntity
  8
Visible Narrow (ANSI)
100
AcDbLine
 10
10.18697842630723
 20
8.768460324694324
 30
0.0
 11
10.18573166489228
 21
8.769549477716365
 31
0.0
  0
ARC
  5
1EE
330
6C
100
AcDbEntity
  8
Visible Narrow (ANSI)
100
AcDbCircle
 10
10.25777022808219
 20
10.45661761452202
 30
0.0
 40
0.095655496400249
100
AcDbArc
 50
138.8600000000008
 51
221.1400000000009
  0
LINE
  5
1EF
330
6C
100
AcDbEntity
  8
Visible Narrow (ANSI)
100
AcDbLine
 10
10.18697842630723
 20
10.51846032469432
 30
0.0
 11
10.18573166489228
 21
10.51954947771636
 31
0.0
  0
LINE
  5
1F0
330
6C
100
AcDbEntity
  8
Visible Narrow (ANSI)
100
AcDbLine
 10
10.18697842630723
 20
10.39477490434973
 30
0.0
 11
10.18573166489228
 21
10.39368575132768
 31
0.0
  0
ARC
  5
1F1
330
6C
100
AcDbEntity
  8
Visible (ANSI)
100
AcDbCircle
 10
10.25777022808219
 20
10.45661761452202
 30
0.0
 40
0.0940000000000006
100
AcDbArc
 50
138.8600000000005
 51
221.14
  0
LINE
  5
1F2
330
6C
100
AcDbEntity
  8
Visible Narrow (ANSI)
100
AcDbLine
 10
10.11053343490348
 20
10.3279936482018
 30
0.0
 11
10.24744874924872
 21
10.17126568841349
 31
0.0
  0
ARC
  5
1F3
330
6C
100
AcDbEntity
  8
Visible Narrow (ANSI)
100
AcDbCircle
 10
10.25777022808219
 20
10.45661761452202
 30
0.0
 40
0.1955065164578864
100
AcDbArc
 50
138.860000000001
 51
221.1400000000004
  0
LINE
  5
1F4
330
6C
100
AcDbEntity
  8
Visible Narrow (ANSI)
100
AcDbLine
 10
10.24728461370192
 20
10.74178165347199
 30
0.0
 11
10.11053343490347
 21
10.58524158084224
 31
0.0
  0
LINE
  5
1F5
330
6C
100
AcDbEntity
  8
Visible Narrow (ANSI)
100
AcDbLine
 10
10.33518191682667
 20
10.22260895697828
 30
0.0
 11
10.18573166489228
 21
10.39368575132768
 31
0.0
  0
LINE
  5
1F6
330
6C
100
AcDbEntity
  8
Visible Narrow (ANSI)
100
AcDbLine
 10
10.11053343490348
 20
10.3279936482018
 30
0.0
 11
10.18573166489228
 21
10.39368575132769
 31
0.0
  0
LINE
  5
1F7
330
6C
100
AcDbEntity
  8
Visible Narrow (ANSI)
100
AcDbLine
 10
10.11053343490347
 20
10.58524158084225
 30
0.0
 11
10.18573166489228
 21
10.51954947771636
 31
0.0
  0
LINE
  5
1F8
330
6C
100
AcDbEntity
  8
Visible Narrow (ANSI)
100
AcDbLine
 10
10.18573166489228
 20
10.51954947771636
 30
0.0
 11
10.33505573462697
 21
10.69048183038068
 31
0.0
  0
LINE
  5
1F9
330
6C
100
AcDbEntity
  8
Visible Narrow (ANSI)
100
AcDbLine
 10
10.11053343490348
 20
8.577993648201802
 30
0.0
 11
10.24744874924872
 21
8.421265688413489
 31
0.0
  0
ARC
  5
1FA
330
6C
100
AcDbEntity
  8
Visible Narrow (ANSI)
100
AcDbCircle
 10
10.25777022808219
 20
8.706617614522025
 30
0.0
 40
0.1955065164578861
100
AcDbArc
 50
138.8600000000001
 51
221.1400000000007
  0
LINE
  5
1FB
330
6C
100
AcDbEntity
  8
Visible Narrow (ANSI)
100
AcDbLine
 10
10.24728461370192
 20
8.991781653471988
 30
0.0
 11
10.11053343490347
 21
8.835241580842247
 31
0.0
  0
LINE
  5
1FC
330
6C
100
AcDbEntity
  8
Visible Narrow (ANSI)
100
AcDbLine
 10
10.18573166489228
 20
8.769549477716365
 30
0.0
 11
10.11053343490347
 21
8.835241580842247
 31
0.0
  0
LINE
  5
1FD
330
6C
100
AcDbEntity
  8
Visible Narrow (ANSI)
100
AcDbLine
 10
10.18573166489228
 20
8.769549477716365
 30
0.0
 11
10.33505573462697
 21
8.940481830380676
 31
0.0
  0
LINE
  5
1FE
330
6C
100
AcDbEntity
  8
Visible Narrow (ANSI)
100
AcDbLine
 10
10.18573166489228
 20
8.643685751327684
 30
0.0
 11
10.11053343490348
 21
8.577993648201802
 31
0.0
  0
LINE
  5
1FF
330
6C
100
AcDbEntity
  8
Visible Narrow (ANSI)
100
AcDbLine
 10
10.33518191682667
 20
8.472608956978278
 30
0.0
 11
10.18573166489228
 21
8.643685751327685
 31
0.0
  0
ELLIPSE
  5
200
330
6C
100
AcDbEntity
  8
Visible (ANSI)
100
AcDbEllipse
 10
10.29092555730938
 20
8.533367614522028
 30
0.0
 11
-0.0493841120560971
 21
0.0846851467648638
 31
0.0
210
0.0
220
0.0
230
1.0
 40
0.6170017251488912
 41
3.97321880008076
 42
4.367006632876666
  0
LINE
  5
201
330
6C
100
AcDbEntity
  8
Visible (ANSI)
100
AcDbLine
 10
10.35681012999058
 20
8.533367614522028
 30
0.0
 11
10.32118713863718
 21
8.644774904349725
 31
0.0
  0
LINE
  5
202
330
6C
100
AcDbEntity
  8
Visible Narrow (ANSI)
100
AcDbLine
 10
10.32118713863718
 20
8.644774904349725
 30
0.0
 11
10.18697842630723
 21
8.644774904349727
 31
0.0
  0
LINE
  5
203
330
6C
100
AcDbEntity
  8
Visible (ANSI)
100
AcDbLine
 10
10.32118713863718
 20
8.768460324694324
 30
0.0
 11
10.35673019134517
 21
8.879617614522027
 31
0.0
  0
ELLIPSE
  5
204
330
6C
100
AcDbEntity
  8
Visible (ANSI)
100
AcDbEllipse
 10
10.34709873646648
 20
8.706617614522025
 30
0.0
 11
-0.0000000000000004
 21
0.094
 31
0.0
210
0.0
220
0.0
230
1.0
 40
0.3660254037844392
 41
0.8527678725243603
 42
2.28882478106529
  0
ELLIPSE
  5
205
330
6C
100
AcDbEntity
  8
Visible (ANSI)
100
AcDbEllipse
 10
10.29084561866397
 20
8.879617614522027
 30
0.0
 11
0.0493841120561018
 21
0.0846851467648606
 31
0.0
210
0.0
220
0.0
230
0.9999999999999998
 40
0.6170017251489002
 41
5.057771327892856
 42
5.452577093710182
  0
LINE
  5
206
330
6C
100
AcDbEntity
  8
Visible Narrow (ANSI)
100
AcDbLine
 10
10.32118713863718
 20
8.768460324694324
 30
0.0
 11
10.18697842630723
 21
8.768460324694324
 31
0.0
  0
LINE
  5
207
330
6C
100
AcDbEntity
  8
Visible Narrow (ANSI)
100
AcDbLine
 10
10.32118713863718
 20
10.51846032469432
 30
0.0
 11
10.18697842630723
 21
10.51846032469432
 31
0.0
  0
LINE
  5
208
330
6C
100
AcDbEntity
  8
Visible Narrow (ANSI)
100
AcDbLine
 10
10.32118713863718
 20
10.39477490434973
 30
0.0
 11
10.18697842630723
 21
10.39477490434973
 31
0.0
  0
LINE
  5
209
330
6C
100
AcDbEntity
  8
Visible (ANSI)
100
AcDbLine
 10
10.32118713863718
 20
10.51846032469432
 30
0.0
 11
10.35673019134517
 21
10.62961761452203
 31
0.0
  0
LINE
  5
20A
330
6C
100
AcDbEntity
  8
Visible (ANSI)
100
AcDbLine
 10
10.35681012999058
 20
10.28336761452202
 30
0.0
 11
10.32118713863718
 21
10.39477490434973
 31
0.0
  0
ELLIPSE
  5
20B
330
6C
100
AcDbEntity
  8
Visible (ANSI)
100
AcDbEllipse
 10
10.34709873646648
 20
10.45661761452202
 30
0.0
 11
-0.0000000000000004
 21
0.094
 31
0.0
210
0.0
220
0.0
230
1.0
 40
0.3660254037844392
 41
0.8527678725243603
 42
2.28882478106529
  0
ELLIPSE
  5
20C
330
6C
100
AcDbEntity
  8
Visible (ANSI)
100
AcDbEllipse
 10
10.29084561866397
 20
10.62961761452203
 30
0.0
 11
0.0493841120561018
 21
0.0846851467648606
 31
0.0
210
0.0
220
0.0
230
0.9999999999999998
 40
0.6170017251489002
 41
5.057771327892856
 42
5.452577093710208
  0
ELLIPSE
  5
20D
330
6C
100
AcDbEntity
  8
Visible (ANSI)
100
AcDbEllipse
 10
10.29092555730938
 20
10.28336761452202
 30
0.0
 11
-0.0493841120560971
 21
0.0846851467648638
 31
0.0
210
0.0
220
0.0
230
1.0
 40
0.6170017251488912
 41
3.97321880008076
 42
4.367006632876666
  0
SPLINE
  5
20E
330
6C
100
AcDbEntity
  8
Visible (ANSI)
100
AcDbSpline
210
0.0
220
0.0
230
1.0
 70
     8
 71
     3
 72
    10
 73
     6
 74
     0
 42
0.0000000001
 43
0.0000000001
 40
0.0
 40
0.0
 40
0.0
 40
0.0
 40
0.0689759110286879
 40
0.0689759110286879
 40
0.145584785476404
 40
0.145584785476404
 40
0.145584785476404
 40
0.145584785476404
 10
9.479268633469908
 20
13.41163191556434
 30
0.0
 10
9.475056946282222
 20
13.41964438169204
 30
0.0
 10
9.471207799347014
 20
13.42766575660847
 30
0.0
 10
9.463941762250135
 20
13.44483265778608
 30
0.0
 10
9.460693949429179
 20
13.45375051720345
 30
0.0
 10
9.457770409958436
 20
13.46337313142539
 30
0.0
  0
SPLINE
  5
20F
330
6C
100
AcDbEntity
  8
Visible (ANSI)
100
AcDbSpline
210
0.0
220
0.0
230
1.0
 70
     8
 71
     3
 72
    10
 73
     6
 74
     0
 42
0.0000000001
 43
0.0000000001
 40
0.0
 40
0.0
 40
0.0
 40
0.0
 40
0.1436811737508989
 40
0.1436811737508989
 40
0.2873623500482826
 40
0.2873623500482826
 40
0.2873623500482826
 40
0.2873623500482826
 10
9.457770409958438
 20
13.46337313142538
 30
0.0
 10
9.45239094159382
 20
13.48109235211983
 30
0.0
 10
9.447975804435555
 20
13.49854429576659
 30
0.0
 10
9.44186749319579
 20
13.53398266832698
 30
0.0
 10
9.440268633469907
 20
13.55143461227378
 30
0.0
 10
9.440268633469907
 20
13.56915383328227
 30
0.0
  0
LINE
  5
210
330
6C
100
AcDbEntity
  8
Visible Narrow (ANSI)
100
AcDbLine
 10
9.460192663416398
 20
13.45964951057769
 30
0.0
 11
9.458929366021225
 21
13.45964951057769
 31
0.0
  0
SPLINE
  5
211
330
6C
100
AcDbEntity
  8
Visible (ANSI)
100
AcDbSpline
210
0.0
220
0.0
230
1.0
 70
     8
 71
     3
 72
    10
 73
     6
 74
     0
 42
0.0000000001
 43
0.0000000001
 40
0.0
 40
0.0
 40
0.0
 40
0.0
 40
0.1543908232656084
 40
0.1543908232656084
 40
0.3087816513629164
 40
0.3087816513629164
 40
0.3087816513629164
 40
0.3087816513629164
 10
9.440268633469907
 20
13.57322819674833
 30
0.0
 10
9.440268633469907
 20
13.55418822524555
 30
0.0
 10
9.44211472307959
 20
13.53547878343508
 30
0.0
 10
9.449117821195914
 20
13.49739892505212
 30
0.0
 10
9.454149908510832
 20
13.47868948267632
 30
0.0
 10
9.460192663416398
 20
13.45964951057769
 30
0.0
  0
SPLINE
  5
212
330
6C
100
AcDbEntity
  8
Visible (ANSI)
100
AcDbSpline
210
0.0
220
0.0
230
1.0
 70
     8
 71
     3
 72
     8
 73
     4
 74
     0
 42
0.0000000001
 43
0.0000000001
 40
0.0
 40
0.0
 40
0.0
 40
0.0
 40
0.005158753240508
 40
0.005158753240508
 40
0.005158753240508
 40
0.005158753240508
 10
9.479268633469908
 20
13.41327379987386
 30
0.0
 10
9.478753641925063
 20
13.4137132484618
 30
0.0
 10
9.478240213237601
 20
13.41415333651142
 30
0.0
 10
9.477728378233402
 20
13.41459409869283
 30
0.0
  0
SPLINE
  5
213
330
6C
100
AcDbEntity
  8
Visible (ANSI)
100
AcDbSpline
210
0.0
220
0.0
230
1.0
 70
     8
 71
     3
 72
    10
 73
     6
 74
     0
 42
0.0000000001
 43
0.0000000001
 40
0.0
 40
0.0
 40
0.0
 40
0.0
 40
0.0691409725432826
 40
0.0691409725432826
 40
0.1320716091151738
 40
0.1320716091151738
 40
0.1320716091151738
 40
0.1320716091151738
 10
9.460192663416396
 20
13.45964951057769
 30
0.0
 10
9.462900345413816
 20
13.45112347095201
 30
0.0
 10
9.465828928635511
 20
13.44318135299921
 30
0.0
 10
9.472244831396695
 20
13.42780736853898
 30
0.0
 10
9.475614823065635
 20
13.42054473207687
 30
0.0
 10
9.479268633469908
 20
13.41327379987386
 30
0.0
  0
ARC
  5
214
330
6C
100
AcDbEntity
  8
Visible (ANSI)
100
AcDbCircle
 10
9.492268633469908
 20
5.675814779368042
 30
0.0
 40
0.104
100
AcDbArc
 50
180.0
 51
225.0
  0
ARC
  5
215
330
6C
100
AcDbEntity
  8
Visible (ANSI)
100
AcDbCircle
 10
9.492268633469908
 20
5.675814779368042
 30
0.0
 40
0.052
100
AcDbArc
 50
180.0
 51
225.0
  0
LINE
  5
216
330
6C
100
AcDbEntity
  8
Visible (ANSI)
100
AcDbLine
 10
9.492268633469908
 20
5.867742614522029
 30
0.0
 11
9.492268633469908
 21
7.045242614522028
 31
0.0
  0
LINE
  5
217
330
6C
100
AcDbEntity
  8
Visible (ANSI)
100
AcDbLine
 10
9.492268633469908
 20
5.867742614522029
 30
0.0
 11
9.492268633469908
 21
5.789742614522028
 31
0.0
  0
LINE
  5
218
330
6C
100
AcDbEntity
  8
Visible (ANSI)
100
AcDbLine
 10
9.492268633469908
 20
7.123242614522027
 30
0.0
 11
9.492268633469908
 21
7.045242614522028
 31
0.0
  0
ARC
  5
219
330
6C
100
AcDbEntity
  8
Visible (ANSI)
100
AcDbCircle
 10
9.440268633469907
 20
7.12324261452202
 30
0.0
 40
0.0520000000000003
100
AcDbArc
 50
0.0
 51
90.0
  0
LINE
  5
21A
330
6C
100
AcDbEntity
  8
Visible Narrow (ANSI)
100
AcDbLine
 10
9.440268633469907
 20
7.04524261452203
 30
0.0
 11
9.492268633469908
 21
7.045242614522028
 31
0.0
  0
ARC
  5
21B
330
6C
100
AcDbEntity
  8
Visible (ANSI)
100
AcDbCircle
 10
9.440268633469907
 20
5.789742614522028
 30
0.0
 40
0.0520000000000172
100
AcDbArc
 50
270.0
 51
0.0
  0
LINE
  5
21C
330
6C
100
AcDbEntity
  8
Visible Narrow (ANSI)
100
AcDbLine
 10
9.492268633469908
 20
5.867742614522029
 30
0.0
 11
9.440268633469907
 21
5.86774261452203
 31
0.0
  0
LINE
  5
21D
330
6C
100
AcDbEntity
  8
Visible Narrow (ANSI)
100
AcDbLine
 10
10.07369535164607
 20
5.020848955948472
 30
0.0
 11
10.11046490426777
 21
5.057618508570174
 31
0.0
  0
ARC
  5
21E
330
6C
100
AcDbEntity
  8
Visible (ANSI)
100
AcDbCircle
 10
10.12884968057861
 20
4.96569462701593
 30
0.0
 40
0.052000000000009
100
AcDbArc
 50
315.0000000000011
 51
44.99999999999999
  0
LINE
  5
21F
330
6C
100
AcDbEntity
  8
Visible (ANSI)
100
AcDbLine
 10
10.11046490426777
 20
5.057618508570174
 30
0.0
 11
10.16561923320032
 21
5.002464179637631
 31
0.0
  0
ARC
  5
220
330
6C
100
AcDbEntity
  8
Visible (ANSI)
100
AcDbCircle
 10
9.539476178459636
 20
5.555068129134911
 30
0.0
 40
0.0519999999999999
100
AcDbArc
 50
44.99999999999999
 51
135.0
  0
LINE
  5
221
330
6C
100
AcDbEntity
  8
Visible Narrow (ANSI)
100
AcDbLine
 10
9.631400060013897
 20
5.536683352824065
 30
0.0
 11
9.59463050739219
 21
5.499913800202356
 31
0.0
  0
LINE
  5
222
330
6C
100
AcDbEntity
  8
Visible (ANSI)
100
AcDbLine
 10
9.576245731081344
 20
5.591837681756605
 30
0.0
 11
9.631400060013891
 21
5.536683352824058
 31
0.0
  0
LINE
  5
223
330
6C
100
AcDbEntity
  8
Visible (ANSI)
100
AcDbLine
 10
10.11046490426777
 20
5.057618508570174
 30
0.0
 11
9.631400060013891
 21
5.536683352824058
 31
0.0
  0
SPLINE
  5
224
330
6C
100
AcDbEntity
  8
Visible (ANSI)
100
AcDbSpline
210
0.0
220
0.0
230
1.0
 70
     8
 71
     3
 72
    18
 73
    14
 74
     0
 42
0.0000000001
 43
0.0000000001
 40
0.0
 40
0.0
 40
0.0
 40
0.0
 40
0.0312680230272115
 40
0.0312680230272115
 40
0.0768798358080571
 40
0.0768798358080571
 40
0.1220796486378552
 40
0.1220796486378552
 40
0.1668782400282282
 40
0.1668782400282282
 40
0.1992185073588584
 40
0.1992185073588584
 40
0.2434826415858734
 40
0.2434826415858734
 40
0.2434826415858734
 40
0.2434826415858734
 10
10.53370147999035
 20
4.634381932847595
 30
0.0
 10
10.53290643678376
 20
4.63035627492061
 30
0.0
 10
10.53147324483982
 20
4.62409124239425
 30
0.0
 10
10.52502883369519
 20
4.605764079261621
 30
0.0
 10
10.51997116437056
 20
4.59567411517816
 30
0.0
 10
10.50889262676095
 20
4.578045636520332
 30
0.0
 10
10.50301135395339
 20
4.570686088078466
 30
0.0
 10
10.49147557887137
 20
4.559570326574525
 30
0.0
 10
10.48595273157024
 20
4.555911833135102
 30
0.0
 10
10.47700801842633
 20
4.553223935958273
 30
0.0
 10
10.47347738077529
 20
4.553208833731459
 30
0.0
 10
10.46539660824683
 20
4.55583762458578
 30
0.0
 10
10.46188038875403
 20
4.55912481359712
 30
0.0
 10
10.45982733295233
 20
4.561177869398814
 30
0.0
  0
SPLINE
  5
225
330
6C
100
AcDbEntity
  8
Visible (ANSI)
100
AcDbSpline
210
0.0
220
0.0
230
1.0
 70
     8
 71
     3
 72
    12
 73
     8
 74
     0
 42
0.0000000001
 43
0.0000000001
 40
0.0
 40
0.0
 40
0.0
 40
0.0
 40
0.0213105760993171
 40
0.0213105760993171
 40
0.0505839085943616
 40
0.0505839085943616
 40
0.055363001337019
 40
0.055363001337019
 40
0.055363001337019
 40
0.055363001337019
 10
10.49659688557403
 20
4.597947422020514
 30
0.0
 10
10.49819294997713
 20
4.596351357617418
 30
0.0
 10
10.50045203160205
 20
4.594178483610091
 30
0.0
 10
10.50663435972932
 20
4.589536807713379
 30
0.0
 10
10.51000825397272
 20
4.587947206954146
 30
0.0
 10
10.51382614909654
 20
4.58759070178378
 30
0.0
 10
10.51435963416573
 20
4.587574916709797
 30
0.0
 10
10.51489045566039
 20
4.587594313757211
 30
0.0
  0
LINE
  5
226
330
6C
100
AcDbEntity
  8
Visible (ANSI)
100
AcDbLine
 10
10.97578682774481
 20
4.192296585093135
 30
0.0
 11
10.90224772250141
 21
4.118757479849737
 31
0.0
  0
ENDSEC
  0
SECTION
  2
OBJECTS
  0
DICTIONARY
  5
C
330
0
100
AcDbDictionary
281
     1
  3
ACAD_CIP_PREVIOUS_PRODUCT_INFO
350
227
  3
ACAD_COLOR
350
63
  3
ACAD_GROUP
350
D
  3
ACAD_LAYOUT
350
62
  3
ACAD_MATERIAL
350
10
  3
ACAD_MLEADERSTYLE
350
66
  3
ACAD_MLINESTYLE
350
5F
  3
ACAD_PLOTSETTINGS
350
61
  3
ACAD_PLOTSTYLENAME
350
E
  3
ACAD_SCALELIST
350
42
  3
ACAD_TABLESTYLE
350
64
  3
ACAD_VISUALSTYLE
350
29
  3
ACDB_RECOMPOSE_DATA
350
27F
  3
AcDbVariableDictionary
350
76
  3
DWGPROPS
350
280
  0
DICTIONARY
  5
22E
330
8
100
AcDbDictionary
280
     1
281
     1
  0
XRECORD
  5
227
102
{ACAD_REACTORS
330
C
102
}
330
C
100
AcDbXrecord
280
     1
300
AMECH_PP
300
2012
300
85796PDSU_2012_0F
  0
DICTIONARY
  5
63
102
{ACAD_REACTORS
330
C
102
}
330
C
100
AcDbDictionary
281
     1
  0
DICTIONARY
  5
D
102
{ACAD_REACTORS
330
C
102
}
330
C
100
AcDbDictionary
281
     1
  0
DICTIONARY
  5
62
102
{ACAD_REACTORS
330
C
102
}
330
C
100
AcDbDictionary
281
     1
  3
Layout1
350
6B
  3
Layout2
350
73
  3
Model
350
6F
  0
DICTIONARY
  5
10
102
{ACAD_REACTORS
330
C
102
}
330
C
100
AcDbDictionary
281
     1
  3
ByBlock
350
19
  3
ByLayer
350
11
  3
Global
350
21
  0
DICTIONARY
  5
66
102
{ACAD_REACTORS
330
C
102
}
330
C
100
AcDbDictionary
281
     1
  3
Standard
350
67
  0
DICTIONARY
  5
5F
102
{ACAD_REACTORS
330
C
102
}
330
C
100
AcDbDictionary
281
     1
  3
Standard
350
60
  0
DICTIONARY
  5
61
102
{ACAD_REACTORS
330
C
102
}
330
C
100
AcDbDictionary
281
     1
  0
ACDBDICTIONARYWDFLT
  5
E
102
{ACAD_REACTORS
330
C
102
}
330
C
100
AcDbDictionary
281
     1
  3
Normal
350
F
100
AcDbDictionaryWithDefault
340
F
  0
DICTIONARY
  5
42
102
{ACAD_REACTORS
330
C
102
}
330
C
100
AcDbDictionary
281
     1
  3
A0
350
43
  3
A1
350
44
  3
A2
350
45
  3
A3
350
46
  3
A4
350
47
  3
A5
350
48
  3
A6
350
49
  3
A7
350
4A
  3
A8
350
4B
  3
A9
350
4C
  3
B0
350
4D
  3
B1
350
4E
  3
B2
350
4F
  3
B3
350
50
  3
B4
350
51
  3
B5
350
52
  3
B6
350
53
  0
DICTIONARY
  5
64
102
{ACAD_REACTORS
330
C
102
}
330
C
100
AcDbDictionary
281
     1
  3
Standard
350
65
  0
DICTIONARY
  5
29
102
{ACAD_REACTORS
330
C
102
}
330
C
100
AcDbDictionary
281
     1
  3
2dWireframe
350
2F
  3
Basic
350
2E
  3
Brighten
350
35
  3
ColorChange
350
39
  3
Conceptual
350
32
  3
Dim
350
34
  3
EdgeColorOff
350
41
  3
Facepattern
350
38
  3
Flat
350
2A
  3
FlatWithEdges
350
2B
  3
Gouraud
350
2C
  3
GouraudWithEdges
350
2D
  3
Hidden
350
31
  3
JitterOff
350
3F
  3
Linepattern
350
37
  3
OverhangOff
350
40
  3
Realistic
350
33
  3
Shaded
350
3E
  3
Shaded with edges
350
3D
  3
Shades of Gray
350
3A
  3
Sketchy
350
3B
  3
Thicken
350
36
  3
Wireframe
350
30
  3
X-Ray
350
3C
  0
XRECORD
  5
27F
102
{ACAD_REACTORS
330
C
102
}
330
C
100
AcDbXrecord
280
     1
 90
        1
330
65
  0
DICTIONARY
  5
76
102
{ACAD_REACTORS
330
C
102
}
330
C
100
AcDbDictionary
281
     1
  3
CANNOSCALE
350
79
  3
CMLEADERSTYLE
350
78
  3
CTABLESTYLE
350
77
  3
DIMASSOC
350
272
  3
HIDETEXT
350
271
  3
INDEXCTL
350
270
  3
LAYEREVAL
350
26D
  3
LAYERNOTIFY
350
26E
  3
LIGHTINGUNITS
350
26C
  3
MSLTSCALE
350
26B
  3
SORTENTS
350
26F
  3
XCLIPFRAME
350
27A
  0
XRECORD
  5
280
102
{ACAD_REACTORS
330
C
102
}
330
C
100
AcDbXrecord
280
     1
  1
DWGPROPS COOKIE
  2

  3

  4
JIM WALLS
  6

  7

  8
jwalls
  9

300
Manager=
301
Company=
302
Category=
303
Part Number=
304
Description=
305
Project=
306
Designer=JIM WALLS
307
Engineer=
308
Authority=
309
Cost Center=
 40
0.0010135300925926
 41
2456038.568295451
 42
2456038.590325185
  1

 90
       16
300
Vendor=
300
User Status=
300
Design Status=WorkInProgress
300
Checked by=
300
Engr Approved by=
300
Mfg Approved by=
  0
LAYOUT
  5
6B
102
{ACAD_XDICTIONARY
360
2B5
102
}
102
{ACAD_REACTORS
330
62
102
}
330
62
100
AcDbPlotSettings
  1

  2

  4

  6

 40
0.0
 41
0.0
 42
0.0
 43
0.0
 44
0.0
 45
0.0
 46
0.0
 47
0.0
 48
0.0
 49
0.0
140
0.0
141
0.0
142
1.0
143
1.0
 70
   688
 72
     0
 73
     0
 74
     5
  7

 75
    16
147
1.0
148
0.0
149
0.0
100
AcDbLayout
  1
Layout1
 70
     1
 71
     1
 10
0.0
 20
0.0
 11
22.0
 21
17.0
 12
0.0
 22
0.0
 32
0.0
 14
0.0
 24
0.0
 34
0.0
 15
22.0
 25
17.0
 35
0.0
146
0.0
 13
0.0
 23
0.0
 33
0.0
 16
1.0
 26
0.0
 36
0.0
 17
0.0
 27
1.0
 37
0.0
 76
     0
330
68
  0
LAYOUT
  5
73
102
{ACAD_XDICTIONARY
360
2B9
102
}
102
{ACAD_REACTORS
330
62
102
}
330
62
100
AcDbPlotSettings
  1

  2

  4

  6

 40
0.0
 41
0.0
 42
0.0
 43
0.0
 44
0.0
 45
0.0
 46
0.0
 47
0.0
 48
0.0
 49
0.0
140
0.0
141
0.0
142
1.0
143
1.0
 70
   688
 72
     0
 73
     0
 74
     5
  7

 75
    16
147
1.0
148
0.0
149
0.0
100
AcDbLayout
  1
Layout2
 70
     1
 71
     2
 10
0.0
 20
0.0
 11
12.0
 21
9.0
 12
0.0
 22
0.0
 32
0.0
 14
0.0
 24
0.0
 34
0.0
 15
0.0
 25
0.0
 35
0.0
146
0.0
 13
0.0
 23
0.0
 33
0.0
 16
1.0
 26
0.0
 36
0.0
 17
0.0
 27
1.0
 37
0.0
 76
     0
330
70
  0
LAYOUT
  5
6F
102
{ACAD_XDICTIONARY
360
2B7
102
}
102
{ACAD_REACTORS
330
62
102
}
330
62
100
AcDbPlotSettings
  1

  2

  4

  6

 40
0.0
 41
0.0
 42
0.0
 43
0.0
 44
0.0
 45
0.0
 46
0.0
 47
0.0
 48
0.0
 49
0.0
140
0.0
141
0.0
142
1.0
143
1.0
 70
  1712
 72
     0
 73
     0
 74
     0
  7

 75
     0
147
1.0
148
0.0
149
0.0
100
AcDbLayout
  1
Model
 70
     1
 71
     0
 10
0.0
 20
0.0
 11
12.0
 21
9.0
 12
0.0
 22
0.0
 32
0.0
 14
0.0
 24
0.0
 34
0.0
 15
0.0
 25
0.0
 35
0.0
146
0.0
 13
0.0
 23
0.0
 33
0.0
 16
1.0
 26
0.0
 36
0.0
 17
0.0
 27
1.0
 37
0.0
 76
     0
330
6C
331
57
  0
MATERIAL
  5
19
102
{ACAD_XDICTIONARY
360
1A
102
}
102
{ACAD_REACTORS
330
10
102
}
330
10
100
AcDbMaterial
  1
ByBlock
 72
     0
 43
0.0208333333333333
 43
0.0
 43
0.0
 43
0.0
 43
0.0
 43
0.0208333333333333
 43
0.0
 43
0.0
 43
0.0
 43
0.0
 43
1.0
 43
0.0
 43
0.0
 43
0.0
 43
0.0
 43
1.0
 77
     0
 47
0.0208333333333333
 47
0.0
 47
0.0
 47
0.0
 47
0.0
 47
0.0208333333333333
 47
0.0
 47
0.0
 47
0.0
 47
0.0
 47
1.0
 47
0.0
 47
0.0
 47
0.0
 47
0.0
 47
1.0
171
     0
 49
0.0208333333333333
 49
0.0
 49
0.0
 49
0.0
 49
0.0
 49
0.0208333333333333
 49
0.0
 49
0.0
 49
0.0
 49
0.0
 49
1.0
 49
0.0
 49
0.0
 49
0.0
 49
0.0
 49
1.0
175
     0
142
0.0208333333333333
142
0.0
142
0.0
142
0.0
142
0.0
142
0.0208333333333333
142
0.0
142
0.0
142
0.0
142
0.0
142
1.0
142
0.0
142
0.0
142
0.0
142
0.0
142
1.0
179
     0
144
0.0208333333333333
144
0.0
144
0.0
144
0.0
144
0.0
144
0.0208333333333333
144
0.0
144
0.0
144
0.0
144
0.0
144
1.0
144
0.0
144
0.0
144
0.0
144
0.0
144
1.0
147
0.0208333333333333
147
0.0
147
0.0
147
0.0
147
0.0
147
0.0208333333333333
147
0.0
147
0.0
147
0.0
147
0.0
147
1.0
147
0.0
147
0.0
147
0.0
147
0.0
147
1.0
  0
MATERIAL
  5
11
102
{ACAD_XDICTIONARY
360
12
102
}
102
{ACAD_REACTORS
330
10
102
}
330
10
100
AcDbMaterial
  1
ByLayer
 72
     0
 43
0.0208333333333333
 43
0.0
 43
0.0
 43
0.0
 43
0.0
 43
0.0208333333333333
 43
0.0
 43
0.0
 43
0.0
 43
0.0
 43
1.0
 43
0.0
 43
0.0
 43
0.0
 43
0.0
 43
1.0
 77
     0
 47
0.0208333333333333
 47
0.0
 47
0.0
 47
0.0
 47
0.0
 47
0.0208333333333333
 47
0.0
 47
0.0
 47
0.0
 47
0.0
 47
1.0
 47
0.0
 47
0.0
 47
0.0
 47
0.0
 47
1.0
171
     0
 49
0.0208333333333333
 49
0.0
 49
0.0
 49
0.0
 49
0.0
 49
0.0208333333333333
 49
0.0
 49
0.0
 49
0.0
 49
0.0
 49
1.0
 49
0.0
 49
0.0
 49
0.0
 49
0.0
 49
1.0
175
     0
142
0.0208333333333333
142
0.0
142
0.0
142
0.0
142
0.0
142
0.0208333333333333
142
0.0
142
0.0
142
0.0
142
0.0
142
1.0
142
0.0
142
0.0
142
0.0
142
0.0
142
1.0
179
     0
144
0.0208333333333333
144
0.0
144
0.0
144
0.0
144
0.0
144
0.0208333333333333
144
0.0
144
0.0
144
0.0
144
0.0
144
1.0
144
0.0
144
0.0
144
0.0
144
0.0
144
1.0
147
0.0208333333333333
147
0.0
147
0.0
147
0.0
147
0.0
147
0.0208333333333333
147
0.0
147
0.0
147
0.0
147
0.0
147
1.0
147
0.0
147
0.0
147
0.0
147
0.0
147
1.0
  0
MATERIAL
  5
21
102
{ACAD_XDICTIONARY
360
22
102
}
102
{ACAD_REACTORS
330
10
102
}
330
10
100
AcDbMaterial
  1
Global
 72
     0
 43
0.0208333333333333
 43
0.0
 43
0.0
 43
0.0
 43
0.0
 43
0.0208333333333333
 43
0.0
 43
0.0
 43
0.0
 43
0.0
 43
1.0
 43
0.0
 43
0.0
 43
0.0
 43
0.0
 43
1.0
 77
     0
 47
0.0208333333333333
 47
0.0
 47
0.0
 47
0.0
 47
0.0
 47
0.0208333333333333
 47
0.0
 47
0.0
 47
0.0
 47
0.0
 47
1.0
 47
0.0
 47
0.0
 47
0.0
 47
0.0
 47
1.0
171
     0
 49
0.0208333333333333
 49
0.0
 49
0.0
 49
0.0
 49
0.0
 49
0.0208333333333333
 49
0.0
 49
0.0
 49
0.0
 49
0.0
 49
1.0
 49
0.0
 49
0.0
 49
0.0
 49
0.0
 49
1.0
175
     0
142
0.0208333333333333
142
0.0
142
0.0
142
0.0
142
0.0
142
0.0208333333333333
142
0.0
142
0.0
142
0.0
142
0.0
142
1.0
142
0.0
142
0.0
142
0.0
142
0.0
142
1.0
179
     0
144
0.0208333333333333
144
0.0
144
0.0
144
0.0
144
0.0
144
0.0208333333333333
144
0.0
144
0.0
144
0.0
144
0.0
144
1.0
144
0.0
144
0.0
144
0.0
144
0.0
144
1.0
147
0.0208333333333333
147
0.0
147
0.0
147
0.0
147
0.0
147
0.0208333333333333
147
0.0
147
0.0
147
0.0
147
0.0
147
1.0
147
0.0
147
0.0
147
0.0
147
0.0
147
1.0
  0
MLEADERSTYLE
  5
67
102
{ACAD_XDICTIONARY
360
27D
102
}
102
{ACAD_REACTORS
330
66
102
}
330
66
100
AcDbMLeaderStyle
170
     2
171
     1
172
     0
 90
        2
 40
0.0
 41
0.0
173
     1
 91
-1056964608
340
5B
 92
       -2
290
     1
 42
0.09
291
     1
 43
0.36
  3
Standard
 44
0.18
300

342
55
174
     1
178
     6
175
     1
176
     0
 93
-1056964608
 45
0.18
292
     0
297
     0
 46
0.18
 94
-1056964608
 47
1.0
 49
1.0
140
1.0
293
     1
141
0.0
294
     1
177
     0
142
1.0
295
     0
296
     0
143
0.125
1001
ACAD_MLEADERVER
1070
     2
  0
MLINESTYLE
  5
60
102
{ACAD_REACTORS
330
5F
102
}
330
5F
100
AcDbMlineStyle
  2
STANDARD
 70
     0
  3

 62
   256
 51
90.0
 52
90.0
 71
     2
 49
0.5
 62
   256
  6
BYLAYER
 49
-0.5
 62
   256
  6
BYLAYER
  0
ACDBPLACEHOLDER
  5
F
102
{ACAD_REACTORS
330
E
102
}
330
E
  0
SCALE
  5
43
102
{ACAD_REACTORS
330
42
102
}
330
42
100
AcDbScale
 70
     0
300
1:1
140
1.0
141
1.0
290
     1
  0
SCALE
  5
44
102
{ACAD_REACTORS
330
42
102
}
330
42
100
AcDbScale
 70
     0
300
1/128" = 1'-0"
140
0.0078125
141
12.0
290
     0
  0
SCALE
  5
45
102
{ACAD_REACTORS
330
42
102
}
330
42
100
AcDbScale
 70
     0
300
1/64" = 1'-0"
140
0.015625
141
12.0
290
     0
  0
SCALE
  5
46
102
{ACAD_REACTORS
330
42
102
}
330
42
100
AcDbScale
 70
     0
300
1/32" = 1'-0"
140
0.03125
141
12.0
290
     0
  0
SCALE
  5
47
102
{ACAD_REACTORS
330
42
102
}
330
42
100
AcDbScale
 70
     0
300
1/16" = 1'-0"
140
0.0625
141
12.0
290
     0
  0
SCALE
  5
48
102
{ACAD_REACTORS
330
42
102
}
330
42
100
AcDbScale
 70
     0
300
3/32" = 1'-0"
140
0.09375
141
12.0
290
     0
  0
SCALE
  5
49
102
{ACAD_REACTORS
330
42
102
}
330
42
100
AcDbScale
 70
     0
300
1/8" = 1'-0"
140
0.125
141
12.0
290
     0
  0
SCALE
  5
4A
102
{ACAD_REACTORS
330
42
102
}
330
42
100
AcDbScale
 70
     0
300
3/16" = 1'-0"
140
0.1875
141
12.0
290
     0
  0
SCALE
  5
4B
102
{ACAD_REACTORS
330
42
102
}
330
42
100
AcDbScale
 70
     0
300
1/4" = 1'-0"
140
0.25
141
12.0
290
     0
  0
SCALE
  5
4C
102
{ACAD_REACTORS
330
42
102
}
330
42
100
AcDbScale
 70
     0
300
3/8" = 1'-0"
140
0.375
141
12.0
290
     0
  0
SCALE
  5
4D
102
{ACAD_REACTORS
330
42
102
}
330
42
100
AcDbScale
 70
     0
300
1/2" = 1'-0"
140
0.5
141
12.0
290
     0
  0
SCALE
  5
4E
102
{ACAD_REACTORS
330
42
102
}
330
42
100
AcDbScale
 70
     0
300
3/4" = 1'-0"
140
0.75
141
12.0
290
     0
  0
SCALE
  5
4F
102
{ACAD_REACTORS
330
42
102
}
330
42
100
AcDbScale
 70
     0
300
1" = 1'-0"
140
1.0
141
12.0
290
     0
  0
SCALE
  5
50
102
{ACAD_REACTORS
330
42
102
}
330
42
100
AcDbScale
 70
     0
300
1-1/2" = 1'-0"
140
1.5
141
12.0
290
     0
  0
SCALE
  5
51
102
{ACAD_REACTORS
330
42
102
}
330
42
100
AcDbScale
 70
     0
300
3" = 1'-0"
140
3.0
141
12.0
290
     0
  0
SCALE
  5
52
102
{ACAD_REACTORS
330
42
102
}
330
42
100
AcDbScale
 70
     0
300
6" = 1'-0"
140
6.0
141
12.0
290
     0
  0
SCALE
  5
53
102
{ACAD_REACTORS
330
42
102
}
330
42
100
AcDbScale
 70
     0
300
1'-0" = 1'-0"
140
12.0
141
12.0
290
     0
  0
TABLESTYLE
  5
65
102
{ACAD_XDICTIONARY
360
228
102
}
102
{ACAD_REACTORS
330
64
102
}
330
64
100
AcDbTableStyle
  3
Standard
 70
     0
 71
     0
 40
0.06
 41
0.06
280
     0
281
     0
  7
Standard
140
0.18
170
     2
 62
     0
 63
     7
283
     0
274
    -2
284
     1
 64
     0
275
    -2
285
     1
 65
     0
276
    -2
286
     1
 66
     0
277
    -2
287
     1
 67
     0
278
    -2
288
     1
 68
     0
279
    -2
289
     1
 69
     0
  7
Standard
140
0.25
170
     5
 62
     0
 63
     7
283
     0
274
    -2
284
     1
 64
     0
275
    -2
285
     1
 65
     0
276
    -2
286
     1
 66
     0
277
    -2
287
     1
 67
     0
278
    -2
288
     1
 68
     0
279
    -2
289
     1
 69
     0
  7
Standard
140
0.18
170
     5
 62
     0
 63
     7
283
     0
274
    -2
284
     1
 64
     0
275
    -2
285
     1
 65
     0
276
    -2
286
     1
 66
     0
277
    -2
287
     1
 67
     0
278
    -2
288
     1
 68
     0
279
    -2
289
     1
 69
     0
  0
VISUALSTYLE
  5
2F
102
{ACAD_XDICTIONARY
360
28E
102
}
102
{ACAD_REACTORS
330
29
102
}
330
29
100
AcDbVisualStyle
  2
2dWireframe
 70
     4
 71
     0
 72
     2
 73
     0
 90
        0
 40
-0.6
 41
-30.0
 62
     5
 63
     7
 74
     1
 91
        4
 64
     7
 65
   257
 75
     1
175
     1
 42
1.0
 92
        0
 66
   257
 43
1.0
 76
     1
 77
     6
 78
     2
 67
     7
 79
     5
170
     0
171
     0
290
     0
174
     0
 93
        1
 44
0.0
173
     0
291
     0
 45
0.0
1001
ACAD
1000
AcDbSavedByObjectVersion
1070
     0
  0
VISUALSTYLE
  5
2E
102
{ACAD_XDICTIONARY
360
28C
102
}
102
{ACAD_REACTORS
330
29
102
}
330
29
100
AcDbVisualStyle
  2
Basic
 70
     7
 71
     1
 72
     0
 73
     1
 90
        0
 40
-0.6
 41
-30.0
 62
     5
 63
     7
 74
     0
 91
        4
 64
     7
 65
   257
 75
     1
175
     1
 42
1.0
 92
        8
 66
     7
 43
1.0
 76
     1
 77
     6
 78
     2
 67
     7
 79
     5
170
     0
171
     0
290
     0
174
     0
 93
        1
 44
0.0
173
     0
291
     1
 45
0.0
1001
ACAD
1000
AcDbSavedByObjectVersion
1070
     0
  0
VISUALSTYLE
  5
35
102
{ACAD_XDICTIONARY
360
29A
102
}
102
{ACAD_REACTORS
330
29
102
}
330
29
100
AcDbVisualStyle
  2
Brighten
 70
    12
 71
     2
 72
     2
 73
     0
 90
        0
 40
-0.6
 41
-30.0
 62
     5
 63
     7
 74
     1
 91
        4
 64
     7
 65
   257
 75
     1
175
     1
 42
1.0
 92
        8
 66
     7
 43
1.0
 76
     1
 77
     6
 78
     2
 67
     7
 79
     5
170
     0
171
     0
290
     0
174
     0
 93
        1
 44
50.0
173
     0
291
     1
 45
0.0
1001
ACAD
1000
AcDbSavedByObjectVersion
1070
     0
  0
VISUALSTYLE
  5
39
102
{ACAD_XDICTIONARY
360
2A2
102
}
102
{ACAD_REACTORS
330
29
102
}
330
29
100
AcDbVisualStyle
  2
ColorChange
 70
    16
 71
     2
 72
     2
 73
     3
 90
        0
 40
-0.6
 41
-30.0
 62
     5
 63
     8
 74
     1
 91
        4
 64
     7
 65
   257
 75
     1
175
     1
 42
1.0
 92
        8
 66
     8
 43
1.0
 76
     1
 77
     6
 78
     2
 67
     7
 79
     5
170
     0
171
     0
290
     0
174
     0
 93
        1
 44
0.0
173
     0
291
     1
 45
0.0
1001
ACAD
1000
AcDbSavedByObjectVersion
1070
     0
  0
VISUALSTYLE
  5
32
102
{ACAD_XDICTIONARY
360
294
102
}
102
{ACAD_REACTORS
330
29
102
}
330
29
100
AcDbVisualStyle
  2
Conceptual
 70
     9
 71
     3
 72
     2
 73
     0
 90
        0
 40
-0.6
 41
-30.0
 62
     5
 63
     7
 74
     2
 91
        2
 64
     7
 65
   257
 75
     1
175
     1
 42
179.0
 92
        8
 66
     7
 43
1.0
 76
     1
 77
     6
 78
     2
 67
     7
 79
     3
170
     0
171
     0
290
     0
174
     0
 93
        1
 44
0.0
173
     0
291
     0
 45
0.0
1001
ACAD
1000
AcDbSavedByObjectVersion
1070
     0
  0
VISUALSTYLE
  5
34
102
{ACAD_XDICTIONARY
360
298
102
}
102
{ACAD_REACTORS
330
29
102
}
330
29
100
AcDbVisualStyle
  2
Dim
 70
    11
 71
     2
 72
     2
 73
     0
 90
        0
 40
-0.6
 41
-30.0
 62
     5
 63
     7
 74
     1
 91
        4
 64
     7
 65
   257
 75
     1
175
     1
 42
1.0
 92
        8
 66
     7
 43
1.0
 76
     1
 77
     6
 78
     2
 67
     7
 79
     5
170
     0
171
     0
290
     0
174
     0
 93
        1
 44
-50.0
173
     0
291
     1
 45
0.0
1001
ACAD
1000
AcDbSavedByObjectVersion
1070
     0
  0
VISUALSTYLE
  5
41
102
{ACAD_XDICTIONARY
360
2B2
102
}
102
{ACAD_REACTORS
330
29
102
}
330
29
100
AcDbVisualStyle
  2
EdgeColorOff
 70
    22
 71
     2
 72
     2
 73
     0
 90
        0
 40
-0.6
 41
-30.0
 62
     5
 63
     7
 74
     1
 91
        4
 64
     7
 65
   257
 75
     1
175
     1
 42
1.0
 92
        8
 66
     7
 43
1.0
 76
     1
 77
     6
 78
     2
 67
     7
 79
     5
170
     0
171
     0
290
     0
174
     0
 93
        1
 44
0.0
173
     0
291
     1
 45
0.0
1001
ACAD
1000
AcDbSavedByObjectVersion
1070
     0
  0
VISUALSTYLE
  5
38
102
{ACAD_XDICTIONARY
360
2A0
102
}
102
{ACAD_REACTORS
330
29
102
}
330
29
100
AcDbVisualStyle
  2
Facepattern
 70
    15
 71
     2
 72
     2
 73
     0
 90
        0
 40
-0.6
 41
-30.0
 62
     5
 63
     7
 74
     1
 91
        4
 64
     7
 65
   257
 75
     1
175
     1
 42
1.0
 92
        8
 66
     7
 43
1.0
 76
     1
 77
     6
 78
     2
 67
     7
 79
     5
170
     0
171
     0
290
     0
174
     0
 93
        1
 44
0.0
173
     0
291
     1
 45
0.0
1001
ACAD
1000
AcDbSavedByObjectVersion
1070
     0
  0
VISUALSTYLE
  5
2A
102
{ACAD_XDICTIONARY
360
284
102
}
102
{ACAD_REACTORS
330
29
102
}
330
29
100
AcDbVisualStyle
  2
Flat
 70
     0
 71
     2
 72
     1
 73
     1
 90
        2
 40
-0.6
 41
30.0
 62
     5
 63
     7
 74
     0
 91
        0
 64
     7
 65
   257
 75
     1
175
     1
 42
1.0
 92
        8
 66
     7
 43
1.0
 76
     1
 77
     6
 78
     2
 67
     7
 79
     5
170
     0
171
     0
290
     0
174
     0
 93
       13
 44
0.0
173
     0
291
     1
 45
0.0
1001
ACAD
1000
AcDbSavedByObjectVersion
1070
     0
  0
VISUALSTYLE
  5
2B
102
{ACAD_XDICTIONARY
360
286
102
}
102
{ACAD_REACTORS
330
29
102
}
330
29
100
AcDbVisualStyle
  2
FlatWithEdges
 70
     1
 71
     2
 72
     1
 73
     1
 90
        2
 40
-0.6
 41
30.0
 62
     5
 63
     7
 74
     1
 91
        0
 64
     7
 65
   257
 75
     1
175
     1
 42
1.0
 92
        0
 66
   257
 43
1.0
 76
     1
 77
     6
 78
     2
 67
     7
 79
     5
170
     0
171
     0
290
     0
174
     0
 93
       13
 44
0.0
173
     0
291
     1
 45
0.0
1001
ACAD
1000
AcDbSavedByObjectVersion
1070
     0
  0
VISUALSTYLE
  5
2C
102
{ACAD_XDICTIONARY
360
288
102
}
102
{ACAD_REACTORS
330
29
102
}
330
29
100
AcDbVisualStyle
  2
Gouraud
 70
     2
 71
     2
 72
     2
 73
     1
 90
        2
 40
-0.6
 41
30.0
 62
     5
 63
     7
 74
     0
 91
        0
 64
     7
 65
   257
 75
     1
175
     1
 42
1.0
 92
        0
 66
     7
 43
1.0
 76
     1
 77
     6
 78
     2
 67
     7
 79
     5
170
     0
171
     0
290
     0
174
     0
 93
       13
 44
0.0
173
     0
291
     1
 45
0.0
1001
ACAD
1000
AcDbSavedByObjectVersion
1070
     0
  0
VISUALSTYLE
  5
2D
102
{ACAD_XDICTIONARY
360
28A
102
}
102
{ACAD_REACTORS
330
29
102
}
330
29
100
AcDbVisualStyle
  2
GouraudWithEdges
 70
     3
 71
     2
 72
     2
 73
     1
 90
        2
 40
-0.6
 41
30.0
 62
     5
 63
     7
 74
     1
 91
        0
 64
     7
 65
   257
 75
     1
175
     1
 42
1.0
 92
        0
 66
   257
 43
1.0
 76
     1
 77
     6
 78
     2
 67
     7
 79
     5
170
     0
171
     0
290
     0
174
     0
 93
       13
 44
0.0
173
     0
291
     1
 45
0.0
1001
ACAD
1000
AcDbSavedByObjectVersion
1070
     0
  0
VISUALSTYLE
  5
31
102
{ACAD_XDICTIONARY
360
292
102
}
102
{ACAD_REACTORS
330
29
102
}
330
29
100
AcDbVisualStyle
  2
Hidden
 70
     6
 71
     1
 72
     2
 73
     2
 90
        0
 40
-0.6
 41
-30.0
 62
     5
 63
     7
 74
     2
 91
        2
 64
     7
 65
   257
 75
     2
175
     1
 42
40.0
 92
        0
 66
   257
 43
1.0
 76
     1
 77
     6
 78
     2
 67
     7
 79
     3
170
     0
171
     0
290
     0
174
     0
 93
        1
 44
0.0
173
     0
291
     0
 45
0.0
1001
ACAD
1000
AcDbSavedByObjectVersion
1070
     0
  0
VISUALSTYLE
  5
3F
102
{ACAD_XDICTIONARY
360
2AE
102
}
102
{ACAD_REACTORS
330
29
102
}
330
29
100
AcDbVisualStyle
  2
JitterOff
 70
    20
 71
     2
 72
     2
 73
     0
 90
        0
 40
-0.6
 41
-30.0
 62
     5
 63
     7
 74
     1
 91
        4
 64
     7
 65
   257
 75
     1
175
     1
 42
1.0
 92
       10
 66
     7
 43
1.0
 76
     1
 77
     6
 78
     2
 67
     7
 79
     5
170
     0
171
     0
290
     0
174
     0
 93
        1
 44
0.0
173
     0
291
     1
 45
0.0
1001
ACAD
1000
AcDbSavedByObjectVersion
1070
     0
  0
VISUALSTYLE
  5
37
102
{ACAD_XDICTIONARY
360
29E
102
}
102
{ACAD_REACTORS
330
29
102
}
330
29
100
AcDbVisualStyle
  2
Linepattern
 70
    14
 71
     2
 72
     2
 73
     0
 90
        0
 40
-0.6
 41
-30.0
 62
     5
 63
     7
 74
     1
 91
        4
 64
     7
 65
   257
 75
     7
175
     7
 42
1.0
 92
        8
 66
     7
 43
1.0
 76
     1
 77
     6
 78
     2
 67
     7
 79
     5
170
     0
171
     0
290
     0
174
     0
 93
        1
 44
0.0
173
     0
291
     1
 45
0.0
1001
ACAD
1000
AcDbSavedByObjectVersion
1070
     0
  0
VISUALSTYLE
  5
40
102
{ACAD_XDICTIONARY
360
2B0
102
}
102
{ACAD_REACTORS
330
29
102
}
330
29
100
AcDbVisualStyle
  2
OverhangOff
 70
    21
 71
     2
 72
     2
 73
     0
 90
        0
 40
-0.6
 41
-30.0
 62
     5
 63
     7
 74
     1
 91
        4
 64
     7
 65
   257
 75
     1
175
     1
 42
1.0
 92
        9
 66
     7
 43
1.0
 76
     1
 77
     6
 78
     2
 67
     7
 79
     5
170
     0
171
     0
290
     0
174
     0
 93
        1
 44
0.0
173
     0
291
     1
 45
0.0
1001
ACAD
1000
AcDbSavedByObjectVersion
1070
     0
  0
VISUALSTYLE
  5
33
102
{ACAD_XDICTIONARY
360
296
102
}
102
{ACAD_REACTORS
330
29
102
}
330
29
100
AcDbVisualStyle
  2
Realistic
 70
     8
 71
     2
 72
     2
 73
     0
 90
        2
 40
-0.6
 41
30.0
 62
     5
 63
     7
 74
     0
 91
        0
 64
     7
 65
   257
 75
     1
175
     1
 42
1.0
 92
        8
 66
   257
 43
1.0
 76
     1
 77
     6
 78
     2
 67
     7
 79
     3
170
     0
171
     0
290
     0
174
     0
 93
       13
 44
0.0
173
     0
291
     0
 45
0.0
1001
ACAD
1000
AcDbSavedByObjectVersion
1070
     0
  0
VISUALSTYLE
  5
3E
102
{ACAD_XDICTIONARY
360
2AC
102
}
102
{ACAD_REACTORS
330
29
102
}
330
29
100
AcDbVisualStyle
  2
Shaded
 70
    27
 71
     2
 72
     2
 73
     1
 90
        2
 40
-0.6
 41
30.0
 62
     5
 63
     7
 74
     0
 91
        4
 64
     7
 65
   257
 75
     1
175
     1
 42
1.0
 92
        8
 66
   257
 43
1.0
 76
     1
 77
     6
 78
     2
 67
     8
 79
     3
170
     0
171
     0
290
     0
174
     0
 93
        5
 44
0.0
173
     0
291
     0
 45
0.0
1001
ACAD
1000
AcDbSavedByObjectVersion
1070
     0
  0
VISUALSTYLE
  5
3D
102
{ACAD_XDICTIONARY
360
2AA
102
}
102
{ACAD_REACTORS
330
29
102
}
330
29
100
AcDbVisualStyle
  2
Shaded with edges
 70
    26
 71
     2
 72
     2
 73
     1
 90
        2
 40
-0.6
 41
30.0
 62
     5
 63
     7
 74
     1
 91
       10
 64
     7
 65
   257
 75
     2
175
     1
 42
1.0
 92
        8
 66
   257
 43
1.0
 76
     1
 77
     6
 78
     2
 67
     7
 79
     3
170
     0
171
     0
290
     0
174
     0
 93
        5
 44
0.0
173
     0
291
     0
 45
0.0
1001
ACAD
1000
AcDbSavedByObjectVersion
1070
     0
  0
VISUALSTYLE
  5
3A
102
{ACAD_XDICTIONARY
360
2A4
102
}
102
{ACAD_REACTORS
330
29
102
}
330
29
100
AcDbVisualStyle
  2
Shades of Gray
 70
    23
 71
     2
 72
     2
 73
     3
 90
        0
 40
-0.6
 41
-30.0
 62
     5
 63
     7
 74
     2
 91
        2
 64
     7
 65
     7
 75
     1
175
     1
 42
40.0
 92
        8
 66
     7
 43
1.0
 76
     1
 77
     6
 78
     2
 67
     7
 79
     3
170
     0
171
     0
290
     0
174
     0
 93
        1
 44
0.0
173
     0
291
     0
 45
0.0
1001
ACAD
1000
AcDbSavedByObjectVersion
1070
     0
  0
VISUALSTYLE
  5
3B
102
{ACAD_XDICTIONARY
360
2A6
102
}
102
{ACAD_REACTORS
330
29
102
}
330
29
100
AcDbVisualStyle
  2
Sketchy
 70
    24
 71
     1
 72
     2
 73
     2
 90
        0
 40
-0.6
 41
-30.0
 62
     5
 63
     7
 74
     2
 91
        2
 64
     7
 65
     7
 75
     1
175
     1
 42
40.0
 92
       11
 66
     7
 43
1.0
 76
     1
 77
     6
 78
     2
 67
     7
 79
     6
170
     0
171
     0
290
     0
174
     0
 93
        1
 44
0.0
173
     0
291
     0
 45
0.0
1001
ACAD
1000
AcDbSavedByObjectVersion
1070
     0
  0
VISUALSTYLE
  5
36
102
{ACAD_XDICTIONARY
360
29C
102
}
102
{ACAD_REACTORS
330
29
102
}
330
29
100
AcDbVisualStyle
  2
Thicken
 70
    13
 71
     2
 72
     2
 73
     0
 90
        0
 40
-0.6
 41
-30.0
 62
     5
 63
     7
 74
     1
 91
        4
 64
     7
 65
   257
 75
     1
175
     1
 42
1.0
 92
       12
 66
     7
 43
1.0
 76
     1
 77
     6
 78
     2
 67
     7
 79
     5
170
     0
171
     0
290
     0
174
     0
 93
        1
 44
0.0
173
     0
291
     1
 45
0.0
1001
ACAD
1000
AcDbSavedByObjectVersion
1070
     0
  0
VISUALSTYLE
  5
30
102
{ACAD_XDICTIONARY
360
290
102
}
102
{ACAD_REACTORS
330
29
102
}
330
29
100
AcDbVisualStyle
  2
Wireframe
 70
     5
 71
     0
 72
     2
 73
     0
 90
        0
 40
-0.6
 41
-30.0
 62
     5
 63
     7
 74
     1
 91
        4
 64
     7
 65
   257
 75
     1
175
     1
 42
1.0
 92
        0
 66
   257
 43
1.0
 76
     1
 77
     6
 78
     2
 67
     7
 79
     3
170
     0
171
     0
290
     0
174
     0
 93
        1
 44
0.0
173
     0
291
     0
 45
0.0
1001
ACAD
1000
AcDbSavedByObjectVersion
1070
     0
  0
VISUALSTYLE
  5
3C
102
{ACAD_XDICTIONARY
360
2A8
102
}
102
{ACAD_REACTORS
330
29
102
}
330
29
100
AcDbVisualStyle
  2
X-Ray
 70
    25
 71
     2
 72
     2
 73
     1
 90
        1
 40
0.5
 41
-30.0
 62
     5
 63
     7
 74
     1
 91
        0
 64
     7
 65
   257
 75
     1
175
     1
 42
1.0
 92
        8
 66
     7
 43
1.0
 76
     1
 77
     6
 78
     2
 67
     7
 79
     3
170
     0
171
     0
290
     0
174
     0
 93
       13
 44
0.0
173
     0
291
     0
 45
0.0
1001
ACAD
1000
AcDbSavedByObjectVersion
1070
     0
  0
DICTIONARYVAR
  5
79
102
{ACAD_REACTORS
330
76
102
}
330
76
100
DictionaryVariables
280
     0
  1
1:1
  0
DICTIONARYVAR
  5
78
102
{ACAD_REACTORS
330
76
102
}
330
76
100
DictionaryVariables
280
     0
  1
STANDARD
  0
DICTIONARYVAR
  5
77
102
{ACAD_REACTORS
330
76
102
}
330
76
100
DictionaryVariables
280
     0
  1
STANDARD
  0
DICTIONARYVAR
  5
272
102
{ACAD_REACTORS
330
76
102
}
330
76
100
DictionaryVariables
280
     0
  1
1
  0
DICTIONARYVAR
  5
271
102
{ACAD_REACTORS
330
76
102
}
330
76
100
DictionaryVariables
280
     0
  1
1
  0
DICTIONARYVAR
  5
270
102
{ACAD_REACTORS
330
76
102
}
330
76
100
DictionaryVariables
280
     0
  1
0
  0
DICTIONARYVAR
  5
26D
102
{ACAD_REACTORS
330
76
102
}
330
76
100
DictionaryVariables
280
     0
  1
0
  0
DICTIONARYVAR
  5
26E
102
{ACAD_REACTORS
330
76
102
}
330
76
100
DictionaryVariables
280
     0
  1
0
  0
DICTIONARYVAR
  5
26C
102
{ACAD_REACTORS
330
76
102
}
330
76
100
DictionaryVariables
280
     0
  1
2
  0
DICTIONARYVAR
  5
26B
102
{ACAD_REACTORS
330
76
102
}
330
76
100
DictionaryVariables
280
     0
  1
1
  0
DICTIONARYVAR
  5
26F
102
{ACAD_REACTORS
330
76
102
}
330
76
100
DictionaryVariables
280
     0
  1
127
  0
DICTIONARYVAR
  5
27A
102
{ACAD_REACTORS
330
76
102
}
330
76
100
DictionaryVariables
280
     0
  1
2
  0
DICTIONARY
  5
2B5
330
6B
100
AcDbDictionary
280
     1
281
     1
  3
ACAD_XREC_ROUNDTRIP
360
2B6
  0
DICTIONARY
  5
2B9
330
73
100
AcDbDictionary
280
     1
281
     1
  3
ACAD_XREC_ROUNDTRIP
360
2BA
  0
DICTIONARY
  5
2B7
330
6F
100
AcDbDictionary
280
     1
281
     1
  3
ACAD_XREC_ROUNDTRIP
360
2B8
  0
DICTIONARY
  5
1A
330
19
100
AcDbDictionary
280
     1
281
     1
  3
ACAD_XREC_ROUNDTRIP
360
282
  3
BUMPTILE
360
1C
  3
DIFFUSETILE
360
1B
  3
OPACITYTILE
360
1F
  3
REFLECTIONTILE
360
1E
  3
REFRACTIONTILE
360
20
  3
SPECULARTILE
360
1D
  0
DICTIONARY
  5
12
330
11
100
AcDbDictionary
280
     1
281
     1
  3
ACAD_XREC_ROUNDTRIP
360
281
  3
BUMPTILE
360
14
  3
DIFFUSETILE
360
13
  3
FBXASSET
360
F9
  3
OPACITYTILE
360
17
  3
REFLECTIONTILE
360
16
  3
REFRACTIONTILE
360
18
  3
SPECULARTILE
360
15
  0
DICTIONARY
  5
22
330
21
100
AcDbDictionary
280
     1
281
     1
  3
ACAD_XREC_ROUNDTRIP
360
283
  3
BUMPTILE
360
24
  3
DIFFUSETILE
360
23
  3
FBXASSET
360
BA
  3
OPACITYTILE
360
27
  3
REFLECTIONTILE
360
26
  3
REFRACTIONTILE
360
28
  3
SPECULARTILE
360
25
  0
DICTIONARY
  5
27D
330
67
100
AcDbDictionary
280
     1
281
     1
  3
ACAD_XREC_ROUNDTRIP
360
27E
  0
DICTIONARY
  5
228
330
65
100
AcDbDictionary
280
     1
281
     1
  3
ACAD_ROUNDTRIP_2008_TABLESTYLE_CELLSTYLEMAP
360
27C
  3
ACAD_XREC_ROUNDTRIP
360
2B4
  0
DICTIONARY
  5
28E
330
2F
100
AcDbDictionary
280
     1
281
     1
  3
ACAD_XREC_ROUNDTRIP
360
28F
  0
DICTIONARY
  5
28C
330
2E
100
AcDbDictionary
280
     1
281
     1
  3
ACAD_XREC_ROUNDTRIP
360
28D
  0
DICTIONARY
  5
29A
330
35
100
AcDbDictionary
280
     1
281
     1
  3
ACAD_XREC_ROUNDTRIP
360
29B
  0
DICTIONARY
  5
2A2
330
39
100
AcDbDictionary
280
     1
281
     1
  3
ACAD_XREC_ROUNDTRIP
360
2A3
  0
DICTIONARY
  5
294
330
32
100
AcDbDictionary
280
     1
281
     1
  3
ACAD_XREC_ROUNDTRIP
360
295
  0
DICTIONARY
  5
298
330
34
100
AcDbDictionary
280
     1
281
     1
  3
ACAD_XREC_ROUNDTRIP
360
299
  0
DICTIONARY
  5
2B2
330
41
100
AcDbDictionary
280
     1
281
     1
  3
ACAD_XREC_ROUNDTRIP
360
2B3
  0
DICTIONARY
  5
2A0
330
38
100
AcDbDictionary
280
     1
281
     1
  3
ACAD_XREC_ROUNDTRIP
360
2A1
  0
DICTIONARY
  5
284
330
2A
100
AcDbDictionary
280
     1
281
     1
  3
ACAD_XREC_ROUNDTRIP
360
285
  0
DICTIONARY
  5
286
330
2B
100
AcDbDictionary
280
     1
281
     1
  3
ACAD_XREC_ROUNDTRIP
360
287
  0
DICTIONARY
  5
288
330
2C
100
AcDbDictionary
280
     1
281
     1
  3
ACAD_XREC_ROUNDTRIP
360
289
  0
DICTIONARY
  5
28A
330
2D
100
AcDbDictionary
280
     1
281
     1
  3
ACAD_XREC_ROUNDTRIP
360
28B
  0
DICTIONARY
  5
292
330
31
100
AcDbDictionary
280
     1
281
     1
  3
ACAD_XREC_ROUNDTRIP
360
293
  0
DICTIONARY
  5
2AE
330
3F
100
AcDbDictionary
280
     1
281
     1
  3
ACAD_XREC_ROUNDTRIP
360
2AF
  0
DICTIONARY
  5
29E
330
37
100
AcDbDictionary
280
     1
281
     1
  3
ACAD_XREC_ROUNDTRIP
360
29F
  0
DICTIONARY
  5
2B0
330
40
100
AcDbDictionary
280
     1
281
     1
  3
ACAD_XREC_ROUNDTRIP
360
2B1
  0
DICTIONARY
  5
296
330
33
100
AcDbDictionary
280
     1
281
     1
  3
ACAD_XREC_ROUNDTRIP
360
297
  0
DICTIONARY
  5
2AC
330
3E
100
AcDbDictionary
280
     1
281
     1
  3
ACAD_XREC_ROUNDTRIP
360
2AD
  0
DICTIONARY
  5
2AA
330
3D
100
AcDbDictionary
280
     1
281
     1
  3
ACAD_XREC_ROUNDTRIP
360
2AB
  0
DICTIONARY
  5
2A4
330
3A
100
AcDbDictionary
280
     1
281
     1
  3
ACAD_XREC_ROUNDTRIP
360
2A5
  0
DICTIONARY
  5
2A6
330
3B
100
AcDbDictionary
280
     1
281
     1
  3
ACAD_XREC_ROUNDTRIP
360
2A7
  0
DICTIONARY
  5
29C
330
36
100
AcDbDictionary
280
     1
281
     1
  3
ACAD_XREC_ROUNDTRIP
360
29D
  0
DICTIONARY
  5
290
330
30
100
AcDbDictionary
280
     1
281
     1
  3
ACAD_XREC_ROUNDTRIP
360
291
  0
DICTIONARY
  5
2A8
330
3C
100
AcDbDictionary
280
     1
281
     1
  3
ACAD_XREC_ROUNDTRIP
360
2A9
  0
XRECORD
  5
2B6
102
{ACAD_REACTORS
330
2B5
102
}
330
2B5
100
AcDbXrecord
280
     1
102
SHADEPLOT
 70
     0
102
SHADEPLOTRESLEVEL
 70
     2
102
SHADEPLOTCUSTOMDPI
 70
   300
  0
XRECORD
  5
2BA
102
{ACAD_REACTORS
330
2B9
102
}
330
2B9
100
AcDbXrecord
280
     1
102
SHADEPLOT
 70
     0
102
SHADEPLOTRESLEVEL
 70
     2
102
SHADEPLOTCUSTOMDPI
 70
   300
  0
XRECORD
  5
2B8
102
{ACAD_REACTORS
330
2B7
102
}
330
2B7
100
AcDbXrecord
280
     1
102
SHADEPLOT
 70
     0
102
SHADEPLOTRESLEVEL
 70
     2
102
SHADEPLOTCUSTOMDPI
 70
   300
  0
XRECORD
  5
282
102
{ACAD_REACTORS
330
1A
102
}
330
1A
100
AcDbXrecord
280
     1
102
MATERIAL
148
0.0
149
0.0
149
0.0
 93
        0
 94
      127
282
     0
 72
     0
 77
     0
171
     0
175
     0
179
     0
273
     0
  0
XRECORD
  5
1C
102
{ACAD_REACTORS
330
1A
102
}
330
1A
100
AcDbXrecord
280
     1
270
     1
271
     1
  0
XRECORD
  5
1B
102
{ACAD_REACTORS
330
1A
102
}
330
1A
100
AcDbXrecord
280
     1
270
     1
271
     1
  0
XRECORD
  5
1F
102
{ACAD_REACTORS
330
1A
102
}
330
1A
100
AcDbXrecord
280
     1
270
     1
271
     1
  0
XRECORD
  5
1E
102
{ACAD_REACTORS
330
1A
102
}
330
1A
100
AcDbXrecord
280
     1
270
     1
271
     1
  0
XRECORD
  5
20
102
{ACAD_REACTORS
330
1A
102
}
330
1A
100
AcDbXrecord
280
     1
270
     1
271
     1
  0
XRECORD
  5
1D
102
{ACAD_REACTORS
330
1A
102
}
330
1A
100
AcDbXrecord
280
     1
270
     1
271
     1
  0
XRECORD
  5
281
102
{ACAD_REACTORS
330
12
102
}
330
12
100
AcDbXrecord
280
     1
102
MATERIAL
148
0.0
149
0.0
149
0.0
 93
        0
 94
      127
282
     0
 72
     0
 77
     0
171
     0
175
     0
179
     0
273
     0
  0
XRECORD
  5
14
102
{ACAD_REACTORS
330
12
102
}
330
12
100
AcDbXrecord
280
     1
270
     1
271
     1
  0
XRECORD
  5
13
102
{ACAD_REACTORS
330
12
102
}
330
12
100
AcDbXrecord
280
     1
270
     1
271
     1
  0
XRECORD
  5
F9
102
{ACAD_REACTORS
330
12
102
}
330
12
100
AcDbXrecord
280
     1
 70
     1
 90
1959938040
 71
     1
  1
17E6D1BC-4856-408C-A288-680F06DCB1C4
311
504B03040A0000080000CA6C94403DEE336E79000000790000001B0000006175746F6465736B2D64657369676E2D7061636B6167652E786D6C3C3F786D6C2076657273696F6E3D22312E302220656E636F64696E673D227574662D3822203F3E3C666F726D6174733E3C666F726D61743E687474703A2F2F736368656D612E
311
6175746F6465736B2E636F6D2F64657369676E2D7061636B6167652F323030393C2F666F726D61743E3C2F666F726D6174733E504B0304140006080800CA6C9440D486FD9CA0000000F4000000130000005B436F6E74656E745F54797065735D2E786D6C7D8EC10E82300C865F65E91D8A1E8C310C0EEA1BF002731658846E
311
D98AC1B77784ABF1D8FE5FBFBF75BBCE937A534CCEB38643598122B6FEE978D0B0485F9C41B54DDD7D022595594E1A469170414C76A4D9A4D207E29CF43ECE46F218070CC6BECC4078ACAA135ACF422C856C0E68EA1BF5669944DDD7BCDE7B1F8E415D77AECB980613C2E4AC91FC167A2B244592486606FC29C8FD7F045B9A
311
EF7053A7E60B504B0304140006080800CA6C94406FED4CE8EA0000007C01000008000000636F72652E786D6C8D904D6EC3201085AF82668F0DC6AE898589D2443D412F80803828315806AA1EBF383F52BBEB6A466FDE37337A62FF3DDFD0975DA30B7E045A1140D6EB609C9F46C8E98C39A0BD146B08E9970D9057B31D6193
311
418A690D79794A3AF8647D2AAA0FC63E4515A34D80F4AD3423447DB1B3AA544EC511AFD5A2F4554DB6A2AFAEC0393B831E479C29FBDCD9D915E48EF5AC65078E196FDF707BE809DE1D4F0C7F9CBAAEEFBBE33BE7BDA837588AE4E6D77DBD5A95AC01D910DA60D2E2867C5236303E3414133E1022EACDFE07CA8BF927949D4F
311
AC79BEFBC022485A1EB90FA4A8B72C4AB90755EA969BFC01504B0304140006080800CA6C944055019EA25F0000007C00000007000000636E782E786D6C4DCB3B0E80201045D1AD90E915ED2CF8AC45050C11660C8261F98AB1B07AC9C97D42D718D865D3E909258CFD00CCE24AC6E326A164D74DC0B4128928FF326038472B
311
A13128B1252AC747C6BAB984FC68F0B87FE8960A5C09FE86CFB69FBA01504B0304140006080800CA6C944021F5213166010000020300000C0000006662782F636F72652E786D6C8D52ED8E8320107C15C27F043F7ADA06697A6DEE09EE05A852CF54C120983EFEAD1F8DD74BD33426486676766747F9FED6366850B6AF8DCE
311
7118308C942E4C59EB2AC7DE5D4886D15E706B8CFB53869196ADCAF10863C12B6B7CB74085D14E6907A836A55A40D9F7CA61543470C9715FFCA85606D23BA8E8AF41278BABAC54100640439DE0BDB36000CD43C6138BCBF9C6E98C0BEE7D5D2E6C5DC2B4FA522B8BC5364EE3243E6424CE920F921C5246B6C7534CBE4E9B4D
311
9A6E8E9F5996723A8A0577757B775758259D2AB1885818119690887D87F12ECE76514858B6638CD3B1FC41E4BBF24D91AFB58BA3C5EE2CEBB108C1C844FCDB162272A89703F8A182D33144784D093F060D8140C84E9E9BFB1E57800655386313604AE3576A908D573095A1E9E17466A1F3D400367BDA277AD1E7750FF88052
311
57604D3AB89EBD1BA7F379EA1245A72C19DC0D69635BD9ACE6668BEBB90E7A2A2F4C63EC3B6ABAAC4A9730E9F8F78A5F504B0304140006080800CA6C94407CF99DC07E0000009D0000000B0000006662782F636E782E786D6C4DCCD10A83201886E15B91FFDC65AC39076AACBFBA8F581692E9703A76F9ABD1C18E3E78F878
311
65FD591D799BF8B2C12B284F0C88F18F305A3F2BC869A20248AD650C21FDDD80F861350A76062DE718F2F3A0D14C4376695367FD7220B6C8448F25C51BF6B4BA5E5ADA74D5998A8671CE91B3EECEA0D0B2F895B6DDC3FA0B504B0304140006080800CA6C9440CFBCC3622C01000015020000310000006662782F4344433038
311
4643312D433943462D343735442D424534332D3842303636364336304541302F636F72652E786D6C8D51CB6EC32010FC158B537AC0063FA81B61A2C649BEA03FE002495162B07854F9FCAE6B476A6FB9B068766676B4CB77F7F1967D6B1F8CB31DA2394199B6D229632F1D4AF18C5B94ED04F7CEC53F3494D961D41D9A6124
311
F8C5BB34AD9074366A1B01B54EE9151C42D01165F2069F0E05F9A5C7211F520446B8E6D320AFC345E7348736F0040FD143806C1932BF48F4879EB4A79EE2FEAD3FE1FAB539E0FDB1AE70BB278CB19E91E33BE1C522143C25A356B95110C79C8DF6CF9ACC62C1A3191FF1A5D743D40A8992D012931A97E48356DBAADD961493
311
764B60F24CFF274A937A52948C8D55B9C65D640109CA8BA521B872E9F3F608A3EF93F3319BE76D82962F48909C10D634ACA52D2F162E6C004C59BD9A86E83C6C7873FD043A6D1667560B5ECC4782F27B41A8F341C50F504B0304140006080800CA6C944053B510F84C01000033030000300000006662782F43444330384643
311
312D433943462D343735442D424534332D3842303636364336304541302F636E782E786D6CD593CD6E022114855F85B09F5F27C6180613177D822EBA65E0AA540626FC34F5ED7B51B46E5C74D90D999C7B38E7E60BC376DFB3215FE0837676A45DDD5202563AA5ED71A4291EAA0D253BCEBC73F1C9468915338C34CB94B3A3
311
7769299282834826A26AB43D17D14370C94B0828E79BC438290C0680AD128A304FA01428F230E2D7013CAE82E27421F104E46DFF41DCF4093206D6E414CE9ADCC1593E4BD3938912694408230DF204B3A8458A4E4138D74A445177F5BDEBC54EBF49245FB85726AF492E1F693E292F1BD5C8913538E42C448FF48A295E16A0
311
5C2C8BD1524484DC5C8D370F6749DBB81E8A5723788FEE6EBD1A060CBBCE388B7A86E2901E44044579DF767DD50E55DFBE77ABED6AB3EDBBAADD6CDB9635D9CED9E49C29973006BC5B887436828D9477ACC9E357F88A8F28ED91B5F3973F804400A5F546E791F19FF934D7F78DB83CFE05FC07504B0304140006080800CA6C
311
94408EA62767A305000081100000340000006662782F43444330384643312D433943462D343735442D424534332D3842303636364336304541302F6F626A656374732E786D6CAD57D96EDB3814FD1541F332F3E045B6E33A0345456C3785D1A62D6AB4980703062D510A27D402924A9CF9FA3914295972EDD433E88B162E97
311
F79E7BEE42FFED3EE5CE131592E5D98DEBF587AE43B3308F5896DCB8A58A7B33D7791BF822CF556B99EB6424A537AE1E76033F117959D8A188C6A4E4EA68F46EFE9723439A51D7093991F2C695E1034D499F942A8FA87CEC4744917E12EFFB5EDF2CEC8A4D04291E8E841644D04C41538C6790E218A5BCEEEFD01D04FE40CF
311
07BE7EDA55E3F3AB06953DDDF3592615C9C21F0E3B1233F626CB77A3ABEBDED56432EE4DA623AF37BF9B2F7BDE9BF170315D2CAE6FDF5DE360A90424594D048DDDE03DB0112CF407662AF04B96A9F1C82EB10E1A08FAC4B4A7DC60E478FEC0AC69ACB3469E523FCCB38C86155640A3B2CF8A8E6841B3083E675442B31642C3
311
EEAFA7716C4D8FF5BF3DB23D7C1902ED1D2D41B5EEF5BBAD69BEFB1B26C84B182424D50C34585A430D578707847779CEED1C934E4A14158C7087B39D20E2C50DB0542F09FC8E18CD64A1A3415BE006F08299EED20561F4739E9FD2322E39D73476832A0AB68815AA64A519FB878A83F66D64A0137CA5D930B306A99782BAC1
311
B5A1C8EC884D064827E62481CB61A6DE391E1D19BAD071BA5ABAC187BBDD7EAD63F7F4E185C80B2A94A60FA8553BAE7E6B94AC4EDE459ED31BDC23550EA07C05F29F10EA0755E037C1F693FDC49EA204C9649C8B14BE71864E6F88C7D0F1AAA7FE6E7DF9836673D77BE7F084B33554BF00CFAE0D6D5FB6E00CFC27103E1763
311
6BDA3A241C69E39E65004893C4E139869087E3DDDE0D56C872C8CAD84578E0C164A8FB844F7F60C520515427B5DE19B03C4A8B172468C05631126A18F25B050F7EFA219D5507DB65E7E0BDFA2574BD5DAE3FAC4B119390DEDB985ED298654CA1C41D78D356A88379C7A247FAF29C8B0886FE88F7BA8D776A8F92405B63AE81
311
4FEA9CAE7F0E27770E08B12FC975BAF17F72028CD085B525FF9EC990724E329A97F5B9AFD60F940D03B10E76CDE4A6C01C0A0B4863668E6210453A14ACD02036D5AA499AFD33D67D5B7D0223DD60FEF291BCB4B3D7EE907BC39CE762BB7BD99AB47412EAEF5D6E5B0C065A0AE85E05491DFF16F46DC4E2B89448822770FDBE
311
5AB47DA7D30252442DD544CB04F623B888B0A4ADE5A25A0B824A9A675B86BA89B83B79405B3E20B50CA8049ED358521E6F19E765BA8D194735DAA6A43803C7FFD77F57A6C596A47999A933B23BAAA33A7475EFB0573E13153EB8C1BA7AF7E6C8BD118DCE9041D7921358755DFBE6DD74E9CD17BDC9EC6ADA9B0C678BDEED68
311
36EB4D67C3BBE174B9987B8B49ED27A349E0D7A5A61DD1F0124A9B5F0A66DDF76D85F8B149C00DEE89929BF7263CEBF7B7551FBDB03FC01ED4CB66E36DF484BE8F463F1770587952D02A2D384D69A6888EA17BFDC1BF12F4191D65CCF82A2509BD40CAE7F7EB23633072C1BE2F3ADEE9F3D15E3BBAD0017952887A28D35D46
311
183FDA981824FB459658FC6A9F346F5368EA5FFD671D83CE54E69C45C8839193D03CA50AD9F0822224522A41BD764F1FD9BBC705BB9F4C87A8C88ED35A93078226994B8405A85586AA3BEEFC86A64EF755372ECA6DFF110F9B295C079CB971D1A42B1652D9DFA140EB56A8120E2EB53B7934FE244B387A6DB3A9F96F76696C
311
3A25B9597249FF64ED3229DC1A803452A06F404304EF54CA047EA59B9D0FFF93E1B53A0E51F8DC95AAB1E530D018531D83103546D9DB029A98477BF41E81FABA595EBF5AD341E4A25BD6AB2430527B8A88A4BA2968FDAC4AB7CB2F037428CEEAB353F032812F2F97D41314642E75808345608595591005AA2EFEDC7C11396E
311
B2A973C74001E7F7FD6CFAC76691A7699E99A1CDADBD0F3BEB07DC6EA30D9203D5D712B9190DBDD1A6BA0ED81BCA764724ED93483E62009E15AC01BAE37EF0D2DC195187CC44B36EA05D71C4D0D5D2B1850D99B65EDFCEAD1A1C341E19751043FA4AA923A6BDA078F54630A8964205815E3EF817504B0304140006080000CA
311
6C9440000000000000000000000000350000006662782F43444330384643312D433943462D343735442D424534332D3842303636364336304541302F76657274696365732E62696E504B0304140006080800CA6C9440F270F1330600000004000000360000006662782F43444330384643312D433943462D343735442D4245
311
34332D3842303636364336304541302F747269616E676C65732E62696E636660600000504B0304140006080000CA6C9440000000000000000000000000370000006662782F43444330384643312D433943462D343735442D424534332D3842303636364336304541302F617474726962757465732E62696E504B0304140006
311
080800CA6C9440D5987DFC8F00000041010000360000006662782F43444330384643312D433943462D343735442D424534332D3842303636364336304541302F6469726563746F72792E786D6C858F410EC2201045AF4266AF15DDB800BA74E7C21B903225242D6328188F2FA5C4183471359997F9FF81E89FF3C41E181647
311
5E02DF1F80A11FC8386F25A438EECEC07A250251FC3803E6F58C12560C4AD840E95E91C151A72936F496F35732D860FE635F62C8F2DA16B505C545B74125BAA2FA9E05D7CC053D063734D5C7665FD55B6B8D15D5E9BFEAFD8490FFA45E504B0304140006080800CA6C94409F8CD898FD000000A00100003B0000006662782F
311
43444330384643312D433943462D343735442D424534332D3842303636364336304541302F7265736F75726365732F636F72652E786D6C8D504B6E833010BD8A357B83C1A410641CA5897A825EC032136A25D8C89FAAC7AF09546A77DDCC8CDE47F3F4C4E96B7E904FF4C1383B4055302068B51B8D9D0648F1463B202729BC
311
73F1970C8855330EB0C220C5E45D5A76483B1BD1C68C5A37E20EAA103002D18F7C0C10F407CEAA50296645B8178BD2773561511599CE3A2942F43900D99EAC13A4C7E092D71844B9B152A464C65D63C6FCD3DC0C7A9047DEF2869F5BCABBE68536E796D1E3E5CAE9DBF57068DBC3E5B5EB5A51AE6629A2997F326A8F2AE208
311
B266554D59436BF65EF19E777D5D51D6F58C897295FF31A565FCA729191B79BDC7DD6C016495833C0929CAB5AFBC9E65E6BD762BBF01504B010214000A0000080000CA6C94403DEE336E79000000790000001B00000000000000000000000000000000006175746F6465736B2D64657369676E2D7061636B6167652E786D6C
311
504B01021400140006080800CA6C9440D486FD9CA0000000F40000001300000000000000000000000000B20000005B436F6E74656E745F54797065735D2E786D6C504B01021400140006080800CA6C94406FED4CE8EA0000007C010000080000000000000000000000000083010000636F72652E786D6C504B010214001400
311
06080800CA6C944055019EA25F0000007C000000070000000000000000000000000093020000636E782E786D6C504B01021400140006080800CA6C944021F5213166010000020300000C00000000000000000000000000170300006662782F636F72652E786D6C504B01021400140006080800CA6C94407CF99DC07E000000
311
9D0000000B00000000000000000000000000A70400006662782F636E782E786D6C504B01021400140006080800CA6C9440CFBCC3622C0100001502000031000000000000000000000000004E0500006662782F43444330384643312D433943462D343735442D424534332D3842303636364336304541302F636F72652E786D
311
6C504B01021400140006080800CA6C944053B510F84C010000330300003000000000000000000000000000C90600006662782F43444330384643312D433943462D343735442D424534332D3842303636364336304541302F636E782E786D6C504B01021400140006080800CA6C94408EA62767A30500008110000034000000
311
00000000000000000000630800006662782F43444330384643312D433943462D343735442D424534332D3842303636364336304541302F6F626A656374732E786D6C504B01021400140006080000CA6C94400000000000000000000000003500000000000000000000000000580E00006662782F43444330384643312D4339
311
43462D343735442D424534332D3842303636364336304541302F76657274696365732E62696E504B01021400140006080800CA6C9440F270F13306000000040000003600000000000000000000000000AB0E00006662782F43444330384643312D433943462D343735442D424534332D3842303636364336304541302F7472
311
69616E676C65732E62696E504B01021400140006080000CA6C94400000000000000000000000003700000000000000000000000000050F00006662782F43444330384643312D433943462D343735442D424534332D3842303636364336304541302F617474726962757465732E62696E504B01021400140006080800CA6C94
311
40D5987DFC8F0000004101000036000000000000000000000000005A0F00006662782F43444330384643312D433943462D343735442D424534332D3842303636364336304541302F6469726563746F72792E786D6C504B01021400140006080800CA6C94409F8CD898FD000000A00100003B00000000000000000000000000
311
3D1000006662782F43444330384643312D433943462D343735442D424534332D3842303636364336304541302F7265736F75726365732F636F72652E786D6C504B0506000000000E000E0080040000931100000000
310
504B03040A0000080000CA6C94403DEE336E79000000790000001B0000006175746F6465736B2D64657369676E2D7061636B6167652E786D6C3C3F786D6C2076657273696F6E3D22312E302220656E636F64696E673D227574662D3822203F3E3C666F726D6174733E3C666F726D61743E687474703A2F2F736368656D612E
310
6175746F6465736B2E636F6D2F64657369676E2D7061636B6167652F323030393C2F666F726D61743E3C2F666F726D6174733E504B0304140006080800CA6C9440D486FD9CA0000000F4000000130000005B436F6E74656E745F54797065735D2E786D6C7D8EC10E82300C865F65E91D8A1E8C310C0EEA1BF002731658846E
310
D98AC1B77784ABF1D8FE5FBFBF75BBCE937A534CCEB38643598122B6FEE978D0B0485F9C41B54DDD7D022595594E1A469170414C76A4D9A4D207E29CF43ECE46F218070CC6BECC4078ACAA135ACF422C856C0E68EA1BF5669944DDD7BCDE7B1F8E415D77AECB980613C2E4AC91FC167A2B244592486606FC29C8FD7F045B9A
310
EF7053A7E60B504B0304140006080800CA6C944067A6B1BFE90000007C01000008000000636F72652E786D6C8D90416EC3201045AF82668F0DD89569848962CB37E8051010172506CB40D5E317278ED4EEBA9AD19FFF66465F9CBF973BFAB25B74C1F7402B02C87A1D8CF3730F395D31077496620B21FDB201F26AB13DEC32
310
48316F21AF87A4834FD6A7A2FA60EC21AA186D02A4EFA5E921EA4FBBA84AE5541CF156AD4ADFD46C2BFAEA0A9CB333E879C499B2CF5D9DDD400E173EB296B7787A63136EC76EC07C1A274CBA6E7AEFBA0B1FD820EA1D9622B9E5755F6F56256B40324219262D66E48336A7869F18C5849F0811F56EFF03E5D5FC13CACEA786
310
1DEF3EB1089296471E0329EA3D8B521E4195BAE7267F00504B0304140006080800CA6C944055019EA25F0000007C00000007000000636E782E786D6C4DCB3B0E80201045D1AD90E915ED2CF8AC45050C11660C8261F98AB1B07AC9C97D42D718D865D3E909258CFD00CCE24AC6E326A164D74DC0B4128928FF326038472BA1
310
3128B1252AC747C6BAB984FC68F0B87FE8960A5C09FE86CFB69FBA01504B0304140006080800CA6C9440B4A8567565010000020300000C0000006662782F636F72652E786D6C8D52ED8E8320107C15C27F04A917BD06696AE31BDC0B50A53D53058360FAF8B77E345E2F4D73314132B3B33B3B2A0EF7AE45A37643634D8EE3
310
8861A44D65EBC65C731CFC8564181DA470D6FA5F651819D5E91C4F3096E2EA6CE857A8B2C66BE30135B6D62BA886417B8CAA162E391EAA6FDDA948050F15C32DEA557553571DC511D05027C5E01D1840CB90E9C4F272BE0BBAE05284D0D42BDBD430ADB934DA61591CB3134FB284941FBC24C9292D48569E4AC2D2B4FC4CD3
310
6356F042D0492C856FBA87BBCA69E5758D256731272C219C7DC5BBFD2EDBF398B06CCF98A053F99328F4F53F45A1317EC757BB8B6CC032062333F1675B88C8A3418DE0874A41A710E13527FC1C340402217B756E1F7BDC001A75E5AD4B80A96DD8A851B541C35486E647D08585CE7303D8EC651FFEA6CFFB1EF00195B98235
310
E5E17A0E7E9A2E96A96B14BD7664F47764ACEB54BB995B2C6EE736E8A5BCB2AD75FF51D37555BA8649A7BF57FE00504B0304140006080800CA6C9440C828DD7E7E0000009D0000000B0000006662782F636E782E786D6C4DCCD10A83201886E15B91FFDC55E45A821A9AF33E625944A6C3E9D8E5AF46073BFAE0E1E365DD67
310
73E86DE36B099E4375290159FF08E3E2670E394DB805D4091643487F37407ED82C878341B03986FC3C69B4D3905DDAD52D7E3D912A429BDA34F876950693BAACB032A4C5BA57544B7D57BD54500856FC4AFB1E61F105504B0304140006080800CA6C9440F6CDC1932D01000015020000310000006662782F39423439363346
310
362D373541462D343330312D424634382D4443423944414445424341422F636F72652E786D6C8D51DB8EC22014FC15C293FB404B4BADADA118ABEB17EC0F2045255A68B86CFCFC856D4D76DF7CE19039337326E7D0DD737C806F699D32BA83458621905A9841E96B0783BFA006821DA3D618FF870681E6A3EC608221A3576B
310
C2B440C2682FB58FA836835C40EE9CF4108847FC74D0899B1C79C6838F0C77CF262EEEFC2AB3228BEDC863D4791B038079487A216BFBAAADC9A9469BF5FE842A820BD49FAA061D0F7D7BDC1F3FFBC3BEA7F92C643404352C7235C438EAA2A47DD7248919F56A7CC51756722F07C84A5C940857A8C45F05D992665B1608375B
310
8C699EE8FF44611ADE1405A53D2997B8B3CC4156D07C6E303A98707EBCC2C8E764AC0769DECA49F10119CE30AEDB0D59B735CD676EDC4034ADABC5D47963E38657F773A493C5B9AE18CDD39162F9BD60ACE9A0EC07504B0304140006080800CA6C94403512DFEF5301000033030000300000006662782F3942343936334636
310
2D373541462D343330312D424634382D4443423944414445424341422F636E782E786D6CBD93CD6EC32010845F0571F7BF15591126520F7D821E7AC5B04968305880ABE6EDBB2424CD25874A552FC89A1D66569F30DB7DCD867C820FDAD99136654D0958E994B68791AE715F0C94EC38F3CEC5071B2556CC30D22453CE0EDE
310
AD4B9614ECC56A22AA46DB53163D04B77A0901E57493182785C100B0C58A22CC1328058ADC8DF8B5078FABA0389D493C02797D79276EFA001903AB520A6755EAE02C9DB9E9C14489342284910679845994628D4E4138954A445136E5ADEBC94E3F49245DB855AE5E93543ED274529E372A9123AB70C859881EE965533C2F40
310
B95816A3A58808B9BA18AF1ECE566DE3A6CF5E8DE03DBABB76330C1876997116F50CD9213D88088AF2B66EDAA2EE8BB67E6BBA6D376CDBA6A8876D5DB32AD9399B9C33F912C680770B91CE46B091F2865569FC0C5FF611A53DB276FEFC0B900820B75EE9DC33FE924FB3E9FAFE1FF95497F78DB83CFE05FC1B504B03041400
310
06080800CA6C944098CD6CAC630700009A1B0000340000006662782F39423439363346362D373541462D343330312D424634382D4443423944414445424341422F6F626A656374732E786D6CED59DD73A33610FF5718FAD23E189BD8C9391DC24D625F6E3CD75C6FEA5EA70F9E616490891A211849E4E2FEF55D7D80819804
310
B7E9DB3DD8809056BBBFFDD412BC7FCAA8F388B92039BB727D6FE23A98C57942587AE59672379ABBCEFB30E0792E1BD35C87A10C5FB96AD80D8394E765618712BC4325959DD1DB9B3F1D1163865D27A648882B57C4F738431E2A659E60F1E02548222FDD3D79BE6726B6C9A61C15F71DA205E29849E014C61950710C537EFB
310
71E28EC360ACDE8781FAB7B3A68366CDFA678DB5D46D2E091312B1F8194B1D32D3412C4DFDD9F2C3D9F9E5E87C369B8E661767FEE8E6F66639F2DF4D278B8BC5E2F2FAC325B0B7CD736A654A70815902FADBBBA11F8CD59B5A748BC031AEE39C311C6B20012A2D569720C102B66AC037693FFA4AA2C66B2D61E379A6DE5B16
310
1AC3D33695BE59C38068D10541EC7695C4D5B5295FBEFD0B0417438C920B2C815B213968D7C2C3C12BDC70128CCD68186C0FBA20C2C990C49C20EA50B2E588835260AA9A1206668125A39C8303294749A035675EB76D0B3CF375D739C6E5AEA45479861B6AC78AC0FDB0149A33F237E607EE9BC8004F206D49989C5B2EE5BE
310
C06E78198CF56018A8CBF4CCBE34403A3B8A52A111316F3B822E94EBAF966EF8E976FBB456E1E0F8E605CF0BCCA5323AA547CD1718B2BD2A94ECB6FE20CDA905208C01D5AE3C80F21B20FF19A2C78115D01B274FB3A7999D2B39626297F30C74E34C9CD104FE268EAFFFD57DE32E18D78BDBDAEBC313DC544135FFEF78B665
310
D05859FE1B7086C123187CCEA7F6D53A4614ECF98E300048198943731882D0BEDB3EB9E10A0227047A588568E883C8C0EE23DC06634BE6A095CABDACD73140D4EE311DA224804D5B24B0D1A3A78F903D38890F6A6A8AD807EFF99B98EBF572FD695DF21D8AF19DF5E925DE11462464CDE30CB5306F49F480F7DF729E80A0CF
310
F15E37F1CEEC5602D056982BE0D30A04F570D8B9B5410CEBD25C859BE0951D400895AB1BF4EF888831A588E1BCACF6ADA39B32D4DAE36DCDE0866706E2E959C784397E24AAAA00A739CC68310A793FE6A45020BAE14723591D34BD1EE9BEAE3E8345D6F37B66AD18845E86E8EF3A681DC1A165D915D216885AE0ED219CC739
310
CD79B4DD4726D2B9504B001B6D6FF9A3451462BD5192A2021EA4FDAE0A29A991364AC86E570A88AB4758FC63B5689AC3C49BFAE74EF3BFE38C3388B6E0BB885BBFEBEC11910CA538DAA1A46FBBE66E356DA149F690E67847412EF248E43E42329A24383D059A93885FBE29F594E642108605E4ABA3E037D1987810488C362B
310
9695563B4013116558227A0A028A4C0FB83AEDE81A3786D2E1751E6BEB7D49634DA2FF93457004B564CE2202A528E4905719F7BD7388216D740DCA1D7CC1DA2ADA5A0C5A420911EFA36F98A4F7F214D40DF91EDC6338929432CA0B1483590F20FBCC5794523BBC6F51FCA0F2471497F4AD0C4460BA8B08A56516C18F303879
310
0C71ED3A30BD884283B8897D126750942159F2219B5C9C4F9EED636A866E086C6CB42314C27694A1A207F55640D4F58853836FA9F728755B664584B2BC64830CC59B76BDC992EFAA55911DC8AF2A15A16CAC085B82614098ACB36A15B3C1D475600537D2816A1F099415D49CC25E493C7EED4D9A72EF06DCFAE9DB6E9041E1
310
D7A3BD66449D5530581E5B8581F886647CEF866B7D1DDD40FD9DE0E490EAAB5AB3590102622A92979C58157D5D4179636B3437BC43526C3E9AAC5B5DBFAE3CE87E04635803B54BBD70A580CE309348552677EA86FE862004B76898F195CAA9A750B94E125D35227A4BFAD4D92A235A9B66C42BEE31CB33F8B10D61312D13BC
310
41897888EE248DD644B16EA5F4325261FCA280BF7E5C77E0819101227D51051EFED6596B4717AA5C3A4A44DE97D996210241B0255A6A74E3152CB51AA9B45C5FD59902EA2E3030ABE2D9F79345B31DF1FD64915AC3F84F278B9BFD2F68DFEC8B34D279ACECFAA463409D9F1495B73806E8B6434DB5CE2226995BF9AD334510
310
14AB283FB81AAB828621D8C7F1BFCEDA7D59D06CD7E1FFB4ACED3FAB384ECA2AADC9AA4B75A4725D357398FFEEC3C5D2BF598C66F3F38BD16C325F8CAECFE6F3D1C57C723BB9582E6EFCC5AC46533B6A18D4C14CE72E783641AD1A564F1603E8CA8A9C92044EF389936288F912CEF403DAE73CC3029267B3D99DD8A6FC80D5
310
8FA6CF29D196E28A937B040D622A20AD0346652CDBE3CE0FD09A9470D0BE72A169E43DC09FB54AD781CC73E542AB4092180B6F0B6D26D5D0D3C421E5EADC6F89013E88A52A259A45F573BD4A61D30AFFF5942169C0CAD5EA6140E15640F7ABD5A1D0BC599EE29304AFD8719084DB6D29A15A33B21C066A61F43607F51BD928
310
610F76EB2770DD97C5F23D3DA785C8A04F062F1A81A13A9288A7BADFAD18B32C5D2FBF8CA1CFE6AC7E750A5AA6A0CBE194461C833197AAA0022B02ABB0340B24C154173F6FBEF01C3EF1648EAE8A9C1F9FE6173F6D167996E5CC0C6DAEE15496C08722677D0F9F7D920D140F5835D7C5E66CE29F6D7453DBF6D9A32D12D853
310
55110C54C58412A463726097CF1A54B67D3956AAE84C5F2D1D1B44A11960ECE8598FD77CE472C087D4E714E531DACF2B695FEC6B8FF554B0090E1DE9F01F504B0304140006080000CA6C9440000000000000000000000000350000006662782F39423439363346362D373541462D343330312D424634382D44434239444144
310
45424341422F76657274696365732E62696E504B0304140006080800CA6C9440F270F1330600000004000000360000006662782F39423439363346362D373541462D343330312D424634382D4443423944414445424341422F747269616E676C65732E62696E636660600000504B0304140006080000CA6C94400000000000
310
00000000000000370000006662782F39423439363346362D373541462D343330312D424634382D4443423944414445424341422F617474726962757465732E62696E504B0304140006080800CA6C9440D5987DFC8F00000041010000360000006662782F39423439363346362D373541462D343330312D424634382D444342
310
3944414445424341422F6469726563746F72792E786D6C858F410EC2201045AF4266AF15DDB800BA74E7C21B903225242D6328188F2FA5C4183471359997F9FF81E89FF3C41E1816475E02DF1F80A11FC8386F25A438EECEC07A250251FC3803E6F58C12560C4AD840E95E91C151A72936F496F35732D860FE635F62C8F2DA
310
16B505C545B74125BAA2FA9E05D7CC053D063734D5C7665FD55B6B8D15D5E9BFEAFD8490FFA45E504B0304140006080800CA6C9440B8C87B07FC000000A00100003B0000006662782F39423439363346362D373541462D343330312D424634382D4443423944414445424341422F7265736F75726365732F636F72652E786D
310
6C8D504B6E833010BD0A9ABDC19854B8C8380A1137E8052C33A156821DF913F5F8B5132AB5BB6E6646EFA3797AE2F8B5DDAA07FA609C1DA1AD295468B55B8C5D4748F14238544729BC73F1970C2AAB361CA1C020C5EA5DBAEF907636A28D19B56EC11D542160844ADFF23142D09FB8A95AA59815E15ADF95BEAA15EBB6CE74
310
D64911A2CF01AAD79332417A0C2E798D41342F568A94CCB26BCC927F9A8B410F723AF1333BF08ECC6F6C2687733F113E9F6742FB7E7EEFFB139FD8249A6296229AED27A3F6A8222E20196D19A107C2E847DB0D1D1F584B281F28154D91FF31A5FBF24F533236766C8FFBB205906D0EF224A4684A5F793DCBCCBB742BBF0150
310
4B010214000A0000080000CA6C94403DEE336E79000000790000001B00000000000000000000000000000000006175746F6465736B2D64657369676E2D7061636B6167652E786D6C504B01021400140006080800CA6C9440D486FD9CA0000000F40000001300000000000000000000000000B20000005B436F6E74656E745F
310
54797065735D2E786D6C504B01021400140006080800CA6C944067A6B1BFE90000007C010000080000000000000000000000000083010000636F72652E786D6C504B01021400140006080800CA6C944055019EA25F0000007C000000070000000000000000000000000092020000636E782E786D6C504B0102140014000608
310
0800CA6C9440B4A8567565010000020300000C00000000000000000000000000160300006662782F636F72652E786D6C504B01021400140006080800CA6C9440C828DD7E7E0000009D0000000B00000000000000000000000000A50400006662782F636E782E786D6C504B01021400140006080800CA6C9440F6CDC1932D01
310
00001502000031000000000000000000000000004C0500006662782F39423439363346362D373541462D343330312D424634382D4443423944414445424341422F636F72652E786D6C504B01021400140006080800CA6C94403512DFEF53010000330300003000000000000000000000000000C80600006662782F39423439
310
363346362D373541462D343330312D424634382D4443423944414445424341422F636E782E786D6C504B01021400140006080800CA6C944098CD6CAC630700009A1B00003400000000000000000000000000690800006662782F39423439363346362D373541462D343330312D424634382D4443423944414445424341422F
310
6F626A656374732E786D6C504B01021400140006080000CA6C944000000000000000000000000035000000000000000000000000001E1000006662782F39423439363346362D373541462D343330312D424634382D4443423944414445424341422F76657274696365732E62696E504B01021400140006080800CA6C9440F2
310
70F13306000000040000003600000000000000000000000000711000006662782F39423439363346362D373541462D343330312D424634382D4443423944414445424341422F747269616E676C65732E62696E504B01021400140006080000CA6C94400000000000000000000000003700000000000000000000000000CB10
310
00006662782F39423439363346362D373541462D343330312D424634382D4443423944414445424341422F617474726962757465732E62696E504B01021400140006080800CA6C9440D5987DFC8F000000410100003600000000000000000000000000201100006662782F39423439363346362D373541462D343330312D42
310
4634382D4443423944414445424341422F6469726563746F72792E786D6C504B01021400140006080800CA6C9440B8C87B07FC000000A00100003B00000000000000000000000000031200006662782F39423439363346362D373541462D343330312D424634382D4443423944414445424341422F7265736F75726365732F
310
636F72652E786D6C504B0506000000000E000E0080040000581300000000
  0
XRECORD
  5
17
102
{ACAD_REACTORS
330
12
102
}
330
12
100
AcDbXrecord
280
     1
270
     1
271
     1
  0
XRECORD
  5
16
102
{ACAD_REACTORS
330
12
102
}
330
12
100
AcDbXrecord
280
     1
270
     1
271
     1
  0
XRECORD
  5
18
102
{ACAD_REACTORS
330
12
102
}
330
12
100
AcDbXrecord
280
     1
270
     1
271
     1
  0
XRECORD
  5
15
102
{ACAD_REACTORS
330
12
102
}
330
12
100
AcDbXrecord
280
     1
270
     1
271
     1
  0
XRECORD
  5
283
102
{ACAD_REACTORS
330
22
102
}
330
22
100
AcDbXrecord
280
     1
102
MATERIAL
148
0.0
149
0.0
149
0.0
 93
        0
 94
      127
282
     0
 72
     0
 77
     0
171
     0
175
     0
179
     0
273
     0
  0
XRECORD
  5
24
102
{ACAD_REACTORS
330
22
102
}
330
22
100
AcDbXrecord
280
     1
270
     1
271
     1
  0
XRECORD
  5
23
102
{ACAD_REACTORS
330
22
102
}
330
22
100
AcDbXrecord
280
     1
270
     1
271
     1
  0
XRECORD
  5
BA
102
{ACAD_REACTORS
330
22
102
}
330
22
100
AcDbXrecord
280
     1
 70
     1
 90
1959938040
 71
     1
  1
C830E2CD-08C2-4128-AE36-076080469F79
311
504B03040A0000080000CA6C94403DEE336E79000000790000001B0000006175746F6465736B2D64657369676E2D7061636B6167652E786D6C3C3F786D6C2076657273696F6E3D22312E302220656E636F64696E673D227574662D3822203F3E3C666F726D6174733E3C666F726D61743E687474703A2F2F736368656D612E
311
6175746F6465736B2E636F6D2F64657369676E2D7061636B6167652F323030393C2F666F726D61743E3C2F666F726D6174733E504B0304140006080800CA6C9440D486FD9CA0000000F4000000130000005B436F6E74656E745F54797065735D2E786D6C7D8EC10E82300C865F65E91D8A1E8C310C0EEA1BF002731658846E
311
D98AC1B77784ABF1D8FE5FBFBF75BBCE937A534CCEB38643598122B6FEE978D0B0485F9C41B54DDD7D022595594E1A469170414C76A4D9A4D207E29CF43ECE46F218070CC6BECC4078ACAA135ACF422C856C0E68EA1BF5669944DDD7BCDE7B1F8E415D77AECB980613C2E4AC91FC167A2B244592486606FC29C8FD7F045B9A
311
EF7053A7E60B504B0304140006080800CA6C944035252113E90000007C01000008000000636F72652E786D6C8D90516EC3201044AF62ED3F366094B81626B213F704BD0002E2A2C46019A87AFCE2C491DABF7EED6898C7AE869FBEE77BF165D660BDEB8094180AE394D7D64D1DA478450D1427C157EFE3AF18144ECEA683CD
311
06C1A7D5A765B79477D1B8985DE7B5D94D19828950A87B161D04F5696659CA147322DCCA45AA9B9C4C495E2AC329595D3C97589DFFB3576B561003654736BC9F517FA118B1E13266F5D6A3F148FB03A3233BD303AF3658F068E7D77EB51A198D064131A1083344F107A9DBBA692941B86931E6D516FF03A545FF134AD6C59A
311
EEE73EB10082E4431E0F82575B17793C8ACA73EB4DFC00504B0304140006080800CA6C944055019EA25F0000007C00000007000000636E782E786D6C4DCB3B0E80201045D1AD90E915ED2CF8AC45050C11660C8261F98AB1B07AC9C97D42D718D865D3E909258CFD00CCE24AC6E326A164D74DC0B4128928FF326038472BA1
311
3128B1252AC747C6BAB984FC68F0B87FE8960A5C09FE86CFB69FBA01504B0304140006080800CA6C94403B5B377265010000020300000C0000006662782F636F72652E786D6C8D525B6E833010BC8AE57F63E3A0248D8CA3BC7A825EC00187A2808DFC40397E974794A68AA20AC958333BBBB303627B6B1BD46BE76B6B729C
311
260C236D0A5BD6A6CA710C17B2C6682B85B336FC2AC3C8A856E77880B11495B3B19BA1C29AA04D00D4D852CFA0F25E078C8A062E39F6C5B76E55A262800A7F4D3A555C55A59334011AEAA4F0C18101340D194E2C2FE79BA0132E458C7539B37509D3EA4BAD1D967B9EADB2FDE781EC8E9C916C7F3CC1ED63474E2BBE5B66FC
311
941DF852D0412C45A8DBBBBBC269157489256729272C239C7DA58BCD62BDE12961EB0D63820EE54FA2D895FF14C5DA84059FED4E328F650A4646E2CFB61051405EF5E0874A418710E13526FC1C3404022107756EEE7B5C01EA7511ACCB80296D7C50BD6AA286A90C8D8FA0130B9DC706B0D9CB3EFC4D9FF73DE0032A538135
311
15E07A8E61982EA6A973149D76A40F3764AC6B55F33037597C9C8F412FE5856DACFB8F9ACEABD2394C3AFCBDF207504B0304140006080800CA6C9440A35F3D877E0000009D0000000B0000006662782F636E782E786D6C4DCCDF0A83201C86E15B91DFB9ABB4BFA0466B791FB12C24D3613A76F9ABD1C18E3E78F87859FBD9
311
0C7A2BBF6B673964B71490B24F3769BB708861C635A05630EF5CF8BB01B2E3A6389C0C822DDEC5D745939AC768C2A146DBF5425AD1AA2B4A821BD2109C97B2C0F7BEEE713A109AE5523E081D20112CF9958E3DC3E20B504B0304140006080800CA6C94408FE1B98B2C01000015020000310000006662782F33373337413536
311
322D393239322D343646352D424338432D3045323331344646443233452F636F72652E786D6C8D51CB6EC32010FC15C4293D60F3705C27C2446D9A7C417FC00192A2C460F1A8F2F985DA91DA5B2E2C9A9D991DEDF2DD7DBC816FED8371B687A4C210682B9D32F6D2C314CFA8836027B8772EFEA141608751F7B0C050F08B77
311
695A20E96CD43666D43AA5177008414708E42D7F7A18E4971E876A483133C2B59A06791D2EBA22556E679EE021FA1C00CC43CA0B057B65AF6FEB96A20DDD50D4B4C7357ADF777B840F9491E678FCA0ECC0EB5928784A462D72A3721C7336DA3F6B52C48247333EE24BAF87A8151414138A708328FE246CCBBA2D2508775B8C
311
795DE8FF4469524F8A92B191D125EE2C0B50105ECF0DC1954BA7DB238CBE4FCE4750E6AD82962F50E00AE3B66B369874BC9EB97903D9B46D16D3109DCF1B5E5D4F994ED6B373DB085E9723E5F27BC15CCB41C50F504B0304140006080800CA6C944053B510F84C01000033030000300000006662782F33373337413536322D
311
393239322D343646352D424338432D3045323331344646443233452F636E782E786D6CD593CD6E022114855F85B09F5F27C6180613177D822EBA65E0AA540626FC34F5ED7B51B46E5C74D90D999C7B38E7E60BC376DFB3215FE0837676A45DDD5202563AA5ED71A4291EAA0D253BCEBC73F1C9468915338C34CB94B3A37769
311
299282834826A26AB43D17D14370C94B0828E79BC438290C0680AD128A304FA01428F230E2D7013CAE82E27421F104E46DFF41DCF4093206D6E414CE9ADCC1593E4BD3938912694408230DF204B3A8458A4E4138D74A445177F5BDEBC54EBF49245FB85726AF492E1F693E292F1BD5C8913538E42C448FF48A295E16A05C2C
311
8BD1524484DC5C8D370F6749DBB81E8A5723788FEE6EBD1A060CBBCE388B7A86E2901E44044579DF767DD50E55DFBE77ABED6AB3EDBBAADD6CDB9635D9CED9E49C29973006BC5B887436828D9477ACC9E357F88A8F28ED91B5F3973F804400A5F546E791F19FF934D7F78DB83CFE05FC07504B0304140006080800CA6C9440
311
6D736593A505000080100000340000006662782F33373337413536322D393239322D343646352D424338432D3045323331344646443233452F6F626A656374732E786D6CAD574D6FDB3810FD2B82F6B27BB02DD96EEA2C1415899D144691B6A8D1620F010C4AA2146E285120A9D4D95FBF8F12254BAE9D7A17BD5816351CCE
311
BC79F3C1E0DD2EE7CE33958A89E2CAF5C79EEBD02216092BB22BB7D2E968E13AEFC2400AA17B62AE53909C5EB966D90D834C8AAAB44B094D49C5F5C1EADDCD5F8E8A69415D27E644A92B57C58F34276352699150F5344E8826E32CDD8DFD712338549B49523E1E282D89A48586A5582FA0C5698CF287AF9E3B098389F91E06
311
E6D74ACD4E4B4D6A7F86E7B3426952C43F1C76A066E6CF57B7D33797A337F3F96C34BF98FAA39BBB9BD5C87F3BF39617CBE5E5F5ED250E565A4293B544D2D40DDF031BC9E260D27C0A838A157A36B522364013499F9989941B4E1D3F9834329D77D6C963E6C7A228685C6305346AFFACEA8496B448107346152CEB21E40D5F
311
7D8363EFF3CCBCDB23FBCBE721D0DFD153D4DADE3EFB968AE86FB8A0CE619054D430B0C1D23ADA70D5DB231C09C1ED37A69C9C682A19E10E679124F2C50D216A44C260A0C630599A6C301EB821A2D07C1ED20569F4739E1FB332AD38373476C33A0BB6C815AA556D19FB87CABDF57D6460136265D8B0B00EE99792BAE16543
311
91C5019B1A209D94930C21879B66E76C7AE0E8D2E4E97AE5861FEEA2DDC6E4EEF1C34B294A2AB5A10FA8D506AE7D1A94AC4DFE5991331BDC0353F6A07C01F21F91EA7B531037C976F3DDDC9EA22529542A648ED8389E33F2F0E3397EFD6BFEF7FE05936EF3307AA7F044B00D54BF00CFA10FFD58F6E00C8367105EC899756D
311
13138EB271CF0A006448E2708125D4E134DAB9E11A550E5519BB080F7DB80C739FF1379858352814F549BD67012C0FCAE219051AB0D58C84190DF9AD81FB38FD50CEEA83ADD82978DFFC12BA5EAF361F36954C494CEF6D4EAF68CA0AA6D1E2F6BCE91B34C07CE0D1137DF92E6402477FC47BD3C73BB74729A06D3037C0676D
311
4D372FFB930707C4D89709536E829F9C00274C63EDE9BF672AA69C93828AAA3DF7D5FE81B6D1406C92DD30B96B30FBC602D2345F0E72104D3A96AC342076DDAA2B9AE313DE7D5D7F042321CF4544F85E28DA97DE587021B7D1CBB6A94A4791FE36A4B6856062B480ED758EB4E96F31DF262C4D2B851A7804D66FEB653F74A6
311
2AA042B45A9B6499C37DE4169196B3AD5E346B49D04845B165689B48BBA307F4F503514B805AE1298B15E5E996715EE5DB947134A36D4ECA1370FC7FFBA32A2FB7241755A14FE81E988EE630B47D405EF59DE8F8D10D37F5737483D29BD0641FE681B0692547B01A8476B99879B7D3E56AE42D96D3D1DC9F2E46D7B7B38B91
311
F7F6C25B78F38BCBBBB7976D9C1AE561D0769A7E42234AE86C4125990DDFD735D2C7D60037BC275A3DBC6FB2B37D7E5D8F310A0713EC41BBEC365E27CF18FB68F273057BC9A38AD679C9694E0B4D4C0ADD9B3FFC0BC1983130A6595FE724A36768F9F47E73E00C56CED8F7D9A43BFD7EB0D7AE2E4D421E55A21FAB3C2A08E3
311
071BB306C971596416BF3626DDB3E933EDAB79B381C160AA046709CA60E26454E454A3189ED183644E15A8D71FE9137BF53863F77333206A1271DA5AF24830237385B400B5AA580FD79DDF30D399B1EACA45B71D3FE1C7560AD70167AE5CCCE89AC5548D23F4673309D5CAC1A5FE208FB99F1419C7A8DD6CEADEBB5D069B41
311
47EE44CE199FAC5F4D05B70EA08C94181B300F213AB5316150DB66BFC7FFC9F1D61C8768FC8D2ADDF9B25FE89CA98F418A364ED9CB026698277BF40E89FABA5BFEB896192072D625EB5512345A479AC8ACBE2818FBAC49D7ABCF130C28CEFA9353F22A432CCFD734921464AE4C8283456085D559120DAA2EFF7CF82C052EB2
311
B973C74001E7F7DDE2E28F87A5C87351344B0FD7F63AEC6C1E71B94D1E501CA8B995A887A9E74F1FEADB80BDA06C23A2E89824EA090B88AC641DD083F08397CD95117DA8F9D0C94D4C280E18BA5E39B6B1CDA1D4D2A55F5B0D38983B0AEA2087CC8DD2644C5FA07CF54230A9456182C4281FFE0B504B0304140006080000CA
311
6C9440000000000000000000000000350000006662782F33373337413536322D393239322D343646352D424338432D3045323331344646443233452F76657274696365732E62696E504B0304140006080800CA6C9440F270F1330600000004000000360000006662782F33373337413536322D393239322D343646352D4243
311
38432D3045323331344646443233452F747269616E676C65732E62696E636660600000504B0304140006080000CA6C9440000000000000000000000000370000006662782F33373337413536322D393239322D343646352D424338432D3045323331344646443233452F617474726962757465732E62696E504B0304140006
311
080800CA6C9440D5987DFC8F00000041010000360000006662782F33373337413536322D393239322D343646352D424338432D3045323331344646443233452F6469726563746F72792E786D6C858F410EC2201045AF4266AF15DDB800BA74E7C21B903225242D6328188F2FA5C4183471359997F9FF81E89FF3C41E181647
311
5E02DF1F80A11FC8386F25A438EECEC07A250251FC3803E6F58C12560C4AD840E95E91C151A72936F496F35732D860FE635F62C8F2DA16B505C545B74125BAA2FA9E05D7CC053D063734D5C7665FD55B6B8D15D5E9BFEAFD8490FFA45E504B0304140006080800CA6C9440268E0F8BFB000000A00100003B0000006662782F
311
33373337413536322D393239322D343646352D424338432D3045323331344646443233452F7265736F75726365732F636F72652E786D6C8D504B6E833010BD0A9ABDC1189450641C41434FD00B586642AD041BF953F5F835814AEDAE9B99D1FB689E1EBF7C2D8FEC139DD7D67450E6143234CA4EDACC1DC470230D6417C19D
311
B5E1970C322317EC608341F0D9D9B81E90B226A009093576C20394DE63804C3DD2D181571FB8C85CC69014FE9EAF52DDE58C7999273AE904F7C1A500D9FE649B201C7A1B9D42CF8B9D153C463D1D1A3DA59FFAA6D18118587DAE87B781F45746493D5CC774BDF4643CB3FE54B3B17E65275E6C66C1835E7E322A8732E00482
311
D192115A1346DFCBAAAD9A969584362DA5BCD8E47F4C719DFE698ADA848A1D71779B0751A6204F42F062EB2BAD6799696FDD8A6F504B010214000A0000080000CA6C94403DEE336E79000000790000001B00000000000000000000000000000000006175746F6465736B2D64657369676E2D7061636B6167652E786D6C504B
311
01021400140006080800CA6C9440D486FD9CA0000000F40000001300000000000000000000000000B20000005B436F6E74656E745F54797065735D2E786D6C504B01021400140006080800CA6C944035252113E90000007C010000080000000000000000000000000083010000636F72652E786D6C504B0102140014000608
311
0800CA6C944055019EA25F0000007C000000070000000000000000000000000092020000636E782E786D6C504B01021400140006080800CA6C94403B5B377265010000020300000C00000000000000000000000000160300006662782F636F72652E786D6C504B01021400140006080800CA6C9440A35F3D877E0000009D00
311
00000B00000000000000000000000000A50400006662782F636E782E786D6C504B01021400140006080800CA6C94408FE1B98B2C0100001502000031000000000000000000000000004C0500006662782F33373337413536322D393239322D343646352D424338432D3045323331344646443233452F636F72652E786D6C50
311
4B01021400140006080800CA6C944053B510F84C010000330300003000000000000000000000000000C70600006662782F33373337413536322D393239322D343646352D424338432D3045323331344646443233452F636E782E786D6C504B01021400140006080800CA6C94406D736593A505000080100000340000000000
311
0000000000000000610800006662782F33373337413536322D393239322D343646352D424338432D3045323331344646443233452F6F626A656374732E786D6C504B01021400140006080000CA6C94400000000000000000000000003500000000000000000000000000580E00006662782F33373337413536322D39323932
311
2D343646352D424338432D3045323331344646443233452F76657274696365732E62696E504B01021400140006080800CA6C9440F270F13306000000040000003600000000000000000000000000AB0E00006662782F33373337413536322D393239322D343646352D424338432D3045323331344646443233452F74726961
311
6E676C65732E62696E504B01021400140006080000CA6C94400000000000000000000000003700000000000000000000000000050F00006662782F33373337413536322D393239322D343646352D424338432D3045323331344646443233452F617474726962757465732E62696E504B01021400140006080800CA6C9440D5
311
987DFC8F0000004101000036000000000000000000000000005A0F00006662782F33373337413536322D393239322D343646352D424338432D3045323331344646443233452F6469726563746F72792E786D6C504B01021400140006080800CA6C9440268E0F8BFB000000A00100003B000000000000000000000000003D10
311
00006662782F33373337413536322D393239322D343646352D424338432D3045323331344646443233452F7265736F75726365732F636F72652E786D6C504B0506000000000E000E0080040000911100000000
310
504B03040A0000080000CA6C94403DEE336E79000000790000001B0000006175746F6465736B2D64657369676E2D7061636B6167652E786D6C3C3F786D6C2076657273696F6E3D22312E302220656E636F64696E673D227574662D3822203F3E3C666F726D6174733E3C666F726D61743E687474703A2F2F736368656D612E
310
6175746F6465736B2E636F6D2F64657369676E2D7061636B6167652F323030393C2F666F726D61743E3C2F666F726D6174733E504B0304140006080800CA6C9440D486FD9CA0000000F4000000130000005B436F6E74656E745F54797065735D2E786D6C7D8EC10E82300C865F65E91D8A1E8C310C0EEA1BF002731658846E
310
D98AC1B77784ABF1D8FE5FBFBF75BBCE937A534CCEB38643598122B6FEE978D0B0485F9C41B54DDD7D022595594E1A469170414C76A4D9A4D207E29CF43ECE46F218070CC6BECC4078ACAA135ACF422C856C0E68EA1BF5669944DDD7BCDE7B1F8E415D77AECB980613C2E4AC91FC167A2B244592486606FC29C8FD7F045B9A
310
EF7053A7E60B504B0304140006080800CA6C9440ED40DF74EA0000007C01000008000000636F72652E786D6C8D904D6EC3201085AF82668F0DD8F29F3091E2B427E8051010172506CB40D5E317278ED4EEBA9AD19BF7CD8C1E3F7D2F77F465B660BD1B8116049071CA6BEBE61152BCE20ED049F0CDFBF8CB06C8C9C58CB0CB
310
20F8BCF9B41E92F22E1A17B3EABC36872843301190BAE76684A03ECD220B996276845BB14A7593B329E8ABCB704A56A3E711ABF33E7BB56603515FA6BA699B0EF7E796E1BAAF7ADCBF350CB7E7CB7BDDF56C9AA696973B2C78B4CBEBBEDA8C8C46836084324C6ACCC807AD86AA1B18C5A41B08E1E56EFF03A555FF134AD6C5
310
8A1DEF3EB10082E6471E03C1CB3D8B5C1E41E5BAE7267E00504B0304140006080800CA6C944055019EA25F0000007C00000007000000636E782E786D6C4DCB3B0E80201045D1AD90E915ED2CF8AC45050C11660C8261F98AB1B07AC9C97D42D718D865D3E909258CFD00CCE24AC6E326A164D74DC0B4128928FF326038472B
310
A13128B1252AC747C6BAB984FC68F0B87FE8960A5C09FE86CFB69FBA01504B0304140006080800CA6C944093F9242866010000020300000C0000006662782F636F72652E786D6C8D52ED8E8320107C15C27F44D1546D9026B5774F702F40957AA60A06C1F4F16FFD687ABD34CDC504C9CCCEEEEC283FDCFA0E4DCA8EADD105
310
8E821023A52B53B7BA29B0771792617410DC1AE37E9561A465AF0A3CC358F0C61A3F6C5065B453DA01AA4DAD36508EA37218551D5C0A3C56DFAA9781F40E2AC66B30C8EA2A1B154401D05027F8E82C1840EB90F9C4E272BE71BAE2827BDFD61BDBD630ADBDB4CA62919CCA6497EE32921F5346923CCE49FEB163243D9E3E93
310
2C676559A69CCE62C15DDBDFDD555649A76A2C581831122684855F51BC8FB33D8B4898EDC390D3B9FC49E487FA9F22DF6A17B3CDEE2A1BB188C0C842FCD9162272689413F8A182D33944782D093F070D8140C84E9EBBFB1E57802655396313606AE31FD4243BAF606A889687D39585CE4B03D8EC651FF6A6CFFB1EF001A56E
310
C09A74703D7B374FE7EBD42D8A415932B91BD2C6F6B27B985B2D3ECEC7A097F2CA74C6FE474DB755E916269DFF5EF103504B0304140006080800CA6C94407F4B36087E0000009D0000000B0000006662782F636E782E786D6C4DCCD10A83201886E15B91FFDCD57033076AB8B4FB886521990EA76397BF1A1DECE883878F97
310
B79FD5A3B74D2F178380F3A90664C3238E2ECC024A9E3003D44A9E62CC7F37406158AD809D41F239C5F23C68B4D3507CDED4BBB01CD85FBB46375A63D2993BBE989E6075A3356654294AA8A6D430A824AF7EA56DF7B0FC02504B0304140006080800CA6C944079069F872C01000015020000310000006662782F4635433744
310
3744442D334345422D344546332D413936302D3836414136333644363645382F636F72652E786D6C8D51CB6EC32010FC15C4293D6063E31227C244699C7C417FC00192A2C460F1A8F2F985DA91DA5B2E2C9A9D991DEDB2DD63BC836FE5BCB6A683558121504658A9CDB583315C500BC18E33676DF84383C00CA3EA60862167
310
5767E3B440C29AA04C48A8B1522DE0E0BD0A10887BFA74D08B2F350EC5104362F85B310DE2365C555115A99D789CF9E05200300FC92FE4A7F7C3BA5FF73D2287E3076A8E2782F61B8A514BF77B4A684FE9B165E52CE42C462D17B996298EBE68E55E35C962CE821E9FF18553435012F21A5735C20DAAF16745B6A4DDD615C2
310
ED16635666FA3F519CE48BA2A84D20F512779679C82B56CE0DCEA48DE7FB338C7A4CD60590E7ADBC126F90E302E3754BF0A6491B98B96903C994368BA90FD6A50DAF6EE744278B336D382BF39152F9BD60AAF9A0FC07504B0304140006080800CA6C94403512DFEF5301000033030000300000006662782F46354337443744
310
442D334345422D344546332D413936302D3836414136333644363645382F636E782E786D6CBD93CD6EC32010845F0571F7BF15591126520F7D821E7AC5B04968305880ABE6EDBB2424CD25874A552FC89A1D66569F30DB7DCD867C820FDAD99136654D0958E994B68791AE715F0C94EC38F3CEC5071B2556CC30D22453CE0E
310
DEAD4B9614ECC56A22AA46DB53163D04B77A0901E57493182785C100B0C58A22CC1328058ADC8DF8B5078FABA0389D493C02797D79276EFA001903AB520A6755EAE02C9DB9E9C14489342284910679845994628D4E4138954A445136E5ADEBC94E3F49245DB855AE5E93543ED274529E372A9123AB70C859881EE965533C2F
310
40B95816A3A58808B9BA18AF1ECE566DE3A6CF5E8DE03DBABB76330C1876997116F50CD9213D88088AF2B66EDAA2EE8BB67E6BBA6D376CDBA6A8876D5DB32AD9399B9C33F912C680770B91CE46B091F2865569FC0C5FF611A53DB276FEFC0B900820B75EE9DC33FE924FB3E9FAFE1FF95497F78DB83CFE05FC1B504B030414
310
0006080800CA6C94406F4CF63662070000991B0000340000006662782F46354337443744442D334345422D344546332D413936302D3836414136333644363645382F6F626A656374732E786D6CED59DD739B3810FF5718EEE5EEC1186C274D6E0837A9D3743C9DB49DFADAB907CF3032C84417211849A4C9FDF5B7FA000331
310
09BEE6DEFA6003425AEDFEF6534BF8C7434E9D7BCC0529D8851B78BEEB6096142961D9855BC9DDE4CC75FE88425E14B235CD7518CAF185AB86DD28CC7851957628C53B5451D91BBD7EFB972312CCB0EB24140971E18AE416E7C843952C522CEEBC1449E465BB072FF0CCC42ED98CA3F2B647B4441C33099CC238032A8E612A
310
E83EFAEE340AA7EA7D14AA7F3B6B3E6AD66278D6544BDDE5923021114B9EB0D423331FC5D23C585CBD9B9D9C4F4E168BF964713A0B266FAFDF5E4D8237737F79BA5C9E5FBE3B07F6B64541AD4C292E314B417F8F6E148453F5A611DD227088EBA4600C271A48804A8BD52748B080AD5AF0F9DDC74049D47AAD256C3D2FD47B
310
CB426B78DEA532346B1C101DBA2088DDAE96B8BEB6E52BB67F83E0628C51728125702B2407ED5A783878851BF9E1D48C46E176AF0B229C1C49CC09A20E255B8E382805A6AA295168165832CA3938907294045A73E675D7B6C0335F769D435CEE2A4A9567B89176AC18DC0F4BA13923FF60BEE7BE8D0CF004D25684C933CBA5
310
7C2CB11B9D87533D1885EA329FD9970648674751263422E66D4FD0A572FDD5951B7DB8DE3EAC553838BC79C98B1273A98C4EE951F305866CAF0A25BB6D304A736A01086340B52BF7A07C01E43F42F4D8B3027AE3E461F1B0B07325474CEC0A9E836E1CDF99F8F0E73B81FE57F7ADBB70DA2CEE6A6F084F705305D5D98FE3D9
310
95416365F96FC11985F760F0059FDB57EB0451B0E71BC2002065240E2D600842FB6EFBE0462B089C10E86115A251002203BBF7701B4E2D99BD566AF7B25EC70051BBC77C8C9200366D91C0C6809EDE43F6E024D9ABA92DE210BC27AF62AE9757EB0FEB8AEF50826FAC4F5FE11D614442D63CCC5007F38E4477F8F17BC15310
310
F429DEEB36DEB9DD4A00DA0A73057C5683A01EF63B773648605D56A87013BEB00308A172758BFE0D1109A614315C54F5BE4D745386DA78BCAD19DC6866209ECF7A26CCF13D51550538CD7E468751C8FB0927A502D18DDE1BC99AA0E90D48F775F5112CB2993F306BC520F43244FFD441EB000E1DCBAE91B64034026FF7E13C
310
2968C1E3ED636C229D0BB504B0D1F5966F1DA210EB8D921415F020ED777548C98CB4714A76BB4A405C3DC0E2B7D5B26D0EBE370F4E9CF67FCF1917106DC17711B77ED7DB232639CA70BC43E9D076EDDD1ADA42931C20CDF18E825CE49EC8C718C9D84F71760C3447113F7F55EA192D84200C0BC85707C16FA3E17B10488C36
310
6B9695567B401311E758227A0C028ACC00B83AEDE81A3781D2E1651E1BEB7D4E636DA2FF93457004B564C16202A528E49017190FBC1388215D740DCA3D7CC1DA6ADA5A0C5A4109913CC6DF31C96EE531A81BF203B8277024A9645C942801B31E41F689AF28A5F678DFA2E44EE58F38A9E86B1988C07417134AAB3C861F6170
310
F218E3DA4D607A1685167113FB24CEA12843B2E26336393DF19FEC636A867E086C6DB42314C2769CA37200F54E40D4F588D3806FA90F28755BE5658CF2A262A30CC59BF7BDC992EFAB55911DC9AF2A15A16CAC095B825148986CB26A1DB3C1D475600537D281EA3116282FA93985BD907882C69B34E5C10DB8F5D3D7DD2087
310
C26F407BED88BAA861B03C760A03F11DC9E4D68DD6FA3A790BF5778AD37DAAAF6BCD76050888A9485E716255F47505E58DADD1DCE80649B1796FB26E7DFDBAF2A0FB114E610DD42ECDC295023AC74C225599DCA81BFA054108EED030E32B95538FA17299A6BA6A44F49A0CA9B353467436CD8957DE6256E4F0631BC2125AA5
310
7883527117DF481AAF8962DD4AE9E5A4C6F859013FBD5FF7E0819111227D56051EFEDE5B6B4797AA5C3A4844DE56F996210241B0235A6674E3952CB31AA9B5DC5CD59902EA2E3030ABE2C5CF9345BB1DF1F3649159C3F8B193052DB688EEA34D2B9B27CAAC8F3A0534E94951798D5380EE3A34549B246272B915DFFA520C31
310
B10EF2A38BB13A661882431CFFE7A43D9404CD763DFE8F4BDAC19382E3A8A4D299AC9A54070AD7553B852DCFE6FEBBD9F26AE29F2D679345303B9B5CBE9B9F4EFC37A7FE99BF383DBF7E73DEA0A9FD340A9B58A653173C9B98560FAB278B0134654541490A87F9D4C930847C0947FA11DD739E6301B9B3DDEB4E6D4F7EC4EA
310
7BD3E694684B71CDC92D82FE301590D501A32A91DD71E717E84C4A38675FB8D033F2EEE0CF5AA5EB40E2B970A15320498285B7852E93EAE769E2907175EAB7C4001FC4329511CDA2E6B959A5B0E944FF66CA982C60E5EAB430A06E2BA1F9D5695068DE2C4FC95182D7EC3848C2EDB69250AC1959F6038D307A9BBDFA8D6C94
310
B03BBBF503B8EEF362059E9ED34164D41783678DC0509D48C433DDEE568C59962EAF3E4FA1CDE6AC3E3925AD32D0E5784A138EC1982B554F81158155589A259260AACBDF379F79015F7872471745CEAF0F67A7BF6D96459E17CC0C6D2EE15096C27722677D0B5F7DD20DD40E58F5D6C566E607B38DEE69DB367BBC45027BAA
310
288281BA965082F44C0EECF2497FCA762FA74A15BDE9AB2BC70651E805183B7AD2E235DFB81CF021F53545798CF6F35ADA67DBDA533D156C8243433AFA17504B0304140006080000CA6C9440000000000000000000000000350000006662782F46354337443744442D334345422D344546332D413936302D38364141363336
310
44363645382F76657274696365732E62696E504B0304140006080800CA6C9440F270F1330600000004000000360000006662782F46354337443744442D334345422D344546332D413936302D3836414136333644363645382F747269616E676C65732E62696E636660600000504B0304140006080000CA6C94400000000000
310
00000000000000370000006662782F46354337443744442D334345422D344546332D413936302D3836414136333644363645382F617474726962757465732E62696E504B0304140006080800CA6C9440D5987DFC8F00000041010000360000006662782F46354337443744442D334345422D344546332D413936302D383641
310
4136333644363645382F6469726563746F72792E786D6C858F410EC2201045AF4266AF15DDB800BA74E7C21B903225242D6328188F2FA5C4183471359997F9FF81E89FF3C41E1816475E02DF1F80A11FC8386F25A438EECEC07A250251FC3803E6F58C12560C4AD840E95E91C151A72936F496F35732D860FE635F62C8F2DA
310
16B505C545B74125BAA2FA9E05D7CC053D063734D5C7665FD55B6B8D15D5E9BFEAFD8490FFA45E504B0304140006080800CA6C94401D214B04FC000000A00100003B0000006662782F46354337443744442D334345422D344546332D413936302D3836414136333644363645382F7265736F75726365732F636F72652E786D
310
6C8D50596E833010BD0A9A7F8331884DC69142DA13F40296992456828DBC543D7E4DA052FBD79F99D15B344F8F9FBE9667F689CE6B6B4628730A191A65676D6E23C470251D6427C19DB5E1970C3223171C618341F09BB3713D20654D4013126AEC8C0728BDC700997AA66304AFEEB8C85CC69014FE91AF523DE40DF3324F74
310
D209EE834B01B2FDC9364138F4363A859E173B2B788C7A3E347A4E3FF555A303515FA6BA699B96F4E79691BAAF7AD2BF358CB4E7CB7BDDF56C9AA696179B59F0A0979F8CCAA10C388360B46484D684D18FB21AAA6E6025A1DD40292F36F91F535CE77F9AA236A16247DCDDE6419429C88B10BCD8FA4AEB5566DA5BB7E21B50
310
4B010214000A0000080000CA6C94403DEE336E79000000790000001B00000000000000000000000000000000006175746F6465736B2D64657369676E2D7061636B6167652E786D6C504B01021400140006080800CA6C9440D486FD9CA0000000F40000001300000000000000000000000000B20000005B436F6E74656E745F
310
54797065735D2E786D6C504B01021400140006080800CA6C9440ED40DF74EA0000007C010000080000000000000000000000000083010000636F72652E786D6C504B01021400140006080800CA6C944055019EA25F0000007C000000070000000000000000000000000093020000636E782E786D6C504B0102140014000608
310
0800CA6C944093F9242866010000020300000C00000000000000000000000000170300006662782F636F72652E786D6C504B01021400140006080800CA6C94407F4B36087E0000009D0000000B00000000000000000000000000A70400006662782F636E782E786D6C504B01021400140006080800CA6C944079069F872C01
310
00001502000031000000000000000000000000004E0500006662782F46354337443744442D334345422D344546332D413936302D3836414136333644363645382F636F72652E786D6C504B01021400140006080800CA6C94403512DFEF53010000330300003000000000000000000000000000C90600006662782F46354337
310
443744442D334345422D344546332D413936302D3836414136333644363645382F636E782E786D6C504B01021400140006080800CA6C94406F4CF63662070000991B000034000000000000000000000000006A0800006662782F46354337443744442D334345422D344546332D413936302D3836414136333644363645382F
310
6F626A656374732E786D6C504B01021400140006080000CA6C944000000000000000000000000035000000000000000000000000001E1000006662782F46354337443744442D334345422D344546332D413936302D3836414136333644363645382F76657274696365732E62696E504B01021400140006080800CA6C9440F2
310
70F13306000000040000003600000000000000000000000000711000006662782F46354337443744442D334345422D344546332D413936302D3836414136333644363645382F747269616E676C65732E62696E504B01021400140006080000CA6C94400000000000000000000000003700000000000000000000000000CB10
310
00006662782F46354337443744442D334345422D344546332D413936302D3836414136333644363645382F617474726962757465732E62696E504B01021400140006080800CA6C9440D5987DFC8F000000410100003600000000000000000000000000201100006662782F46354337443744442D334345422D344546332D41
310
3936302D3836414136333644363645382F6469726563746F72792E786D6C504B01021400140006080800CA6C94401D214B04FC000000A00100003B00000000000000000000000000031200006662782F46354337443744442D334345422D344546332D413936302D3836414136333644363645382F7265736F75726365732F
310
636F72652E786D6C504B0506000000000E000E0080040000581300000000
  0
XRECORD
  5
27
102
{ACAD_REACTORS
330
22
102
}
330
22
100
AcDbXrecord
280
     1
270
     1
271
     1
  0
XRECORD
  5
26
102
{ACAD_REACTORS
330
22
102
}
330
22
100
AcDbXrecord
280
     1
270
     1
271
     1
  0
XRECORD
  5
28
102
{ACAD_REACTORS
330
22
102
}
330
22
100
AcDbXrecord
280
     1
270
     1
271
     1
  0
XRECORD
  5
25
102
{ACAD_REACTORS
330
22
102
}
330
22
100
AcDbXrecord
280
     1
270
     1
271
     1
  0
XRECORD
  5
27E
102
{ACAD_REACTORS
330
27D
102
}
330
27D
100
AcDbXrecord
280
     1
102
ACAD_ROUNDTRIP_2012_MLEADER_STYLE
298
     1
  0
CELLSTYLEMAP
  5
27C
102
{ACAD_REACTORS
330
228
102
}
330
228
100
AcDbCellStyleMap
 90
        3
300
CELLSTYLE
  1
TABLEFORMAT_BEGIN
 90
        5
170
     1
 91
        0
 92
    32768
 62
   257
 93
        1
300
CONTENTFORMAT
  1
CONTENTFORMAT_BEGIN
 90
        0
 91
        0
 92
      512
 93
        0
300

 40
0.0
140
1.0
 94
        5
 62
     0
340
55
144
0.25
309
CONTENTFORMAT_END
171
     0
 94
        0
309
TABLEFORMAT_END
  1
CELLSTYLE_BEGIN
 90
        1
 91
        1
300
_TITLE
309
CELLSTYLE_END
300
CELLSTYLE
  1
TABLEFORMAT_BEGIN
 90
        5
170
     1
 91
        0
 92
        0
 62
   257
 93
        1
300
CONTENTFORMAT
  1
CONTENTFORMAT_BEGIN
 90
        0
 91
        0
 92
      512
 93
        0
300

 40
0.0
140
1.0
 94
        5
 62
     0
340
55
144
0.18
309
CONTENTFORMAT_END
171
     0
 94
        0
309
TABLEFORMAT_END
  1
CELLSTYLE_BEGIN
 90
        2
 91
        1
300
_HEADER
309
CELLSTYLE_END
300
CELLSTYLE
  1
TABLEFORMAT_BEGIN
 90
        5
170
     1
 91
        0
 92
        0
 62
   257
 93
        1
300
CONTENTFORMAT
  1
CONTENTFORMAT_BEGIN
 90
        0
 91
        0
 92
      512
 93
        0
300

 40
0.0
140
1.0
 94
        2
 62
     0
340
55
144
0.18
309
CONTENTFORMAT_END
171
     0
 94
        0
309
TABLEFORMAT_END
  1
CELLSTYLE_BEGIN
 90
        3
 91
        2
300
_DATA
309
CELLSTYLE_END
  0
XRECORD
  5
2B4
102
{ACAD_REACTORS
330
228
102
}
330
228
100
AcDbXrecord
280
     1
102
ACAD_ROUNDTRIP_PRE2007_TABLESTYLE
 90
      512
 91
        0
  1

 92
      512
 93
        0
  2

 94
      512
 95
        0
  3

  0
XRECORD
  5
28F
102
{ACAD_REACTORS
330
28E
102
}
330
28E
100
AcDbXrecord
280
     1
102
RTVSPropertyOp0
 70
     1
102
RTVSPropertyOp1
 70
     1
102
RTVSPropertyOp2
 70
     1
102
RTVSPropertyOp3
 70
     1
102
RTVSPropertyOp4
 70
     1
102
RTVSPropertyOp5
 70
     1
102
RTVSPropertyOp6
 70
     1
102
RTVSPropertyOp7
 70
     1
102
RTVSPropertyOp8
 70
     1
102
RTVSPropertyOp9
 70
     1
102
RTVSPropertyOp10
 70
     1
102
RTVSPropertyOp11
 70
     1
102
RTVSPropertyOp12
 70
     1
102
RTVSPropertyOp13
 70
     1
102
RTVSPropertyOp14
 70
     1
102
RTVSPropertyOp15
 70
     1
102
RTVSPropertyOp16
 70
     1
102
RTVSPropertyOp17
 70
     1
102
RTVSPropertyOp18
 70
     1
102
RTVSPropertyOp19
 70
     1
102
RTVSPropertyOp20
 70
     1
102
RTVSPropertyOp21
 70
     1
102
RTVSPropertyOp22
 70
     1
102
RTVSPropertyOp23
 70
     1
102
RTVSPropertyOp24
 70
     1
102
RTVSPropertyOp25
 70
     1
102
RTVSPropertyOp26
 70
     1
102
RTVSPropertyOp27
 70
     1
102
RTVSPropertyOp28
 70
     1
102
RTVSPropertyOp29
 70
     1
102
RTVSPropertyOp30
 70
     1
102
RTVSPropertyOp31
 70
     1
102
RTVSPropertyOp32
 70
     1
  0
XRECORD
  5
28D
102
{ACAD_REACTORS
330
28C
102
}
330
28C
100
AcDbXrecord
280
     1
102
RTVSPropertyOp0
 70
     1
102
RTVSPropertyOp1
 70
     1
102
RTVSPropertyOp2
 70
     1
102
RTVSPropertyOp3
 70
     1
102
RTVSPropertyOp4
 70
     1
102
RTVSPropertyOp5
 70
     1
102
RTVSPropertyOp6
 70
     1
102
RTVSPropertyOp7
 70
     1
102
RTVSPropertyOp8
 70
     1
102
RTVSPropertyOp9
 70
     1
102
RTVSPropertyOp10
 70
     1
102
RTVSPropertyOp11
 70
     1
102
RTVSPropertyOp12
 70
     1
102
RTVSPropertyOp13
 70
     1
102
RTVSPropertyOp14
 70
     1
102
RTVSPropertyOp15
 70
     1
102
RTVSPropertyOp16
 70
     1
102
RTVSPropertyOp17
 70
     1
102
RTVSPropertyOp18
 70
     1
102
RTVSPropertyOp19
 70
     1
102
RTVSPropertyOp20
 70
     1
102
RTVSPropertyOp21
 70
     1
102
RTVSPropertyOp22
 70
     1
102
RTVSPropertyOp23
 70
     1
102
RTVSPropertyOp24
 70
     1
102
RTVSPropertyOp25
 70
     1
102
RTVSPropertyOp26
 70
     1
102
RTVSPropertyOp27
 70
     1
102
RTVSPropertyOp28
 70
     1
102
RTVSPropertyOp29
 70
     1
102
RTVSPropertyOp30
 70
     1
102
RTVSPropertyOp31
 70
     1
102
RTVSPropertyOp32
 70
     1
  0
XRECORD
  5
29B
102
{ACAD_REACTORS
330
29A
102
}
330
29A
100
AcDbXrecord
280
     1
102
RTVSPropertyOp0
 70
     1
102
RTVSPropertyOp1
 70
     1
102
RTVSPropertyOp2
 70
     1
102
RTVSPropertyOp3
 70
     1
102
RTVSPropertyOp4
 70
     1
102
RTVSPropertyOp5
 70
     1
102
RTVSPropertyOp6
 70
     1
102
RTVSPropertyOp7
 70
     1
102
RTVSPropertyOp8
 70
     1
102
RTVSPropertyOp9
 70
     1
102
RTVSPropertyOp10
 70
     1
102
RTVSPropertyOp11
 70
     1
102
RTVSPropertyOp12
 70
     1
102
RTVSPropertyOp13
 70
     1
102
RTVSPropertyOp14
 70
     1
102
RTVSPropertyOp15
 70
     1
102
RTVSPropertyOp16
 70
     1
102
RTVSPropertyOp17
 70
     1
102
RTVSPropertyOp18
 70
     1
102
RTVSPropertyOp19
 70
     1
102
RTVSPropertyOp20
 70
     1
102
RTVSPropertyOp21
 70
     1
102
RTVSPropertyOp22
 70
     1
102
RTVSPropertyOp23
 70
     1
102
RTVSPropertyOp24
 70
     1
102
RTVSPropertyOp25
 70
     1
102
RTVSPropertyOp26
 70
     1
102
RTVSPropertyOp27
 70
     1
102
RTVSPropertyOp28
 70
     1
102
RTVSPropertyOp29
 70
     1
102
RTVSPropertyOp30
 70
     1
102
RTVSPropertyOp31
 70
     1
102
RTVSPropertyOp32
 70
     1
  0
XRECORD
  5
2A3
102
{ACAD_REACTORS
330
2A2
102
}
330
2A2
100
AcDbXrecord
280
     1
102
RTVSPropertyOp0
 70
     1
102
RTVSPropertyOp1
 70
     1
102
RTVSPropertyOp2
 70
     1
102
RTVSPropertyOp3
 70
     1
102
RTVSPropertyOp4
 70
     1
102
RTVSPropertyOp5
 70
     1
102
RTVSPropertyOp6
 70
     1
102
RTVSPropertyOp7
 70
     1
102
RTVSPropertyOp8
 70
     1
102
RTVSPropertyOp9
 70
     1
102
RTVSPropertyOp10
 70
     1
102
RTVSPropertyOp11
 70
     1
102
RTVSPropertyOp12
 70
     1
102
RTVSPropertyOp13
 70
     1
102
RTVSPropertyOp14
 70
     1
102
RTVSPropertyOp15
 70
     1
102
RTVSPropertyOp16
 70
     1
102
RTVSPropertyOp17
 70
     1
102
RTVSPropertyOp18
 70
     1
102
RTVSPropertyOp19
 70
     1
102
RTVSPropertyOp20
 70
     1
102
RTVSPropertyOp21
 70
     1
102
RTVSPropertyOp22
 70
     1
102
RTVSPropertyOp23
 70
     1
102
RTVSPropertyOp24
 70
     1
102
RTVSPropertyOp25
 70
     1
102
RTVSPropertyOp26
 70
     1
102
RTVSPropertyOp27
 70
     1
102
RTVSPropertyOp28
 70
     1
102
RTVSPropertyOp29
 70
     1
102
RTVSPropertyOp30
 70
     1
102
RTVSPropertyOp31
 70
     1
102
RTVSPropertyOp32
 70
     1
  0
XRECORD
  5
295
102
{ACAD_REACTORS
330
294
102
}
330
294
100
AcDbXrecord
280
     1
102
RTVSPropertyOp0
 70
     1
102
RTVSPropertyOp1
 70
     1
102
RTVSPropertyOp2
 70
     1
102
RTVSPropertyOp3
 70
     1
102
RTVSPropertyOp4
 70
     1
102
RTVSPropertyOp5
 70
     1
102
RTVSPropertyOp6
 70
     1
102
RTVSPropertyOp7
 70
     1
102
RTVSPropertyOp8
 70
     1
102
RTVSPropertyOp9
 70
     1
102
RTVSPropertyOp10
 70
     1
102
RTVSPropertyOp11
 70
     1
102
RTVSPropertyOp12
 70
     1
102
RTVSPropertyOp13
 70
     1
102
RTVSPropertyOp14
 70
     1
102
RTVSPropertyOp15
 70
     1
102
RTVSPropertyOp16
 70
     1
102
RTVSPropertyOp17
 70
     1
102
RTVSPropertyOp18
 70
     1
102
RTVSPropertyOp19
 70
     1
102
RTVSPropertyOp20
 70
     1
102
RTVSPropertyOp21
 70
     1
102
RTVSPropertyOp22
 70
     1
102
RTVSPropertyOp23
 70
     1
102
RTVSPropertyOp24
 70
     1
102
RTVSPropertyOp25
 70
     1
102
RTVSPropertyOp26
 70
     1
102
RTVSPropertyOp27
 70
     1
102
RTVSPropertyOp28
 70
     1
102
RTVSPropertyOp29
 70
     1
102
RTVSPropertyOp30
 70
     1
102
RTVSPropertyOp31
 70
     1
102
RTVSPropertyOp32
 70
     1
  0
XRECORD
  5
299
102
{ACAD_REACTORS
330
298
102
}
330
298
100
AcDbXrecord
280
     1
102
RTVSPropertyOp0
 70
     1
102
RTVSPropertyOp1
 70
     1
102
RTVSPropertyOp2
 70
     1
102
RTVSPropertyOp3
 70
     1
102
RTVSPropertyOp4
 70
     1
102
RTVSPropertyOp5
 70
     1
102
RTVSPropertyOp6
 70
     1
102
RTVSPropertyOp7
 70
     1
102
RTVSPropertyOp8
 70
     1
102
RTVSPropertyOp9
 70
     1
102
RTVSPropertyOp10
 70
     1
102
RTVSPropertyOp11
 70
     1
102
RTVSPropertyOp12
 70
     1
102
RTVSPropertyOp13
 70
     1
102
RTVSPropertyOp14
 70
     1
102
RTVSPropertyOp15
 70
     1
102
RTVSPropertyOp16
 70
     1
102
RTVSPropertyOp17
 70
     1
102
RTVSPropertyOp18
 70
     1
102
RTVSPropertyOp19
 70
     1
102
RTVSPropertyOp20
 70
     1
102
RTVSPropertyOp21
 70
     1
102
RTVSPropertyOp22
 70
     1
102
RTVSPropertyOp23
 70
     1
102
RTVSPropertyOp24
 70
     1
102
RTVSPropertyOp25
 70
     1
102
RTVSPropertyOp26
 70
     1
102
RTVSPropertyOp27
 70
     1
102
RTVSPropertyOp28
 70
     1
102
RTVSPropertyOp29
 70
     1
102
RTVSPropertyOp30
 70
     1
102
RTVSPropertyOp31
 70
     1
102
RTVSPropertyOp32
 70
     1
  0
XRECORD
  5
2B3
102
{ACAD_REACTORS
330
2B2
102
}
330
2B2
100
AcDbXrecord
280
     1
102
RTVSPropertyOp0
 70
     0
102
RTVSPropertyOp1
 70
     0
102
RTVSPropertyOp2
 70
     0
102
RTVSPropertyOp3
 70
     0
102
RTVSPropertyOp4
 70
     0
102
RTVSPropertyOp5
 70
     0
102
RTVSPropertyOp6
 70
     0
102
RTVSPropertyOp7
 70
     0
102
RTVSPropertyOp8
 70
     0
102
RTVSPropertyOp9
 70
     0
102
RTVSPropertyOp10
 70
     0
102
RTVSPropertyOp11
 70
     0
102
RTVSPropertyOp12
 70
     0
102
RTVSPropertyOp13
 70
     0
102
RTVSPropertyOp14
 70
     2
102
RTVSPropertyOp15
 70
     0
102
RTVSPropertyOp16
 70
     0
102
RTVSPropertyOp17
 70
     0
102
RTVSPropertyOp18
 70
     0
102
RTVSPropertyOp19
 70
     0
102
RTVSPropertyOp20
 70
     0
102
RTVSPropertyOp21
 70
     0
102
RTVSPropertyOp22
 70
     0
102
RTVSPropertyOp23
 70
     0
102
RTVSPropertyOp24
 70
     0
102
RTVSPropertyOp25
 70
     0
102
RTVSPropertyOp26
 70
     0
102
RTVSPropertyOp27
 70
     0
102
RTVSPropertyOp28
 70
     1
102
RTVSPropertyOp29
 70
     1
102
RTVSPropertyOp30
 70
     1
102
RTVSPropertyOp31
 70
     1
102
RTVSPropertyOp32
 70
     1
  0
XRECORD
  5
2A1
102
{ACAD_REACTORS
330
2A0
102
}
330
2A0
100
AcDbXrecord
280
     1
102
RTVSPropertyOp0
 70
     1
102
RTVSPropertyOp1
 70
     1
102
RTVSPropertyOp2
 70
     1
102
RTVSPropertyOp3
 70
     1
102
RTVSPropertyOp4
 70
     1
102
RTVSPropertyOp5
 70
     1
102
RTVSPropertyOp6
 70
     1
102
RTVSPropertyOp7
 70
     1
102
RTVSPropertyOp8
 70
     1
102
RTVSPropertyOp9
 70
     1
102
RTVSPropertyOp10
 70
     1
102
RTVSPropertyOp11
 70
     1
102
RTVSPropertyOp12
 70
     1
102
RTVSPropertyOp13
 70
     1
102
RTVSPropertyOp14
 70
     1
102
RTVSPropertyOp15
 70
     1
102
RTVSPropertyOp16
 70
     1
102
RTVSPropertyOp17
 70
     1
102
RTVSPropertyOp18
 70
     1
102
RTVSPropertyOp19
 70
     1
102
RTVSPropertyOp20
 70
     1
102
RTVSPropertyOp21
 70
     1
102
RTVSPropertyOp22
 70
     1
102
RTVSPropertyOp23
 70
     1
102
RTVSPropertyOp24
 70
     1
102
RTVSPropertyOp25
 70
     1
102
RTVSPropertyOp26
 70
     1
102
RTVSPropertyOp27
 70
     1
102
RTVSPropertyOp28
 70
     1
102
RTVSPropertyOp29
 70
     1
102
RTVSPropertyOp30
 70
     1
102
RTVSPropertyOp31
 70
     1
102
RTVSPropertyOp32
 70
     1
  0
XRECORD
  5
285
102
{ACAD_REACTORS
330
284
102
}
330
284
100
AcDbXrecord
280
     1
102
RTVSPropertyOp0
 70
     1
102
RTVSPropertyOp1
 70
     1
102
RTVSPropertyOp2
 70
     1
102
RTVSPropertyOp3
 70
     1
102
RTVSPropertyOp4
 70
     1
102
RTVSPropertyOp5
 70
     1
102
RTVSPropertyOp6
 70
     1
102
RTVSPropertyOp7
 70
     1
102
RTVSPropertyOp8
 70
     1
102
RTVSPropertyOp9
 70
     1
102
RTVSPropertyOp10
 70
     1
102
RTVSPropertyOp11
 70
     1
102
RTVSPropertyOp12
 70
     1
102
RTVSPropertyOp13
 70
     1
102
RTVSPropertyOp14
 70
     1
102
RTVSPropertyOp15
 70
     1
102
RTVSPropertyOp16
 70
     1
102
RTVSPropertyOp17
 70
     1
102
RTVSPropertyOp18
 70
     1
102
RTVSPropertyOp19
 70
     1
102
RTVSPropertyOp20
 70
     1
102
RTVSPropertyOp21
 70
     1
102
RTVSPropertyOp22
 70
     1
102
RTVSPropertyOp23
 70
     1
102
RTVSPropertyOp24
 70
     1
102
RTVSPropertyOp25
 70
     1
102
RTVSPropertyOp26
 70
     1
102
RTVSPropertyOp27
 70
     1
102
RTVSPropertyOp28
 70
     1
102
RTVSPropertyOp29
 70
     1
102
RTVSPropertyOp30
 70
     1
102
RTVSPropertyOp31
 70
     1
102
RTVSPropertyOp32
 70
     1
  0
XRECORD
  5
287
102
{ACAD_REACTORS
330
286
102
}
330
286
100
AcDbXrecord
280
     1
102
RTVSPropertyOp0
 70
     1
102
RTVSPropertyOp1
 70
     1
102
RTVSPropertyOp2
 70
     1
102
RTVSPropertyOp3
 70
     1
102
RTVSPropertyOp4
 70
     1
102
RTVSPropertyOp5
 70
     1
102
RTVSPropertyOp6
 70
     1
102
RTVSPropertyOp7
 70
     1
102
RTVSPropertyOp8
 70
     1
102
RTVSPropertyOp9
 70
     1
102
RTVSPropertyOp10
 70
     1
102
RTVSPropertyOp11
 70
     1
102
RTVSPropertyOp12
 70
     1
102
RTVSPropertyOp13
 70
     1
102
RTVSPropertyOp14
 70
     1
102
RTVSPropertyOp15
 70
     1
102
RTVSPropertyOp16
 70
     1
102
RTVSPropertyOp17
 70
     1
102
RTVSPropertyOp18
 70
     1
102
RTVSPropertyOp19
 70
     1
102
RTVSPropertyOp20
 70
     1
102
RTVSPropertyOp21
 70
     1
102
RTVSPropertyOp22
 70
     1
102
RTVSPropertyOp23
 70
     1
102
RTVSPropertyOp24
 70
     1
102
RTVSPropertyOp25
 70
     1
102
RTVSPropertyOp26
 70
     1
102
RTVSPropertyOp27
 70
     1
102
RTVSPropertyOp28
 70
     1
102
RTVSPropertyOp29
 70
     1
102
RTVSPropertyOp30
 70
     1
102
RTVSPropertyOp31
 70
     1
102
RTVSPropertyOp32
 70
     1
  0
XRECORD
  5
289
102
{ACAD_REACTORS
330
288
102
}
330
288
100
AcDbXrecord
280
     1
102
RTVSPropertyOp0
 70
     1
102
RTVSPropertyOp1
 70
     1
102
RTVSPropertyOp2
 70
     1
102
RTVSPropertyOp3
 70
     1
102
RTVSPropertyOp4
 70
     1
102
RTVSPropertyOp5
 70
     1
102
RTVSPropertyOp6
 70
     1
102
RTVSPropertyOp7
 70
     1
102
RTVSPropertyOp8
 70
     1
102
RTVSPropertyOp9
 70
     1
102
RTVSPropertyOp10
 70
     1
102
RTVSPropertyOp11
 70
     1
102
RTVSPropertyOp12
 70
     1
102
RTVSPropertyOp13
 70
     1
102
RTVSPropertyOp14
 70
     1
102
RTVSPropertyOp15
 70
     1
102
RTVSPropertyOp16
 70
     1
102
RTVSPropertyOp17
 70
     1
102
RTVSPropertyOp18
 70
     1
102
RTVSPropertyOp19
 70
     1
102
RTVSPropertyOp20
 70
     1
102
RTVSPropertyOp21
 70
     1
102
RTVSPropertyOp22
 70
     1
102
RTVSPropertyOp23
 70
     1
102
RTVSPropertyOp24
 70
     1
102
RTVSPropertyOp25
 70
     1
102
RTVSPropertyOp26
 70
     1
102
RTVSPropertyOp27
 70
     1
102
RTVSPropertyOp28
 70
     1
102
RTVSPropertyOp29
 70
     1
102
RTVSPropertyOp30
 70
     1
102
RTVSPropertyOp31
 70
     1
102
RTVSPropertyOp32
 70
     1
  0
XRECORD
  5
28B
102
{ACAD_REACTORS
330
28A
102
}
330
28A
100
AcDbXrecord
280
     1
102
RTVSPropertyOp0
 70
     1
102
RTVSPropertyOp1
 70
     1
102
RTVSPropertyOp2
 70
     1
102
RTVSPropertyOp3
 70
     1
102
RTVSPropertyOp4
 70
     1
102
RTVSPropertyOp5
 70
     1
102
RTVSPropertyOp6
 70
     1
102
RTVSPropertyOp7
 70
     1
102
RTVSPropertyOp8
 70
     1
102
RTVSPropertyOp9
 70
     1
102
RTVSPropertyOp10
 70
     1
102
RTVSPropertyOp11
 70
     1
102
RTVSPropertyOp12
 70
     1
102
RTVSPropertyOp13
 70
     1
102
RTVSPropertyOp14
 70
     1
102
RTVSPropertyOp15
 70
     1
102
RTVSPropertyOp16
 70
     1
102
RTVSPropertyOp17
 70
     1
102
RTVSPropertyOp18
 70
     1
102
RTVSPropertyOp19
 70
     1
102
RTVSPropertyOp20
 70
     1
102
RTVSPropertyOp21
 70
     1
102
RTVSPropertyOp22
 70
     1
102
RTVSPropertyOp23
 70
     1
102
RTVSPropertyOp24
 70
     1
102
RTVSPropertyOp25
 70
     1
102
RTVSPropertyOp26
 70
     1
102
RTVSPropertyOp27
 70
     1
102
RTVSPropertyOp28
 70
     1
102
RTVSPropertyOp29
 70
     1
102
RTVSPropertyOp30
 70
     1
102
RTVSPropertyOp31
 70
     1
102
RTVSPropertyOp32
 70
     1
  0
XRECORD
  5
293
102
{ACAD_REACTORS
330
292
102
}
330
292
100
AcDbXrecord
280
     1
102
RTVSPropertyOp0
 70
     1
102
RTVSPropertyOp1
 70
     1
102
RTVSPropertyOp2
 70
     1
102
RTVSPropertyOp3
 70
     1
102
RTVSPropertyOp4
 70
     1
102
RTVSPropertyOp5
 70
     1
102
RTVSPropertyOp6
 70
     1
102
RTVSPropertyOp7
 70
     1
102
RTVSPropertyOp8
 70
     1
102
RTVSPropertyOp9
 70
     1
102
RTVSPropertyOp10
 70
     1
102
RTVSPropertyOp11
 70
     1
102
RTVSPropertyOp12
 70
     1
102
RTVSPropertyOp13
 70
     1
102
RTVSPropertyOp14
 70
     1
102
RTVSPropertyOp15
 70
     1
102
RTVSPropertyOp16
 70
     1
102
RTVSPropertyOp17
 70
     1
102
RTVSPropertyOp18
 70
     1
102
RTVSPropertyOp19
 70
     1
102
RTVSPropertyOp20
 70
     1
102
RTVSPropertyOp21
 70
     1
102
RTVSPropertyOp22
 70
     1
102
RTVSPropertyOp23
 70
     1
102
RTVSPropertyOp24
 70
     1
102
RTVSPropertyOp25
 70
     1
102
RTVSPropertyOp26
 70
     1
102
RTVSPropertyOp27
 70
     1
102
RTVSPropertyOp28
 70
     1
102
RTVSPropertyOp29
 70
     1
102
RTVSPropertyOp30
 70
     1
102
RTVSPropertyOp31
 70
     1
102
RTVSPropertyOp32
 70
     1
  0
XRECORD
  5
2AF
102
{ACAD_REACTORS
330
2AE
102
}
330
2AE
100
AcDbXrecord
280
     1
102
RTVSPropertyOp0
 70
     0
102
RTVSPropertyOp1
 70
     0
102
RTVSPropertyOp2
 70
     0
102
RTVSPropertyOp3
 70
     0
102
RTVSPropertyOp4
 70
     0
102
RTVSPropertyOp5
 70
     0
102
RTVSPropertyOp6
 70
     0
102
RTVSPropertyOp7
 70
     0
102
RTVSPropertyOp8
 70
     0
102
RTVSPropertyOp9
 70
     0
102
RTVSPropertyOp10
 70
     0
102
RTVSPropertyOp11
 70
     0
102
RTVSPropertyOp12
 70
     0
102
RTVSPropertyOp13
 70
     0
102
RTVSPropertyOp14
 70
     2
102
RTVSPropertyOp15
 70
     0
102
RTVSPropertyOp16
 70
     0
102
RTVSPropertyOp17
 70
     0
102
RTVSPropertyOp18
 70
     0
102
RTVSPropertyOp19
 70
     0
102
RTVSPropertyOp20
 70
     0
102
RTVSPropertyOp21
 70
     0
102
RTVSPropertyOp22
 70
     0
102
RTVSPropertyOp23
 70
     0
102
RTVSPropertyOp24
 70
     0
102
RTVSPropertyOp25
 70
     0
102
RTVSPropertyOp26
 70
     0
102
RTVSPropertyOp27
 70
     0
102
RTVSPropertyOp28
 70
     1
102
RTVSPropertyOp29
 70
     1
102
RTVSPropertyOp30
 70
     1
102
RTVSPropertyOp31
 70
     1
102
RTVSPropertyOp32
 70
     1
  0
XRECORD
  5
29F
102
{ACAD_REACTORS
330
29E
102
}
330
29E
100
AcDbXrecord
280
     1
102
RTVSPropertyOp0
 70
     1
102
RTVSPropertyOp1
 70
     1
102
RTVSPropertyOp2
 70
     1
102
RTVSPropertyOp3
 70
     1
102
RTVSPropertyOp4
 70
     1
102
RTVSPropertyOp5
 70
     1
102
RTVSPropertyOp6
 70
     1
102
RTVSPropertyOp7
 70
     1
102
RTVSPropertyOp8
 70
     1
102
RTVSPropertyOp9
 70
     1
102
RTVSPropertyOp10
 70
     1
102
RTVSPropertyOp11
 70
     1
102
RTVSPropertyOp12
 70
     1
102
RTVSPropertyOp13
 70
     1
102
RTVSPropertyOp14
 70
     1
102
RTVSPropertyOp15
 70
     1
102
RTVSPropertyOp16
 70
     1
102
RTVSPropertyOp17
 70
     1
102
RTVSPropertyOp18
 70
     1
102
RTVSPropertyOp19
 70
     1
102
RTVSPropertyOp20
 70
     1
102
RTVSPropertyOp21
 70
     1
102
RTVSPropertyOp22
 70
     1
102
RTVSPropertyOp23
 70
     1
102
RTVSPropertyOp24
 70
     1
102
RTVSPropertyOp25
 70
     1
102
RTVSPropertyOp26
 70
     1
102
RTVSPropertyOp27
 70
     1
102
RTVSPropertyOp28
 70
     1
102
RTVSPropertyOp29
 70
     1
102
RTVSPropertyOp30
 70
     1
102
RTVSPropertyOp31
 70
     1
102
RTVSPropertyOp32
 70
     1
  0
XRECORD
  5
2B1
102
{ACAD_REACTORS
330
2B0
102
}
330
2B0
100
AcDbXrecord
280
     1
102
RTVSPropertyOp0
 70
     0
102
RTVSPropertyOp1
 70
     0
102
RTVSPropertyOp2
 70
     0
102
RTVSPropertyOp3
 70
     0
102
RTVSPropertyOp4
 70
     0
102
RTVSPropertyOp5
 70
     0
102
RTVSPropertyOp6
 70
     0
102
RTVSPropertyOp7
 70
     0
102
RTVSPropertyOp8
 70
     0
102
RTVSPropertyOp9
 70
     0
102
RTVSPropertyOp10
 70
     0
102
RTVSPropertyOp11
 70
     0
102
RTVSPropertyOp12
 70
     0
102
RTVSPropertyOp13
 70
     0
102
RTVSPropertyOp14
 70
     2
102
RTVSPropertyOp15
 70
     0
102
RTVSPropertyOp16
 70
     0
102
RTVSPropertyOp17
 70
     0
102
RTVSPropertyOp18
 70
     0
102
RTVSPropertyOp19
 70
     0
102
RTVSPropertyOp20
 70
     0
102
RTVSPropertyOp21
 70
     0
102
RTVSPropertyOp22
 70
     0
102
RTVSPropertyOp23
 70
     0
102
RTVSPropertyOp24
 70
     0
102
RTVSPropertyOp25
 70
     0
102
RTVSPropertyOp26
 70
     0
102
RTVSPropertyOp27
 70
     0
102
RTVSPropertyOp28
 70
     1
102
RTVSPropertyOp29
 70
     1
102
RTVSPropertyOp30
 70
     1
102
RTVSPropertyOp31
 70
     1
102
RTVSPropertyOp32
 70
     1
  0
XRECORD
  5
297
102
{ACAD_REACTORS
330
296
102
}
330
296
100
AcDbXrecord
280
     1
102
RTVSPropertyOp0
 70
     1
102
RTVSPropertyOp1
 70
     1
102
RTVSPropertyOp2
 70
     1
102
RTVSPropertyOp3
 70
     1
102
RTVSPropertyOp4
 70
     1
102
RTVSPropertyOp5
 70
     1
102
RTVSPropertyOp6
 70
     1
102
RTVSPropertyOp7
 70
     1
102
RTVSPropertyOp8
 70
     1
102
RTVSPropertyOp9
 70
     1
102
RTVSPropertyOp10
 70
     1
102
RTVSPropertyOp11
 70
     1
102
RTVSPropertyOp12
 70
     1
102
RTVSPropertyOp13
 70
     1
102
RTVSPropertyOp14
 70
     1
102
RTVSPropertyOp15
 70
     1
102
RTVSPropertyOp16
 70
     1
102
RTVSPropertyOp17
 70
     1
102
RTVSPropertyOp18
 70
     1
102
RTVSPropertyOp19
 70
     1
102
RTVSPropertyOp20
 70
     1
102
RTVSPropertyOp21
 70
     1
102
RTVSPropertyOp22
 70
     1
102
RTVSPropertyOp23
 70
     1
102
RTVSPropertyOp24
 70
     1
102
RTVSPropertyOp25
 70
     1
102
RTVSPropertyOp26
 70
     1
102
RTVSPropertyOp27
 70
     1
102
RTVSPropertyOp28
 70
     1
102
RTVSPropertyOp29
 70
     1
102
RTVSPropertyOp30
 70
     1
102
RTVSPropertyOp31
 70
     1
102
RTVSPropertyOp32
 70
     1
  0
XRECORD
  5
2AD
102
{ACAD_REACTORS
330
2AC
102
}
330
2AC
100
AcDbXrecord
280
     1
102
RTVSPropertyOp0
 70
     1
102
RTVSPropertyOp1
 70
     1
102
RTVSPropertyOp2
 70
     1
102
RTVSPropertyOp3
 70
     1
102
RTVSPropertyOp4
 70
     1
102
RTVSPropertyOp5
 70
     1
102
RTVSPropertyOp6
 70
     1
102
RTVSPropertyOp7
 70
     1
102
RTVSPropertyOp8
 70
     1
102
RTVSPropertyOp9
 70
     1
102
RTVSPropertyOp10
 70
     1
102
RTVSPropertyOp11
 70
     1
102
RTVSPropertyOp12
 70
     1
102
RTVSPropertyOp13
 70
     1
102
RTVSPropertyOp14
 70
     1
102
RTVSPropertyOp15
 70
     1
102
RTVSPropertyOp16
 70
     1
102
RTVSPropertyOp17
 70
     1
102
RTVSPropertyOp18
 70
     1
102
RTVSPropertyOp19
 70
     1
102
RTVSPropertyOp20
 70
     1
102
RTVSPropertyOp21
 70
     1
102
RTVSPropertyOp22
 70
     1
102
RTVSPropertyOp23
 70
     1
102
RTVSPropertyOp24
 70
     1
102
RTVSPropertyOp25
 70
     1
102
RTVSPropertyOp26
 70
     1
102
RTVSPropertyOp27
 70
     1
102
RTVSPropertyOp28
 70
     1
102
RTVSPropertyOp29
 70
     1
102
RTVSPropertyOp30
 70
     1
102
RTVSPropertyOp31
 70
     1
102
RTVSPropertyOp32
 70
     1
  0
XRECORD
  5
2AB
102
{ACAD_REACTORS
330
2AA
102
}
330
2AA
100
AcDbXrecord
280
     1
102
RTVSPropertyOp0
 70
     1
102
RTVSPropertyOp1
 70
     1
102
RTVSPropertyOp2
 70
     1
102
RTVSPropertyOp3
 70
     1
102
RTVSPropertyOp4
 70
     1
102
RTVSPropertyOp5
 70
     1
102
RTVSPropertyOp6
 70
     1
102
RTVSPropertyOp7
 70
     1
102
RTVSPropertyOp8
 70
     1
102
RTVSPropertyOp9
 70
     1
102
RTVSPropertyOp10
 70
     1
102
RTVSPropertyOp11
 70
     1
102
RTVSPropertyOp12
 70
     1
102
RTVSPropertyOp13
 70
     1
102
RTVSPropertyOp14
 70
     1
102
RTVSPropertyOp15
 70
     1
102
RTVSPropertyOp16
 70
     1
102
RTVSPropertyOp17
 70
     1
102
RTVSPropertyOp18
 70
     1
102
RTVSPropertyOp19
 70
     1
102
RTVSPropertyOp20
 70
     1
102
RTVSPropertyOp21
 70
     1
102
RTVSPropertyOp22
 70
     1
102
RTVSPropertyOp23
 70
     1
102
RTVSPropertyOp24
 70
     1
102
RTVSPropertyOp25
 70
     1
102
RTVSPropertyOp26
 70
     1
102
RTVSPropertyOp27
 70
     1
102
RTVSPropertyOp28
 70
     1
102
RTVSPropertyOp29
 70
     1
102
RTVSPropertyOp30
 70
     1
102
RTVSPropertyOp31
 70
     1
102
RTVSPropertyOp32
 70
     1
  0
XRECORD
  5
2A5
102
{ACAD_REACTORS
330
2A4
102
}
330
2A4
100
AcDbXrecord
280
     1
102
RTVSPropertyOp0
 70
     1
102
RTVSPropertyOp1
 70
     1
102
RTVSPropertyOp2
 70
     1
102
RTVSPropertyOp3
 70
     1
102
RTVSPropertyOp4
 70
     1
102
RTVSPropertyOp5
 70
     1
102
RTVSPropertyOp6
 70
     1
102
RTVSPropertyOp7
 70
     1
102
RTVSPropertyOp8
 70
     1
102
RTVSPropertyOp9
 70
     1
102
RTVSPropertyOp10
 70
     1
102
RTVSPropertyOp11
 70
     1
102
RTVSPropertyOp12
 70
     1
102
RTVSPropertyOp13
 70
     1
102
RTVSPropertyOp14
 70
     1
102
RTVSPropertyOp15
 70
     1
102
RTVSPropertyOp16
 70
     1
102
RTVSPropertyOp17
 70
     1
102
RTVSPropertyOp18
 70
     1
102
RTVSPropertyOp19
 70
     1
102
RTVSPropertyOp20
 70
     1
102
RTVSPropertyOp21
 70
     1
102
RTVSPropertyOp22
 70
     1
102
RTVSPropertyOp23
 70
     1
102
RTVSPropertyOp24
 70
     1
102
RTVSPropertyOp25
 70
     1
102
RTVSPropertyOp26
 70
     1
102
RTVSPropertyOp27
 70
     1
102
RTVSPropertyOp28
 70
     1
102
RTVSPropertyOp29
 70
     1
102
RTVSPropertyOp30
 70
     1
102
RTVSPropertyOp31
 70
     1
102
RTVSPropertyOp32
 70
     1
  0
XRECORD
  5
2A7
102
{ACAD_REACTORS
330
2A6
102
}
330
2A6
100
AcDbXrecord
280
     1
102
RTVSPropertyOp0
 70
     1
102
RTVSPropertyOp1
 70
     1
102
RTVSPropertyOp2
 70
     1
102
RTVSPropertyOp3
 70
     1
102
RTVSPropertyOp4
 70
     1
102
RTVSPropertyOp5
 70
     1
102
RTVSPropertyOp6
 70
     1
102
RTVSPropertyOp7
 70
     1
102
RTVSPropertyOp8
 70
     1
102
RTVSPropertyOp9
 70
     1
102
RTVSPropertyOp10
 70
     1
102
RTVSPropertyOp11
 70
     1
102
RTVSPropertyOp12
 70
     1
102
RTVSPropertyOp13
 70
     1
102
RTVSPropertyOp14
 70
     1
102
RTVSPropertyOp15
 70
     1
102
RTVSPropertyOp16
 70
     1
102
RTVSPropertyOp17
 70
     1
102
RTVSPropertyOp18
 70
     1
102
RTVSPropertyOp19
 70
     1
102
RTVSPropertyOp20
 70
     1
102
RTVSPropertyOp21
 70
     1
102
RTVSPropertyOp22
 70
     1
102
RTVSPropertyOp23
 70
     1
102
RTVSPropertyOp24
 70
     1
102
RTVSPropertyOp25
 70
     1
102
RTVSPropertyOp26
 70
     1
102
RTVSPropertyOp27
 70
     1
102
RTVSPropertyOp28
 70
     1
102
RTVSPropertyOp29
 70
     1
102
RTVSPropertyOp30
 70
     1
102
RTVSPropertyOp31
 70
     1
102
RTVSPropertyOp32
 70
     1
  0
XRECORD
  5
29D
102
{ACAD_REACTORS
330
29C
102
}
330
29C
100
AcDbXrecord
280
     1
102
RTVSPropertyOp0
 70
     1
102
RTVSPropertyOp1
 70
     1
102
RTVSPropertyOp2
 70
     1
102
RTVSPropertyOp3
 70
     1
102
RTVSPropertyOp4
 70
     1
102
RTVSPropertyOp5
 70
     1
102
RTVSPropertyOp6
 70
     1
102
RTVSPropertyOp7
 70
     1
102
RTVSPropertyOp8
 70
     1
102
RTVSPropertyOp9
 70
     1
102
RTVSPropertyOp10
 70
     1
102
RTVSPropertyOp11
 70
     1
102
RTVSPropertyOp12
 70
     1
102
RTVSPropertyOp13
 70
     1
102
RTVSPropertyOp14
 70
     1
102
RTVSPropertyOp15
 70
     1
102
RTVSPropertyOp16
 70
     1
102
RTVSPropertyOp17
 70
     1
102
RTVSPropertyOp18
 70
     1
102
RTVSPropertyOp19
 70
     1
102
RTVSPropertyOp20
 70
     1
102
RTVSPropertyOp21
 70
     1
102
RTVSPropertyOp22
 70
     1
102
RTVSPropertyOp23
 70
     1
102
RTVSPropertyOp24
 70
     1
102
RTVSPropertyOp25
 70
     1
102
RTVSPropertyOp26
 70
     1
102
RTVSPropertyOp27
 70
     1
102
RTVSPropertyOp28
 70
     1
102
RTVSPropertyOp29
 70
     1
102
RTVSPropertyOp30
 70
     1
102
RTVSPropertyOp31
 70
     1
102
RTVSPropertyOp32
 70
     1
  0
XRECORD
  5
291
102
{ACAD_REACTORS
330
290
102
}
330
290
100
AcDbXrecord
280
     1
102
RTVSPropertyOp0
 70
     1
102
RTVSPropertyOp1
 70
     1
102
RTVSPropertyOp2
 70
     1
102
RTVSPropertyOp3
 70
     1
102
RTVSPropertyOp4
 70
     1
102
RTVSPropertyOp5
 70
     1
102
RTVSPropertyOp6
 70
     1
102
RTVSPropertyOp7
 70
     1
102
RTVSPropertyOp8
 70
     1
102
RTVSPropertyOp9
 70
     1
102
RTVSPropertyOp10
 70
     1
102
RTVSPropertyOp11
 70
     1
102
RTVSPropertyOp12
 70
     1
102
RTVSPropertyOp13
 70
     1
102
RTVSPropertyOp14
 70
     1
102
RTVSPropertyOp15
 70
     1
102
RTVSPropertyOp16
 70
     1
102
RTVSPropertyOp17
 70
     1
102
RTVSPropertyOp18
 70
     1
102
RTVSPropertyOp19
 70
     1
102
RTVSPropertyOp20
 70
     1
102
RTVSPropertyOp21
 70
     1
102
RTVSPropertyOp22
 70
     1
102
RTVSPropertyOp23
 70
     1
102
RTVSPropertyOp24
 70
     1
102
RTVSPropertyOp25
 70
     1
102
RTVSPropertyOp26
 70
     1
102
RTVSPropertyOp27
 70
     1
102
RTVSPropertyOp28
 70
     1
102
RTVSPropertyOp29
 70
     1
102
RTVSPropertyOp30
 70
     1
102
RTVSPropertyOp31
 70
     1
102
RTVSPropertyOp32
 70
     1
  0
XRECORD
  5
2A9
102
{ACAD_REACTORS
330
2A8
102
}
330
2A8
100
AcDbXrecord
280
     1
102
RTVSPropertyOp0
 70
     1
102
RTVSPropertyOp1
 70
     1
102
RTVSPropertyOp2
 70
     1
102
RTVSPropertyOp3
 70
     1
102
RTVSPropertyOp4
 70
     1
102
RTVSPropertyOp5
 70
     1
102
RTVSPropertyOp6
 70
     1
102
RTVSPropertyOp7
 70
     1
102
RTVSPropertyOp8
 70
     1
102
RTVSPropertyOp9
 70
     1
102
RTVSPropertyOp10
 70
     1
102
RTVSPropertyOp11
 70
     1
102
RTVSPropertyOp12
 70
     1
102
RTVSPropertyOp13
 70
     1
102
RTVSPropertyOp14
 70
     1
102
RTVSPropertyOp15
 70
     1
102
RTVSPropertyOp16
 70
     1
102
RTVSPropertyOp17
 70
     1
102
RTVSPropertyOp18
 70
     1
102
RTVSPropertyOp19
 70
     1
102
RTVSPropertyOp20
 70
     1
102
RTVSPropertyOp21
 70
     1
102
RTVSPropertyOp22
 70
     1
102
RTVSPropertyOp23
 70
     1
102
RTVSPropertyOp24
 70
     1
102
RTVSPropertyOp25
 70
     1
102
RTVSPropertyOp26
 70
     1
102
RTVSPropertyOp27
 70
     1
102
RTVSPropertyOp28
 70
     1
102
RTVSPropertyOp29
 70
     1
102
RTVSPropertyOp30
 70
     1
102
RTVSPropertyOp31
 70
     1
102
RTVSPropertyOp32
 70
     1
  0
ENDSEC
  0
EOF
