  0
SECTION
  2
HEADER
  9
$ACADVER
  1
AC1015
  9
$ACADMAINTVER
 70
    20
  9
$DWGCODEPAGE
  3
ANSI_1252
  9
$INSBASE
 10
0.0
 20
0.0
 30
0.0
  9
$EXTMIN
 10
0.4999999999999984
 20
0.4999999999999984
 30
0.0
  9
$EXTMAX
 10
21.5
 20
16.49999999999999
 30
0.0
  9
$LIMMIN
 10
0.0
 20
0.0
  9
$LIMMAX
 10
22.0
 20
17.0
  9
$ORTHOMODE
 70
     0
  9
$REGENMODE
 70
     1
  9
$FILLMODE
 70
     1
  9
$QTEXTMODE
 70
     0
  9
$MIRRTEXT
 70
     0
  9
$LTSCALE
 40
1.0
  9
$ATTMODE
 70
     1
  9
$TEXTSIZE
 40
0.2
  9
$TRACEWID
 40
0.05
  9
$TEXTSTYLE
  7
Standard
  9
$CLAYER
  8
0
  9
$CELTYPE
  6
ByLayer
  9
$CECOLOR
 62
   256
  9
$CELTSCALE
 40
1.0
  9
$DISPSILH
 70
     0
  9
$DIMSCALE
 40
1.0
  9
$DIMASZ
 40
0.0708661417322835
  9
$DIMEXO
 40
0.0625
  9
$DIMDLI
 40
0.38
  9
$DIMRND
 40
0.0
  9
$DIMDLE
 40
0.0
  9
$DIMEXE
 40
0.18
  9
$DIMTP
 40
0.0
  9
$DIMTM
 40
0.0
  9
$DIMTXT
 40
0.0708661417322835
  9
$DIMCEN
 40
0.09
  9
$DIMTSZ
 40
0.0
  9
$DIMTOL
 70
     0
  9
$DIMLIM
 70
     0
  9
$DIMTIH
 70
     1
  9
$DIMTOH
 70
     1
  9
$DIMSE1
 70
     0
  9
$DIMSE2
 70
     0
  9
$DIMTAD
 70
     0
  9
$DIMZIN
 70
     0
  9
$DIMBLK
  1

  9
$DIMASO
 70
     1
  9
$DIMSHO
 70
     1
  9
$DIMPOST
  1

  9
$DIMAPOST
  1

  9
$DIMALT
 70
     0
  9
$DIMALTD
 70
     2
  9
$DIMALTF
 40
25.4
  9
$DIMLFAC
 40
1.0
  9
$DIMTOFL
 70
     0
  9
$DIMTVP
 40
0.0
  9
$DIMTIX
 70
     0
  9
$DIMSOXD
 70
     0
  9
$DIMSAH
 70
     0
  9
$DIMBLK1
  1

  9
$DIMBLK2
  1

  9
$DIMSTYLE
  2
Standard
  9
$DIMCLRD
 70
     0
  9
$DIMCLRE
 70
     0
  9
$DIMCLRT
 70
     0
  9
$DIMTFAC
 40
1.0
  9
$DIMGAP
 40
0.09
  9
$DIMJUST
 70
     0
  9
$DIMSD1
 70
     0
  9
$DIMSD2
 70
     0
  9
$DIMTOLJ
 70
     1
  9
$DIMTZIN
 70
     0
  9
$DIMALTZ
 70
     0
  9
$DIMALTTZ
 70
     0
  9
$DIMUPT
 70
     0
  9
$DIMDEC
 70
     4
  9
$DIMTDEC
 70
     4
  9
$DIMALTU
 70
     2
  9
$DIMALTTD
 70
     2
  9
$DIMTXSTY
  7
Standard
  9
$DIMAUNIT
 70
     0
  9
$DIMADEC
 70
     0
  9
$DIMALTRND
 40
0.0
  9
$DIMAZIN
 70
     0
  9
$DIMDSEP
 70
    46
  9
$DIMATFIT
 70
     3
  9
$DIMFRAC
 70
     0
  9
$DIMLDRBLK
  1

  9
$DIMLUNIT
 70
     2
  9
$DIMLWD
 70
    -2
  9
$DIMLWE
 70
    -2
  9
$DIMTMOVE
 70
     0
  9
$LUNITS
 70
     2
  9
$LUPREC
 70
     4
  9
$SKETCHINC
 40
0.1
  9
$FILLETRAD
 40
0.0
  9
$AUNITS
 70
     0
  9
$AUPREC
 70
     0
  9
$MENU
  1
.
  9
$ELEVATION
 40
0.0
  9
$PELEVATION
 40
0.0
  9
$THICKNESS
 40
0.0
  9
$LIMCHECK
 70
     0
  9
$CHAMFERA
 40
0.0
  9
$CHAMFERB
 40
0.0
  9
$CHAMFERC
 40
0.0
  9
$CHAMFERD
 40
0.0
  9
$SKPOLY
 70
     0
  9
$TDCREATE
 40
2456038.567983044
  9
$TDUCREATE
 40
2456038.859649711
  9
$TDUPDATE
 40
2456038.590067651
  9
$TDUUPDATE
 40
2456038.881734317
  9
$TDINDWG
 40
0.0007124769
  9
$TDUSRTIMER
 40
0.0007124769
  9
$USRTIMER
 70
     1
  9
$ANGBASE
 50
0.0
  9
$ANGDIR
 70
     0
  9
$PDMODE
 70
     0
  9
$PDSIZE
 40
0.0
  9
$PLINEWID
 40
0.0
  9
$SPLFRAME
 70
     0
  9
$SPLINETYPE
 70
     6
  9
$SPLINESEGS
 70
     8
  9
$HANDSEED
  5
296
  9
$SURFTAB1
 70
     6
  9
$SURFTAB2
 70
     6
  9
$SURFTYPE
 70
     6
  9
$SURFU
 70
     6
  9
$SURFV
 70
     6
  9
$UCSBASE
  2

  9
$UCSNAME
  2

  9
$UCSORG
 10
0.0
 20
0.0
 30
0.0
  9
$UCSXDIR
 10
1.0
 20
0.0
 30
0.0
  9
$UCSYDIR
 10
0.0
 20
1.0
 30
0.0
  9
$UCSORTHOREF
  2

  9
$UCSORTHOVIEW
 70
     0
  9
$UCSORGTOP
 10
0.0
 20
0.0
 30
0.0
  9
$UCSORGBOTTOM
 10
0.0
 20
0.0
 30
0.0
  9
$UCSORGLEFT
 10
0.0
 20
0.0
 30
0.0
  9
$UCSORGRIGHT
 10
0.0
 20
0.0
 30
0.0
  9
$UCSORGFRONT
 10
0.0
 20
0.0
 30
0.0
  9
$UCSORGBACK
 10
0.0
 20
0.0
 30
0.0
  9
$PUCSBASE
  2

  9
$PUCSNAME
  2

  9
$PUCSORG
 10
0.0
 20
0.0
 30
0.0
  9
$PUCSXDIR
 10
1.0
 20
0.0
 30
0.0
  9
$PUCSYDIR
 10
0.0
 20
1.0
 30
0.0
  9
$PUCSORTHOREF
  2

  9
$PUCSORTHOVIEW
 70
     0
  9
$PUCSORGTOP
 10
0.0
 20
0.0
 30
0.0
  9
$PUCSORGBOTTOM
 10
0.0
 20
0.0
 30
0.0
  9
$PUCSORGLEFT
 10
0.0
 20
0.0
 30
0.0
  9
$PUCSORGRIGHT
 10
0.0
 20
0.0
 30
0.0
  9
$PUCSORGFRONT
 10
0.0
 20
0.0
 30
0.0
  9
$PUCSORGBACK
 10
0.0
 20
0.0
 30
0.0
  9
$USERI1
 70
     0
  9
$USERI2
 70
     0
  9
$USERI3
 70
     0
  9
$USERI4
 70
     0
  9
$USERI5
 70
     0
  9
$USERR1
 40
0.0
  9
$USERR2
 40
0.0
  9
$USERR3
 40
0.0
  9
$USERR4
 40
0.0
  9
$USERR5
 40
0.0
  9
$WORLDVIEW
 70
     1
  9
$SHADEDGE
 70
     3
  9
$SHADEDIF
 70
    70
  9
$TILEMODE
 70
     1
  9
$MAXACTVP
 70
    64
  9
$PINSBASE
 10
0.0
 20
0.0
 30
0.0
  9
$PLIMCHECK
 70
     0
  9
$PEXTMIN
 10
0.0
 20
0.0
 30
0.0
  9
$PEXTMAX
 10
22.0
 20
17.0
 30
0.0
  9
$PLIMMIN
 10
0.0
 20
0.0
  9
$PLIMMAX
 10
22.0
 20
17.0
  9
$UNITMODE
 70
     0
  9
$VISRETAIN
 70
     1
  9
$PLINEGEN
 70
     0
  9
$PSLTSCALE
 70
     1
  9
$TREEDEPTH
 70
  3020
  9
$CMLSTYLE
  2
Standard
  9
$CMLJUST
 70
     0
  9
$CMLSCALE
 40
1.0
  9
$PROXYGRAPHICS
 70
     1
  9
$MEASUREMENT
 70
     0
  9
$CELWEIGHT
370
    -1
  9
$ENDCAPS
280
     0
  9
$JOINSTYLE
280
     0
  9
$LWDISPLAY
290
     0
  9
$INSUNITS
 70
     1
  9
$HYPERLINKBASE
  1

  9
$STYLESHEET
  1

  9
$XEDIT
290
     1
  9
$CEPSNTYPE
380
     0
  9
$PSTYLEMODE
290
     1
  9
$FINGERPRINTGUID
  2
{7AC80CC4-0066-4A4B-9AD8-1AF1007A259C}
  9
$VERSIONGUID
  2
{CD776989-1EC1-4F84-8791-5C505AB9EB56}
  9
$EXTNAMES
290
     1
  9
$PSVPSCALE
 40
0.0
  9
$OLESTARTUP
290
     0
  0
ENDSEC
  0
SECTION
  2
CLASSES
  0
CLASS
  1
ACDBDICTIONARYWDFLT
  2
AcDbDictionaryWithDefault
  3
ObjectDBX Classes
 90
        0
280
     0
281
     0
  0
CLASS
  1
MATERIAL
  2
AcDbMaterial
  3
ObjectDBX Classes
 90
     1153
280
     0
281
     0
  0
CLASS
  1
VISUALSTYLE
  2
AcDbVisualStyle
  3
ObjectDBX Classes
 90
     4095
280
     0
281
     0
  0
CLASS
  1
SCALE
  2
AcDbScale
  3
ObjectDBX Classes
 90
     1153
280
     0
281
     0
  0
CLASS
  1
TABLESTYLE
  2
AcDbTableStyle
  3
ObjectDBX Classes
 90
     4095
280
     0
281
     0
  0
CLASS
  1
MLEADERSTYLE
  2
AcDbMLeaderStyle
  3
ACDB_MLEADERSTYLE_CLASS
 90
     4095
280
     0
281
     0
  0
CLASS
  1
DICTIONARYVAR
  2
AcDbDictionaryVar
  3
ObjectDBX Classes
 90
        0
280
     0
281
     0
  0
CLASS
  1
CELLSTYLEMAP
  2
AcDbCellStyleMap
  3
ObjectDBX Classes
 90
     1152
280
     0
281
     0
  0
CLASS
  1
ACDBPLACEHOLDER
  2
AcDbPlaceHolder
  3
ObjectDBX Classes
 90
        0
280
     0
281
     0
  0
CLASS
  1
LAYOUT
  2
AcDbLayout
  3
ObjectDBX Classes
 90
        0
280
     0
281
     0
  0
ENDSEC
  0
SECTION
  2
TABLES
  0
TABLE
  2
VPORT
  5
8
102
{ACAD_XDICTIONARY
360
209
102
}
330
0
100
AcDbSymbolTable
 70
     1
  0
VPORT
  5
57
330
8
100
AcDbSymbolTableRecord
100
AcDbViewportTableRecord
  2
*Active
 70
     0
 10
0.0
 20
0.0
 11
1.0
 21
1.0
 12
17.8754889178618
 22
8.5
 13
0.0
 23
0.0
 14
1.0
 24
1.0
 15
0.0
 25
0.0
 16
0.0
 26
0.0
 36
1.0
 17
0.0
 27
0.0
 37
0.0
 40
17.00187201710182
 41
2.102998696219035
 42
50.0
 43
0.0
 44
0.0
 50
0.0
 51
0.0
 71
     0
 72
   100
 73
     1
 74
     1
 75
     0
 76
     0
 77
     0
 78
     0
281
     0
 65
     1
110
0.0
120
0.0
130
0.0
111
1.0
121
0.0
131
0.0
112
0.0
122
1.0
132
0.0
 79
     0
146
0.0
1001
ACAD_NAV_VCDISPLAY
1070
     3
  0
ENDTAB
  0
TABLE
  2
LTYPE
  5
5
330
0
100
AcDbSymbolTable
 70
    59
  0
LTYPE
  5
5B
330
5
100
AcDbSymbolTableRecord
100
AcDbLinetypeTableRecord
  2
ByBlock
 70
     0
  3

 72
    65
 73
     0
 40
0.0
  0
LTYPE
  5
5C
330
5
100
AcDbSymbolTableRecord
100
AcDbLinetypeTableRecord
  2
ByLayer
 70
     0
  3

 72
    65
 73
     0
 40
0.0
  0
LTYPE
  5
5D
330
5
100
AcDbSymbolTableRecord
100
AcDbLinetypeTableRecord
  2
Continuous
 70
     0
  3
Solid line
 72
    65
 73
     0
 40
0.0
  0
LTYPE
  5
7C
330
5
100
AcDbSymbolTableRecord
100
AcDbLinetypeTableRecord
  2
BY_STANDARD
 70
     0
  3
By Standard ____________    ____    ____   _
 72
    65
 73
     6
 40
1.240299999999999
 49
0.6614
 74
     0
 49
-0.0827
 74
     0
 49
0.1654
 74
     0
 49
-0.0827
 74
     0
 49
0.1654
 74
     0
 49
-0.0827
 74
     0
  0
LTYPE
  5
7D
330
5
100
AcDbSymbolTableRecord
100
AcDbLinetypeTableRecord
  2
CHAIN
 70
     0
  3
Chain ____ _ ____ _ ____ _ ____ _ ____ _ ____
 72
    65
 73
     4
 40
0.7087
 49
0.4724000000000001
 74
     0
 49
-0.0591
 74
     0
 49
0.1181
 74
     0
 49
-0.0591
 74
     0
  0
LTYPE
  5
7E
330
5
100
AcDbSymbolTableRecord
100
AcDbLinetypeTableRecord
  2
DASH_DOT
 70
     0
  3
Dash dot __ . __ . __ . __ . __ . __ . __ . __
 72
    65
 73
     4
 40
0.37
 49
0.24
 74
     0
 49
-0.06
 74
     0
 49
0.01
 74
     0
 49
-0.06
 74
     0
  0
LTYPE
  5
7F
330
5
100
AcDbSymbolTableRecord
100
AcDbLinetypeTableRecord
  2
DOUBLE_DASH_DOT
 70
     0
  3
Double-Dash Dot __ __ . __ __ . __ __ . __ _
 72
    65
 73
     6
 40
0.4398
 49
0.24
 74
     0
 49
-0.06
 74
     0
 49
0.0098
 74
     0
 49
-0.06
 74
     0
 49
0.01
 74
     0
 49
-0.06
 74
     0
  0
LTYPE
  5
80
330
5
100
AcDbSymbolTableRecord
100
AcDbLinetypeTableRecord
  2
DASH_TRIPLE_DOT
 70
     0
  3
Dash Triple-Dot _ . . . _ . . . _ . . . _
 72
    65
 73
     8
 40
0.51
 49
0.24
 74
     0
 49
-0.06
 74
     0
 49
0.01
 74
     0
 49
-0.06
 74
     0
 49
0.01
 74
     0
 49
-0.06
 74
     0
 49
0.01
 74
     0
 49
-0.06
 74
     0
  0
LTYPE
  5
81
330
5
100
AcDbSymbolTableRecord
100
AcDbLinetypeTableRecord
  2
DASHED
 70
     0
  3
Dashed __ __ __ __ __ __ __ __ __ __ __ __ __ _
 72
    65
 73
     2
 40
0.2067
 49
0.1654
 74
     0
 49
-0.0413
 74
     0
  0
LTYPE
  5
82
330
5
100
AcDbSymbolTableRecord
100
AcDbLinetypeTableRecord
  2
DASH_DOUBLE_DOT
 70
     0
  3
Dash Double-Dot __ . . __ . . __ . . __ . .
 72
    65
 73
     6
 40
0.4398
 49
0.24
 74
     0
 49
-0.06
 74
     0
 49
0.0098
 74
     0
 49
-0.06
 74
     0
 49
0.01
 74
     0
 49
-0.06
 74
     0
  0
LTYPE
  5
83
330
5
100
AcDbSymbolTableRecord
100
AcDbLinetypeTableRecord
  2
DASHED_SPACE
 70
     0
  3
Dashed Space __ __ __ __ __ __ __ __ __ __ __ _
 72
    65
 73
     2
 40
0.2067
 49
0.1654
 74
     0
 49
-0.0413
 74
     0
  0
LTYPE
  5
84
330
5
100
AcDbSymbolTableRecord
100
AcDbLinetypeTableRecord
  2
DOTTED
 70
     0
  3
Dotted . . . . . . . . . . . . . . . . . . . . 
 72
    65
 73
     2
 40
0.0482
 49
0.0069
 74
     0
 49
-0.0413
 74
     0
  0
LTYPE
  5
85
330
5
100
AcDbSymbolTableRecord
100
AcDbLinetypeTableRecord
  2
DOUBLE_DASH_CHAIN
 70
     0
  3
Double-Dash Chain ______  __  __  ______  __  _
 72
    65
 73
     6
 40
1.240299999999999
 49
0.6614
 74
     0
 49
-0.0827
 74
     0
 49
0.1654
 74
     0
 49
-0.0827
 74
     0
 49
0.1654
 74
     0
 49
-0.0827
 74
     0
  0
LTYPE
  5
87
330
5
100
AcDbSymbolTableRecord
100
AcDbLinetypeTableRecord
  2
DOUBLE_DASH_DOUBLE_DOT
 70
     0
  3
Double-Dash Double-dot _ _ . . _ _ . . _
 72
    65
 73
     8
 40
0.7400000000000001
 49
0.24
 74
     0
 49
-0.06
 74
     0
 49
0.24
 74
     0
 49
-0.06
 74
     0
 49
0.01
 74
     0
 49
-0.06
 74
     0
 49
0.01
 74
     0
 49
-0.06
 74
     0
  0
LTYPE
  5
88
330
5
100
AcDbSymbolTableRecord
100
AcDbLinetypeTableRecord
  2
DOUBLE_DASH_TRIPLE_DOT
 70
     0
  3
Double Dash Triple Dot __ __ . . . __ __ . .
 72
    65
 73
    10
 40
0.8100000000000001
 49
0.24
 74
     0
 49
-0.06
 74
     0
 49
0.24
 74
     0
 49
-0.06
 74
     0
 49
0.01
 74
     0
 49
-0.06
 74
     0
 49
0.01
 74
     0
 49
-0.06
 74
     0
 49
0.01
 74
     0
 49
-0.06
 74
     0
  0
LTYPE
  5
89
330
5
100
AcDbSymbolTableRecord
100
AcDbLinetypeTableRecord
  2
LONG_DASH_DOTTED
 70
     0
  3
Long Dash Dotted ____ . ____ . ____ . ____ . _
 72
    65
 73
     4
 40
0.3543
 49
0.2362
 74
     0
 49
-0.0295
 74
     0
 49
0.0591
 74
     0
 49
-0.0295
 74
     0
  0
LTYPE
  5
8A
330
5
100
AcDbSymbolTableRecord
100
AcDbLinetypeTableRecord
  2
LONG_DASH_DOUBLE_DOT
 70
     0
  3
Long Dash Double Dot ________  .  .  ________  
 72
    65
 73
     6
 40
0.6799999999999999
 49
0.48
 74
     0
 49
-0.06
 74
     0
 49
0.01
 74
     0
 49
-0.06
 74
     0
 49
0.01
 74
     0
 49
-0.06
 74
     0
  0
LTYPE
  5
8B
330
5
100
AcDbSymbolTableRecord
100
AcDbLinetypeTableRecord
  2
LONG_DASH_TRIPLE_DOT
 70
     0
  3
Long Dash Triple Dot ____ ... ____ ... ____
 72
    65
 73
     8
 40
0.3689
 49
0.2362
 74
     0
 49
-0.0295
 74
     0
 49
0.0049
 74
     0
 49
-0.0295
 74
     0
 49
0.0049
 74
     0
 49
-0.0295
 74
     0
 49
0.0049
 74
     0
 49
-0.0295
 74
     0
  0
LTYPE
  5
8C
330
5
100
AcDbSymbolTableRecord
100
AcDbLinetypeTableRecord
  2
BORDER
 70
     0
  3
Border __ __ . __ __ . __ __ . __ __ . __ __ .
 72
    65
 73
     6
 40
1.75
 49
0.5
 74
     0
 49
-0.25
 74
     0
 49
0.5
 74
     0
 49
-0.25
 74
     0
 49
0.0
 74
     0
 49
-0.25
 74
     0
  0
LTYPE
  5
8D
330
5
100
AcDbSymbolTableRecord
100
AcDbLinetypeTableRecord
  2
BORDER2
 70
     0
  3
Border (.5x) __.__.__.__.__.__.__.__.__.__.__.
 72
    65
 73
     6
 40
0.875
 49
0.25
 74
     0
 49
-0.125
 74
     0
 49
0.25
 74
     0
 49
-0.125
 74
     0
 49
0.0
 74
     0
 49
-0.125
 74
     0
  0
LTYPE
  5
8E
330
5
100
AcDbSymbolTableRecord
100
AcDbLinetypeTableRecord
  2
BORDERX2
 70
     0
  3
Border (2x) ____  ____  .  ____  ____  .  ___
 72
    65
 73
     6
 40
3.5
 49
1.0
 74
     0
 49
-0.5
 74
     0
 49
1.0
 74
     0
 49
-0.5
 74
     0
 49
0.0
 74
     0
 49
-0.5
 74
     0
  0
LTYPE
  5
8F
330
5
100
AcDbSymbolTableRecord
100
AcDbLinetypeTableRecord
  2
CENTER
 70
     0
  3
Center ____ _ ____ _ ____ _ ____ _ ____ _ ____
 72
    65
 73
     4
 40
2.0
 49
1.25
 74
     0
 49
-0.25
 74
     0
 49
0.25
 74
     0
 49
-0.25
 74
     0
  0
LTYPE
  5
90
330
5
100
AcDbSymbolTableRecord
100
AcDbLinetypeTableRecord
  2
CENTER2
 70
     0
  3
Center (.5x) ___ _ ___ _ ___ _ ___ _ ___ _ ___
 72
    65
 73
     4
 40
1.125
 49
0.75
 74
     0
 49
-0.125
 74
     0
 49
0.125
 74
     0
 49
-0.125
 74
     0
  0
LTYPE
  5
91
330
5
100
AcDbSymbolTableRecord
100
AcDbLinetypeTableRecord
  2
CENTERX2
 70
     0
  3
Center (2x) ________  __  ________  __  _____
 72
    65
 73
     4
 40
4.0
 49
2.5
 74
     0
 49
-0.5
 74
     0
 49
0.5
 74
     0
 49
-0.5
 74
     0
  0
LTYPE
  5
92
330
5
100
AcDbSymbolTableRecord
100
AcDbLinetypeTableRecord
  2
DASHDOT2
 70
     0
  3
Dash dot (.5x) _._._._._._._._._._._._._._._.
 72
    65
 73
     4
 40
0.5
 49
0.25
 74
     0
 49
-0.125
 74
     0
 49
0.0
 74
     0
 49
-0.125
 74
     0
  0
LTYPE
  5
93
330
5
100
AcDbSymbolTableRecord
100
AcDbLinetypeTableRecord
  2
DASHDOTX2
 70
     0
  3
Dash dot (2x) ____  .  ____  .  ____  .  ___
 72
    65
 73
     4
 40
2.0
 49
1.0
 74
     0
 49
-0.5
 74
     0
 49
0.0
 74
     0
 49
-0.5
 74
     0
  0
LTYPE
  5
95
330
5
100
AcDbSymbolTableRecord
100
AcDbLinetypeTableRecord
  2
DASHED2
 70
     0
  3
Dashed (.5x) _ _ _ _ _ _ _ _ _ _ _ _ _ _ _ _ _
 72
    65
 73
     2
 40
0.375
 49
0.25
 74
     0
 49
-0.125
 74
     0
  0
LTYPE
  5
96
330
5
100
AcDbSymbolTableRecord
100
AcDbLinetypeTableRecord
  2
DASHEDX2
 70
     0
  3
Dashed (2x) ____  ____  ____  ____  ____  ___
 72
    65
 73
     2
 40
1.5
 49
1.0
 74
     0
 49
-0.5
 74
     0
  0
LTYPE
  5
97
330
5
100
AcDbSymbolTableRecord
100
AcDbLinetypeTableRecord
  2
DIVIDE
 70
     0
  3
Divide ____ . . ____ . . ____ . . ____ . . ____
 72
    65
 73
     6
 40
1.25
 49
0.5
 74
     0
 49
-0.25
 74
     0
 49
0.0
 74
     0
 49
-0.25
 74
     0
 49
0.0
 74
     0
 49
-0.25
 74
     0
  0
LTYPE
  5
98
330
5
100
AcDbSymbolTableRecord
100
AcDbLinetypeTableRecord
  2
DIVIDE2
 70
     0
  3
Divide (.5x) __..__..__..__..__..__..__..__.._
 72
    65
 73
     6
 40
0.625
 49
0.25
 74
     0
 49
-0.125
 74
     0
 49
0.0
 74
     0
 49
-0.125
 74
     0
 49
0.0
 74
     0
 49
-0.125
 74
     0
  0
LTYPE
  5
99
330
5
100
AcDbSymbolTableRecord
100
AcDbLinetypeTableRecord
  2
DIVIDEX2
 70
     0
  3
Divide (2x) ________  .  .  ________  .  .  _
 72
    65
 73
     6
 40
2.5
 49
1.0
 74
     0
 49
-0.5
 74
     0
 49
0.0
 74
     0
 49
-0.5
 74
     0
 49
0.0
 74
     0
 49
-0.5
 74
     0
  0
LTYPE
  5
9A
330
5
100
AcDbSymbolTableRecord
100
AcDbLinetypeTableRecord
  2
DOT
 70
     0
  3
Dot . . . . . . . . . . . . . . . . . . . . . .
 72
    65
 73
     2
 40
0.25
 49
0.0
 74
     0
 49
-0.25
 74
     0
  0
LTYPE
  5
9B
330
5
100
AcDbSymbolTableRecord
100
AcDbLinetypeTableRecord
  2
DOT2
 70
     0
  3
Dot (.5x) .....................................
 72
    65
 73
     2
 40
0.125
 49
0.0
 74
     0
 49
-0.125
 74
     0
  0
LTYPE
  5
9C
330
5
100
AcDbSymbolTableRecord
100
AcDbLinetypeTableRecord
  2
DOTX2
 70
     0
  3
Dot (2x) .  .  .  .  .  .  .  .  .  .  .  .  . 
 72
    65
 73
     2
 40
0.5
 49
0.0
 74
     0
 49
-0.5
 74
     0
  0
LTYPE
  5
9D
330
5
100
AcDbSymbolTableRecord
100
AcDbLinetypeTableRecord
  2
HIDDEN
 70
     0
  3
Hidden __ __ __ __ __ __ __ __ __ __ __ __ __ _
 72
    65
 73
     2
 40
0.375
 49
0.25
 74
     0
 49
-0.125
 74
     0
  0
LTYPE
  5
9E
330
5
100
AcDbSymbolTableRecord
100
AcDbLinetypeTableRecord
  2
HIDDEN2
 70
     0
  3
Hidden (.5x) _ _ _ _ _ _ _ _ _ _ _ _ _ _ _ _ _
 72
    65
 73
     2
 40
0.1875
 49
0.125
 74
     0
 49
-0.0625
 74
     0
  0
LTYPE
  5
9F
330
5
100
AcDbSymbolTableRecord
100
AcDbLinetypeTableRecord
  2
HIDDENX2
 70
     0
  3
Hidden (2x) ____ ____ ____ ____ ____ ____ ____
 72
    65
 73
     2
 40
0.75
 49
0.5
 74
     0
 49
-0.25
 74
     0
  0
LTYPE
  5
A0
330
5
100
AcDbSymbolTableRecord
100
AcDbLinetypeTableRecord
  2
PHANTOM
 70
     0
  3
Phantom ______  __  __  ______  __  __  ______
 72
    65
 73
     6
 40
2.5
 49
1.25
 74
     0
 49
-0.25
 74
     0
 49
0.25
 74
     0
 49
-0.25
 74
     0
 49
0.25
 74
     0
 49
-0.25
 74
     0
  0
LTYPE
  5
A1
330
5
100
AcDbSymbolTableRecord
100
AcDbLinetypeTableRecord
  2
PHANTOM2
 70
     0
  3
Phantom (.5x) ___ _ _ ___ _ _ ___ _ _ ___ _ _
 72
    65
 73
     6
 40
1.25
 49
0.625
 74
     0
 49
-0.125
 74
     0
 49
0.125
 74
     0
 49
-0.125
 74
     0
 49
0.125
 74
     0
 49
-0.125
 74
     0
  0
LTYPE
  5
A2
330
5
100
AcDbSymbolTableRecord
100
AcDbLinetypeTableRecord
  2
PHANTOMX2
 70
     0
  3
Phantom (2x) ____________    ____    ____   _
 72
    65
 73
     6
 40
5.0
 49
2.5
 74
     0
 49
-0.5
 74
     0
 49
0.5
 74
     0
 49
-0.5
 74
     0
 49
0.5
 74
     0
 49
-0.5
 74
     0
  0
LTYPE
  5
A3
330
5
100
AcDbSymbolTableRecord
100
AcDbLinetypeTableRecord
  2
ACAD_ISO02W100
 70
     0
  3
ISO dash __ __ __ __ __ __ __ __ __ __ __ __ __
 72
    65
 73
     2
 40
0.59
 49
0.47
 74
     0
 49
-0.12
 74
     0
  0
LTYPE
  5
A4
330
5
100
AcDbSymbolTableRecord
100
AcDbLinetypeTableRecord
  2
ACAD_ISO03W100
 70
     0
  3
ISO dash space __    __    __    __    __    __
 72
    65
 73
     2
 40
1.179999999999999
 49
0.47
 74
     0
 49
-0.71
 74
     0
  0
LTYPE
  5
A5
330
5
100
AcDbSymbolTableRecord
100
AcDbLinetypeTableRecord
  2
ACAD_ISO04W100
 70
     0
  3
ISO long-dash dot ____ . ____ . ____ . ____ . _
 72
    65
 73
     4
 40
1.179999999999999
 49
0.9399999999999998
 74
     0
 49
-0.12
 74
     0
 49
0.0
 74
     0
 49
-0.12
 74
     0
  0
LTYPE
  5
A6
330
5
100
AcDbSymbolTableRecord
100
AcDbLinetypeTableRecord
  2
ACAD_ISO05W100
 70
     0
  3
ISO long-dash double-dot ____ .. ____ .. ____ .
 72
    65
 73
     6
 40
1.299999999999999
 49
0.9399999999999998
 74
     0
 49
-0.12
 74
     0
 49
0.0
 74
     0
 49
-0.12
 74
     0
 49
0.0
 74
     0
 49
-0.12
 74
     0
  0
LTYPE
  5
A7
330
5
100
AcDbSymbolTableRecord
100
AcDbLinetypeTableRecord
  2
ACAD_ISO06W100
 70
     0
  3
ISO long-dash triple-dot ____ ... ____ ... ____
 72
    65
 73
     8
 40
1.419999999999999
 49
0.9399999999999998
 74
     0
 49
-0.12
 74
     0
 49
0.0
 74
     0
 49
-0.12
 74
     0
 49
0.0
 74
     0
 49
-0.12
 74
     0
 49
0.0
 74
     0
 49
-0.12
 74
     0
  0
LTYPE
  5
A8
330
5
100
AcDbSymbolTableRecord
100
AcDbLinetypeTableRecord
  2
ACAD_ISO07W100
 70
     0
  3
ISO dot . . . . . . . . . . . . . . . . . . . .
 72
    65
 73
     2
 40
0.12
 49
0.0
 74
     0
 49
-0.12
 74
     0
  0
LTYPE
  5
A9
330
5
100
AcDbSymbolTableRecord
100
AcDbLinetypeTableRecord
  2
ACAD_ISO08W100
 70
     0
  3
ISO long-dash short-dash ____ __ ____ __ ____ _
 72
    65
 73
     4
 40
0.95
 49
0.47
 74
     0
 49
-0.12
 74
     0
 49
0.24
 74
     0
 49
-0.12
 74
     0
  0
LTYPE
  5
AA
330
5
100
AcDbSymbolTableRecord
100
AcDbLinetypeTableRecord
  2
ACAD_ISO09W100
 70
     0
  3
ISO long-dash double-short-dash ____ __ __ ____
 72
    65
 73
     6
 40
1.31
 49
0.47
 74
     0
 49
-0.12
 74
     0
 49
0.24
 74
     0
 49
-0.12
 74
     0
 49
0.24
 74
     0
 49
-0.12
 74
     0
  0
LTYPE
  5
AB
330
5
100
AcDbSymbolTableRecord
100
AcDbLinetypeTableRecord
  2
ACAD_ISO10W100
 70
     0
  3
ISO dash dot __ . __ . __ . __ . __ . __ . __ .
 72
    65
 73
     4
 40
0.71
 49
0.47
 74
     0
 49
-0.12
 74
     0
 49
0.0
 74
     0
 49
-0.12
 74
     0
  0
LTYPE
  5
AC
330
5
100
AcDbSymbolTableRecord
100
AcDbLinetypeTableRecord
  2
ACAD_ISO11W100
 70
     0
  3
ISO double-dash dot __ __ . __ __ . __ __ . __ 
 72
    65
 73
     6
 40
1.299999999999999
 49
0.47
 74
     0
 49
-0.12
 74
     0
 49
0.47
 74
     0
 49
-0.12
 74
     0
 49
0.0
 74
     0
 49
-0.12
 74
     0
  0
LTYPE
  5
AD
330
5
100
AcDbSymbolTableRecord
100
AcDbLinetypeTableRecord
  2
ACAD_ISO12W100
 70
     0
  3
ISO dash double-dot __ . . __ . . __ . . __ . .
 72
    65
 73
     6
 40
0.8299999999999998
 49
0.47
 74
     0
 49
-0.12
 74
     0
 49
0.0
 74
     0
 49
-0.12
 74
     0
 49
0.0
 74
     0
 49
-0.12
 74
     0
  0
LTYPE
  5
AE
330
5
100
AcDbSymbolTableRecord
100
AcDbLinetypeTableRecord
  2
ACAD_ISO13W100
 70
     0
  3
ISO double-dash double-dot __ __ . . __ __ . . 
 72
    65
 73
     8
 40
1.419999999999999
 49
0.47
 74
     0
 49
-0.12
 74
     0
 49
0.47
 74
     0
 49
-0.12
 74
     0
 49
0.0
 74
     0
 49
-0.12
 74
     0
 49
0.0
 74
     0
 49
-0.12
 74
     0
  0
LTYPE
  5
AF
330
5
100
AcDbSymbolTableRecord
100
AcDbLinetypeTableRecord
  2
ACAD_ISO14W100
 70
     0
  3
ISO dash triple-dot __ . . . __ . . . __ . . . 
 72
    65
 73
     8
 40
0.95
 49
0.47
 74
     0
 49
-0.12
 74
     0
 49
0.0
 74
     0
 49
-0.12
 74
     0
 49
0.0
 74
     0
 49
-0.12
 74
     0
 49
0.0
 74
     0
 49
-0.12
 74
     0
  0
LTYPE
  5
B0
330
5
100
AcDbSymbolTableRecord
100
AcDbLinetypeTableRecord
  2
ACAD_ISO15W100
 70
     0
  3
ISO double-dash triple-dot __ __ . . . __ __ . 
 72
    65
 73
    10
 40
1.539999999999999
 49
0.47
 74
     0
 49
-0.12
 74
     0
 49
0.47
 74
     0
 49
-0.12
 74
     0
 49
0.0
 74
     0
 49
-0.12
 74
     0
 49
0.0
 74
     0
 49
-0.12
 74
     0
 49
0.0
 74
     0
 49
-0.12
 74
     0
  0
LTYPE
  5
B3
330
5
100
AcDbSymbolTableRecord
100
AcDbLinetypeTableRecord
  2
FENCELINE1
 70
     0
  3
Fenceline circle ----0-----0----0-----0----0---
 72
    65
 73
     4
 40
1.45
 49
0.25
 74
     0
 49
-0.1
 74
     4
 75
   133
340
B2
 46
0.1
 50
0.0
 44
-0.1
 45
0.0
 49
-0.1
 74
     0
 49
1.0
 74
     0
  0
LTYPE
  5
B4
330
5
100
AcDbSymbolTableRecord
100
AcDbLinetypeTableRecord
  2
FENCELINE2
 70
     0
  3
Fenceline square ----[]-----[]----[]-----[]----
 72
    65
 73
     4
 40
1.45
 49
0.25
 74
     0
 49
-0.1
 74
     4
 75
   132
340
B2
 46
0.1
 50
0.0
 44
-0.1
 45
0.0
 49
-0.1
 74
     0
 49
1.0
 74
     0
  0
LTYPE
  5
B5
330
5
100
AcDbSymbolTableRecord
100
AcDbLinetypeTableRecord
  2
TRACKS
 70
     0
  3
Tracks -|-|-|-|-|-|-|-|-|-|-|-|-|-|-|-|-|-|-|-|
 72
    65
 73
     2
 40
0.3
 49
0.15
 74
     4
 75
   130
340
B2
 46
0.25
 50
0.0
 44
0.0
 45
0.0
 49
0.15
 74
     0
  0
LTYPE
  5
B6
330
5
100
AcDbSymbolTableRecord
100
AcDbLinetypeTableRecord
  2
BATTING
 70
     0
  3
Batting SSSSSSSSSSSSSSSSSSSSSSSSSSSSSSSSSSSSSSS
 72
    65
 73
     4
 40
0.4001000000000001
 49
0.0001
 74
     0
 49
-0.1
 74
     4
 75
   134
340
B2
 46
0.1
 50
0.0
 44
-0.1
 45
0.0
 49
-0.2
 74
     4
 75
   134
340
B2
 46
0.1
 50
180.0
 44
0.1
 45
0.0
 49
-0.1
 74
     0
  0
LTYPE
  5
B7
330
5
100
AcDbSymbolTableRecord
100
AcDbLinetypeTableRecord
  2
HOT_WATER_SUPPLY
 70
     0
  3
Hot water supply ---- HW ---- HW ---- HW ----
 72
    65
 73
     3
 40
0.9
 49
0.5
 74
     0
 49
-0.2
 74
     2
 75
     0
340
55
 46
0.1
 50
0.0
 44
-0.1
 45
-0.05
  9
HW
 49
-0.2
 74
     0
  0
LTYPE
  5
B8
330
5
100
AcDbSymbolTableRecord
100
AcDbLinetypeTableRecord
  2
GAS_LINE
 70
     0
  3
Gas line ----GAS----GAS----GAS----GAS----GAS---
 72
    65
 73
     3
 40
0.95
 49
0.5
 74
     0
 49
-0.2
 74
     2
 75
     0
340
55
 46
0.1
 50
0.0
 44
-0.1
 45
-0.05
  9
GAS
 49
-0.25
 74
     0
  0
LTYPE
  5
B9
330
5
100
AcDbSymbolTableRecord
100
AcDbLinetypeTableRecord
  2
ZIGZAG
 70
     0
  3
Zig zag /\/\/\/\/\/\/\/\/\/\/\/\/\/\/\/\/\/\/\/
 72
    65
 73
     4
 40
0.8001000000000001
 49
0.0001
 74
     0
 49
-0.2
 74
     4
 75
   131
340
B2
 46
0.2
 50
0.0
 44
-0.2
 45
0.0
 49
-0.4
 74
     4
 75
   131
340
B2
 46
0.2
 50
180.0
 44
0.2
 45
0.0
 49
-0.2
 74
     0
  0
ENDTAB
  0
TABLE
  2
LAYER
  5
2
330
0
100
AcDbSymbolTable
 70
     4
  0
LAYER
  5
54
330
2
100
AcDbSymbolTableRecord
100
AcDbLayerTableRecord
  2
0
 70
     0
 62
     7
  6
Continuous
370
    -3
390
F
  0
LAYER
  5
BF
330
2
100
AcDbSymbolTableRecord
100
AcDbLayerTableRecord
  2
Border (ANSI)
 70
     0
 62
     7
  6
Continuous
370
    25
390
F
  0
LAYER
  5
D1
330
2
100
AcDbSymbolTableRecord
100
AcDbLayerTableRecord
  2
Visible (ANSI)
 70
     0
 62
     7
  6
Continuous
370
    18
390
F
  0
LAYER
  5
D2
330
2
100
AcDbSymbolTableRecord
100
AcDbLayerTableRecord
  2
Visible Narrow (ANSI)
 70
     0
 62
     7
  6
Continuous
370
     9
390
F
  0
ENDTAB
  0
TABLE
  2
STYLE
  5
3
330
0
100
AcDbSymbolTable
 70
     5
  0
STYLE
  5
55
330
3
100
AcDbSymbolTableRecord
100
AcDbTextStyleTableRecord
  2
Standard
 70
     0
 40
0.0
 41
0.899999976158142
 50
0.0
 71
     0
 42
0.2
  3
txt
  4

  0
STYLE
  5
5A
330
3
100
AcDbSymbolTableRecord
100
AcDbTextStyleTableRecord
  2
Annotative
 70
     0
 40
0.0
 41
1.0
 50
0.0
 71
     0
 42
0.2
  3
txt
  4

1001
AcadAnnotative
1000
AnnotativeData
1002
{
1070
     1
1070
     1
1002
}
  0
STYLE
  5
B2
330
3
100
AcDbSymbolTableRecord
100
AcDbTextStyleTableRecord
  2

 70
     1
 40
0.0
 41
1.0
 50
0.0
 71
     0
 42
0.2
  3
ltypeshp.shx
  4

  0
STYLE
  5
D6
330
3
100
AcDbSymbolTableRecord
100
AcDbTextStyleTableRecord
  2
Label Text (ANSI)
 70
     0
 40
0.0
 41
0.899999976158142
 50
0.0
 71
     0
 42
0.2
  3
Txt.shx
  4

  0
STYLE
  5
D7
330
3
100
AcDbSymbolTableRecord
100
AcDbTextStyleTableRecord
  2
Note Text (ANSI)
 70
     0
 40
0.0
 41
0.899999976158142
 50
0.0
 71
     0
 42
0.2
  3
Txt.shx
  4

  0
ENDTAB
  0
TABLE
  2
VIEW
  5
6
330
0
100
AcDbSymbolTable
 70
     0
  0
ENDTAB
  0
TABLE
  2
UCS
  5
7
330
0
100
AcDbSymbolTable
 70
     0
  0
ENDTAB
  0
TABLE
  2
APPID
  5
9
330
0
100
AcDbSymbolTable
 70
     4
  0
APPID
  5
56
330
9
100
AcDbSymbolTableRecord
100
AcDbRegAppTableRecord
  2
ACAD
 70
     0
  0
APPID
  5
5E
330
9
100
AcDbSymbolTableRecord
100
AcDbRegAppTableRecord
  2
AcadAnnotative
 70
     0
  0
APPID
  5
23F
330
9
100
AcDbSymbolTableRecord
100
AcDbRegAppTableRecord
  2
ACAD_MLEADERVER
 70
     0
  0
APPID
  5
256
330
9
100
AcDbSymbolTableRecord
100
AcDbRegAppTableRecord
  2
ACAD_NAV_VCDISPLAY
 70
     0
  0
ENDTAB
  0
TABLE
  2
DIMSTYLE
  5
A
330
0
100
AcDbSymbolTable
 70
    21
100
AcDbDimStyleTable
 71
     0
  0
DIMSTYLE
105
58
330
A
100
AcDbSymbolTableRecord
100
AcDbDimStyleTableRecord
  2
Standard
 70
     0
340
55
  0
DIMSTYLE
105
59
330
A
100
AcDbSymbolTableRecord
100
AcDbDimStyleTableRecord
  2
Annotative
 70
     0
340
55
1001
AcadAnnotative
1000
AnnotativeData
1002
{
1070
     1
1070
     1
1002
}
  0
DIMSTYLE
105
D8
330
A
100
AcDbSymbolTableRecord
100
AcDbDimStyleTableRecord
  2
Architectural (ANSI)
 70
     0
 41
0.0984251946210861
 43
0.2362204724409449
 44
0.125
 45
0.00000001
 46
0.3937007874015748
 78
     3
 79
     3
140
0.0799999982118607
146
1.500000119209289
147
0.031496062992126
171
     1
176
   256
177
   256
178
     5
272
     2
274
     1
276
     2
277
     4
284
    12
285
     4
286
    12
340
D7
371
    -1
372
    -1
  0
DIMSTYLE
105
D9
330
A
100
AcDbSymbolTableRecord
100
AcDbDimStyleTableRecord
  2
Architectural (ANSI)$7
 70
     0
 41
0.0984251946210861
 43
0.2362204724409449
 44
0.125
 45
0.00000001
 46
0.3937007874015748
 78
     3
 79
     3
140
0.0799999982118607
146
1.500000119209289
147
0.031496062992126
171
     1
176
     5
177
   256
178
     5
272
     2
274
     1
276
     2
277
     4
284
    12
285
     4
286
    12
340
D7
371
    -1
372
    -1
  0
DIMSTYLE
105
DA
330
A
100
AcDbSymbolTableRecord
100
AcDbDimStyleTableRecord
  2
Default - Fraction (ANSI)
 70
     0
 41
0.0984251946210861
 43
0.2362204724409449
 44
0.125
 45
0.00000001
 46
0.3937007874015748
 79
     3
140
0.0799999982118607
146
1.500000119209289
147
0.031496062992126
171
     1
176
   256
177
   256
178
     5
272
     2
274
     1
276
     2
277
     5
284
    12
285
     4
286
    12
340
D7
371
    -1
372
    -1
  0
DIMSTYLE
105
DB
330
A
100
AcDbSymbolTableRecord
100
AcDbDimStyleTableRecord
  2
Default - Fraction (ANSI)$7
 70
     0
 41
0.0984251946210861
 43
0.2362204724409449
 44
0.125
 45
0.00000001
 46
0.3937007874015748
 79
     3
140
0.0799999982118607
146
1.500000119209289
147
0.031496062992126
171
     1
176
     5
177
   256
178
     5
272
     2
274
     1
276
     2
277
     5
284
    12
285
     4
286
    12
340
D7
371
    -1
372
    -1
  0
DIMSTYLE
105
DC
330
A
100
AcDbSymbolTableRecord
100
AcDbDimStyleTableRecord
  2
Default - mm (ANSI)
 70
     0
 41
0.0984251946210861
 42
0.063
 43
0.2362204724409449
 44
0.125
 45
0.00000001
 46
0.3937007874015748
 73
     0
 78
     4
 79
     1
140
0.0799999982118607
143
1.0
144
25.4
146
1.500000119209289
147
0.031496062992126
171
     1
176
   256
177
   256
178
     5
179
     1
271
     2
272
     2
274
     1
284
     4
285
     4
340
D7
371
    -1
372
    -1
  0
DIMSTYLE
105
DD
330
A
100
AcDbSymbolTableRecord
100
AcDbDimStyleTableRecord
  2
Default - mm (ANSI)$7
 70
     0
 41
0.0984251946210861
 42
0.063
 43
0.2362204724409449
 44
0.125
 45
0.00000001
 46
0.3937007874015748
 73
     0
 78
     4
 79
     1
140
0.0799999982118607
143
1.0
144
25.4
146
1.500000119209289
147
0.031496062992126
171
     1
176
     5
177
   256
178
     5
179
     1
271
     2
272
     2
274
     1
284
     4
285
     4
340
D7
371
    -1
372
    -1
  0
DIMSTYLE
105
DE
330
A
100
AcDbSymbolTableRecord
100
AcDbDimStyleTableRecord
  2
Default - mm [in] (ANSI)
 70
     0
  4
 in
 41
0.0984251946210861
 42
0.063
 43
0.25
 44
0.125
 45
0.00000001
 46
0.3937007874015748
 73
     0
 78
     4
 79
     1
140
0.0799999982118607
143
0.03937
144
25.4
146
1.500000119209289
147
0.031496062992126
170
     1
171
     3
176
   256
177
   256
178
     5
179
     1
271
     2
272
     2
274
     3
284
     4
285
     4
286
     4
340
D7
371
    -1
372
    -1
  0
DIMSTYLE
105
DF
330
A
100
AcDbSymbolTableRecord
100
AcDbDimStyleTableRecord
  2
Default - mm [in] (ANSI)$7
 70
     0
  4
 in
 41
0.0984251946210861
 42
0.063
 43
0.25
 44
0.125
 45
0.00000001
 46
0.3937007874015748
 73
     0
 78
     4
 79
     1
140
0.0799999982118607
143
0.03937
144
25.4
146
1.500000119209289
147
0.031496062992126
170
     1
171
     3
176
     5
177
   256
178
     5
179
     1
271
     2
272
     2
274
     3
284
     4
285
     4
286
     4
340
D7
371
    -1
372
    -1
  0
DIMSTYLE
105
E0
330
A
100
AcDbSymbolTableRecord
100
AcDbDimStyleTableRecord
  2
Default (ANSI)
 70
     0
 41
0.0984251946210861
 43
0.2362204724409449
 44
0.125
 45
0.00000001
 46
0.3937007874015748
 78
     4
 79
     1
140
0.0799999982118607
146
1.500000119209289
147
0.031496062992126
171
     1
176
   256
177
   256
178
     5
271
     2
272
     2
274
     1
284
     4
285
     4
340
D7
371
    -1
372
    -1
  0
DIMSTYLE
105
E1
330
A
100
AcDbSymbolTableRecord
100
AcDbDimStyleTableRecord
  2
Default (ANSI)$7
 70
     0
 41
0.0984251946210861
 43
0.2362204724409449
 44
0.125
 45
0.00000001
 46
0.3937007874015748
 78
     4
 79
     1
140
0.0799999982118607
146
1.500000119209289
147
0.031496062992126
171
     1
176
     5
177
   256
178
     5
271
     2
272
     2
274
     1
284
     4
285
     4
340
D7
371
    -1
372
    -1
  0
DIMSTYLE
105
E2
330
A
100
AcDbSymbolTableRecord
100
AcDbDimStyleTableRecord
  2
SST-STANDARD DIMEN
 70
     0
 41
0.0984251946210861
 43
0.2362204724409449
 44
0.062
 45
0.00000001
 46
0.3937007874015748
140
0.0799999982118607
147
0.031496062992126
171
     1
176
     5
177
     5
178
     5
271
     3
272
     3
274
     1
286
    12
340
D7
371
     9
372
     9
  0
DIMSTYLE
105
E3
330
A
100
AcDbSymbolTableRecord
100
AcDbDimStyleTableRecord
  2
SST-STANDARD DIMEN$7
 70
     0
 41
0.0984251946210861
 43
0.2362204724409449
 44
0.062
 45
0.00000001
 46
0.3937007874015748
140
0.0799999982118607
147
0.031496062992126
171
     1
176
     5
177
     5
178
     5
271
     3
272
     3
274
     1
286
    12
340
D7
371
    -1
372
     9
  0
DIMSTYLE
105
E4
330
A
100
AcDbSymbolTableRecord
100
AcDbDimStyleTableRecord
  2
SST-STANDARD DIMENSION-METRIC
 70
     0
 41
0.0984251946210861
 43
0.2362204724409449
 44
0.062
 45
0.00000001
 46
0.3937007874015748
140
0.0799999982118607
143
0.03937
144
25.4
147
0.031496062992126
171
     3
176
     5
177
     5
178
     5
271
     1
272
     1
274
     3
286
    12
340
D7
371
    25
372
    25
  0
DIMSTYLE
105
E5
330
A
100
AcDbSymbolTableRecord
100
AcDbDimStyleTableRecord
  2
SST-STANDARD DIMENSION-METRIC$7
 70
     0
 41
0.0984251946210861
 43
0.2362204724409449
 44
0.062
 45
0.00000001
 46
0.3937007874015748
140
0.0799999982118607
143
0.03937
144
25.4
147
0.031496062992126
171
     3
176
     5
177
     5
178
     5
271
     1
272
     1
274
     3
286
    12
340
D7
371
    -1
372
    25
  0
DIMSTYLE
105
E6
330
A
100
AcDbSymbolTableRecord
100
AcDbDimStyleTableRecord
  2
SST-STANDARD DIMENSIONS-FRACTION
 70
     0
 41
0.0984251946210861
 43
0.2362204724409449
 44
0.062
 45
0.00000001
 46
0.3937007874015748
 78
     1
140
0.0799999982118607
147
0.031496062992126
171
     1
176
     5
177
     5
178
     5
271
     5
272
     3
274
     1
276
     2
277
     5
286
    12
340
D7
371
     9
372
     9
  0
DIMSTYLE
105
E7
330
A
100
AcDbSymbolTableRecord
100
AcDbDimStyleTableRecord
  2
SST-STANDARD DIMENSIONS-FRACTION$7
 70
     0
 41
0.0984251946210861
 43
0.2362204724409449
 44
0.062
 45
0.00000001
 46
0.3937007874015748
 78
     1
140
0.0799999982118607
147
0.031496062992126
171
     1
176
     5
177
     5
178
     5
271
     5
272
     3
274
     1
276
     2
277
     5
286
    12
340
D7
371
    -1
372
     9
  0
DIMSTYLE
105
E8
330
A
100
AcDbSymbolTableRecord
100
AcDbDimStyleTableRecord
  2
Alternate (ANSI)
 70
     0
 41
0.0979999974370003
340
55
342
E9
  0
DIMSTYLE
105
FB
330
A
100
AcDbSymbolTableRecord
100
AcDbDimStyleTableRecord
  2
Datum (ANSI)
 70
     0
 41
0.0979999974370003
340
55
342
E9
  0
DIMSTYLE
105
10A
330
A
100
AcDbSymbolTableRecord
100
AcDbDimStyleTableRecord
  2
Large (ANSI)
 70
     0
 41
0.1959999948740005
340
55
342
E9
  0
ENDTAB
  0
TABLE
  2
BLOCK_RECORD
  5
1
330
0
100
AcDbSymbolTable
 70
     5
  0
BLOCK_RECORD
  5
6C
330
1
100
AcDbSymbolTableRecord
100
AcDbBlockTableRecord
  2
*Model_Space
340
6F
  0
BLOCK_RECORD
  5
68
330
1
100
AcDbSymbolTableRecord
100
AcDbBlockTableRecord
  2
*Paper_Space
340
6B
  0
BLOCK_RECORD
  5
70
330
1
100
AcDbSymbolTableRecord
100
AcDbBlockTableRecord
  2
*Paper_Space0
340
73
  0
BLOCK_RECORD
  5
E9
330
1
100
AcDbSymbolTableRecord
100
AcDbBlockTableRecord
  2
_Closed
340
0
  0
BLOCK_RECORD
  5
F0
330
1
100
AcDbSymbolTableRecord
100
AcDbBlockTableRecord
  2
DatumFilled45
340
0
  0
BLOCK_RECORD
  5
FC
330
1
100
AcDbSymbolTableRecord
100
AcDbBlockTableRecord
  2
Filled-1
340
0
  0
BLOCK_RECORD
  5
10B
330
1
100
AcDbSymbolTableRecord
100
AcDbBlockTableRecord
  2
Borders SST-LAND
340
0
102
{BLKREFS
331
112
102
}
  0
ENDTAB
  0
ENDSEC
  0
SECTION
  2
BLOCKS
  0
BLOCK
  5
6D
330
6C
100
AcDbEntity
  8
0
100
AcDbBlockBegin
  2
*Model_Space
 70
     0
 10
0.0
 20
0.0
 30
0.0
  3
*Model_Space
  1

  0
ENDBLK
  5
6E
330
6C
100
AcDbEntity
  8
0
100
AcDbBlockEnd
  0
BLOCK
  5
69
330
68
100
AcDbEntity
 67
     1
  8
0
100
AcDbBlockBegin
  2
*Paper_Space
 70
     0
 10
0.0
 20
0.0
 30
0.0
  3
*Paper_Space
  1

  0
ENDBLK
  5
6A
330
68
100
AcDbEntity
 67
     1
  8
0
100
AcDbBlockEnd
  0
BLOCK
  5
71
330
70
100
AcDbEntity
 67
     1
  8
0
100
AcDbBlockBegin
  2
*Paper_Space0
 70
     0
 10
0.0
 20
0.0
 30
0.0
  3
*Paper_Space0
  1

  0
ENDBLK
  5
72
330
70
100
AcDbEntity
 67
     1
  8
0
100
AcDbBlockEnd
  0
BLOCK
  5
EE
330
E9
100
AcDbEntity
  8
0
100
AcDbBlockBegin
  2
_Closed
 70
     0
 10
0.0
 20
0.0
 30
0.0
  3
_Closed
  1

  0
LINE
  5
EA
330
E9
100
AcDbEntity
  8
0
  6
ByBlock
 62
     0
370
    -2
100
AcDbLine
 10
-1.0
 20
0.1666666666666666
 30
0.0
 11
0.0
 21
0.0
 31
0.0
  0
LINE
  5
EB
330
E9
100
AcDbEntity
  8
0
  6
ByBlock
 62
     0
370
    -2
100
AcDbLine
 10
0.0
 20
0.0
 30
0.0
 11
-1.0
 21
-0.1666666666666666
 31
0.0
  0
LINE
  5
EC
330
E9
100
AcDbEntity
  8
0
  6
ByBlock
 62
     0
370
    -2
100
AcDbLine
 10
-1.0
 20
0.1666666666666666
 30
0.0
 11
-1.0
 21
-0.1666666666666666
 31
0.0
  0
LINE
  5
ED
330
E9
100
AcDbEntity
  8
0
  6
ByBlock
 62
     0
370
    -2
100
AcDbLine
 10
0.0
 20
0.0
 30
0.0
 11
-1.0
 21
0.0
 31
0.0
  0
ENDBLK
  5
EF
330
E9
100
AcDbEntity
  8
0
100
AcDbBlockEnd
  0
BLOCK
  5
F1
330
F0
100
AcDbEntity
  8
0
100
AcDbBlockBegin
  2
DatumFilled45
 70
     0
 10
0.0
 20
0.0
 30
0.0
  3
DatumFilled45
  1

  0
POLYLINE
  5
F3
330
F0
100
AcDbEntity
  8
0
 62
     0
100
AcDb2dPolyline
 66
     1
 10
0.0
 20
0.0
 30
0.0
 70
   128
  0
VERTEX
  5
F4
330
F3
100
AcDbEntity
  8
0
 62
     0
100
AcDbVertex
100
AcDb2dVertex
 10
0.0
 20
0.9999999999999998
 30
0.0
  0
VERTEX
  5
F5
330
F3
100
AcDbEntity
  8
0
 62
     0
100
AcDbVertex
100
AcDb2dVertex
 10
0.0
 20
-0.9999999999999998
 30
0.0
  0
VERTEX
  5
F7
330
F3
100
AcDbEntity
  8
0
 62
     0
100
AcDbVertex
100
AcDb2dVertex
 10
-0.9999999999999998
 20
0.0
 30
0.0
  0
VERTEX
  5
F8
330
F3
100
AcDbEntity
  8
0
 62
     0
100
AcDbVertex
100
AcDb2dVertex
 10
0.0
 20
0.9999999999999998
 30
0.0
  0
SEQEND
  5
F6
330
F3
100
AcDbEntity
  8
0
 62
     0
  0
SOLID
  5
FA
330
F0
100
AcDbEntity
  8
0
 62
     0
100
AcDbTrace
 10
0.0
 20
0.9999999999999998
 30
0.0
 11
0.0
 21
-0.9999999999999998
 31
0.0
 12
-0.9999999999999998
 22
0.0
 32
0.0
 13
0.0
 23
0.9999999999999998
 33
0.0
  0
ENDBLK
  5
F2
330
F0
100
AcDbEntity
  8
0
100
AcDbBlockEnd
  0
BLOCK
  5
FD
330
FC
100
AcDbEntity
  8
0
100
AcDbBlockBegin
  2
Filled-1
 70
     0
 10
0.0
 20
0.0
 30
0.0
  3
Filled-1
  1

  0
LINE
  5
FF
330
FC
100
AcDbEntity
  8
0
 62
     0
100
AcDbLine
 10
-0.9999999999999998
 20
0.0
 30
0.0
 11
0.0
 21
0.0
 31
0.0
  0
POLYLINE
  5
100
330
FC
100
AcDbEntity
  8
0
 62
     0
100
AcDb2dPolyline
 66
     1
 10
0.0
 20
0.0
 30
0.0
 70
   128
  0
VERTEX
  5
101
330
100
100
AcDbEntity
  8
0
 62
     0
100
AcDbVertex
100
AcDb2dVertex
 10
-0.9999999999999998
 20
-0.0994897959183674
 30
0.0
  0
VERTEX
  5
102
330
100
100
AcDbEntity
  8
0
 62
     0
100
AcDbVertex
100
AcDb2dVertex
 10
0.0
 20
0.0
 30
0.0
  0
VERTEX
  5
104
330
100
100
AcDbEntity
  8
0
 62
     0
100
AcDbVertex
100
AcDb2dVertex
 10
-0.9999999999999998
 20
0.0994897959183674
 30
0.0
  0
VERTEX
  5
105
330
100
100
AcDbEntity
  8
0
 62
     0
100
AcDbVertex
100
AcDb2dVertex
 10
-0.9999999999999998
 20
-0.0994897959183674
 30
0.0
  0
SEQEND
  5
103
330
100
100
AcDbEntity
  8
0
 62
     0
  0
SOLID
  5
106
330
FC
100
AcDbEntity
  8
0
 62
     0
100
AcDbTrace
 10
-0.9999999999999998
 20
-0.0994897959183674
 30
0.0
 11
0.0
 21
0.0
 31
0.0
 12
-0.9999999999999998
 22
0.0994897959183674
 32
0.0
 13
-0.9999999999999998
 23
-0.0994897959183674
 33
0.0
  0
LINE
  5
107
330
FC
100
AcDbEntity
  8
0
 62
     0
100
AcDbLine
 10
-0.9999999999999998
 20
-0.0994897959183674
 30
0.0
 11
0.0
 21
0.0
 31
0.0
  0
LINE
  5
108
330
FC
100
AcDbEntity
  8
0
 62
     0
100
AcDbLine
 10
0.0
 20
0.0
 30
0.0
 11
-0.9999999999999998
 21
0.0994897959183674
 31
0.0
  0
LINE
  5
109
330
FC
100
AcDbEntity
  8
0
 62
     0
100
AcDbLine
 10
-0.9999999999999998
 20
0.0994897959183674
 30
0.0
 11
-0.9999999999999998
 21
-0.0994897959183674
 31
0.0
  0
ENDBLK
  5
FE
330
FC
100
AcDbEntity
  8
0
100
AcDbBlockEnd
  0
BLOCK
  5
10C
330
10B
100
AcDbEntity
  8
0
100
AcDbBlockBegin
  2
Borders SST-LAND
 70
     0
 10
0.0
 20
0.0
 30
0.0
  3
Borders SST-LAND
  1

  0
LINE
  5
10E
330
10B
100
AcDbEntity
  8
Border (ANSI)
 62
     7
370
    50
100
AcDbLine
 10
0.4999999999999999
 20
16.49999999999999
 30
0.0
 11
0.500000000000005
 21
0.4999999999999984
 31
0.0
  0
LINE
  5
10F
330
10B
100
AcDbEntity
  8
Border (ANSI)
 62
     7
370
    50
100
AcDbLine
 10
21.5
 20
16.49999999999999
 30
0.0
 11
0.4999999999999984
 21
16.49999999999999
 31
0.0
  0
LINE
  5
110
330
10B
100
AcDbEntity
  8
Border (ANSI)
 62
     7
370
    50
100
AcDbLine
 10
21.5
 20
0.4999999999999999
 30
0.0
 11
21.5
 21
16.49999999999999
 31
0.0
  0
LINE
  5
111
330
10B
100
AcDbEntity
  8
Border (ANSI)
 62
     7
370
    50
100
AcDbLine
 10
0.500000000000005
 20
0.4999999999999999
 30
0.0
 11
21.5
 21
0.4999999999999999
 31
0.0
  0
ENDBLK
  5
10D
330
10B
100
AcDbEntity
  8
0
100
AcDbBlockEnd
  0
ENDSEC
  0
SECTION
  2
ENTITIES
  0
INSERT
  5
112
330
6C
100
AcDbEntity
  8
0
100
AcDbBlockReference
  2
Borders SST-LAND
 10
0.0
 20
0.0
 30
0.0
  0
LINE
  5
113
330
6C
100
AcDbEntity
  8
Visible (ANSI)
100
AcDbLine
 10
10.00795990926979
 20
10.34788650524338
 30
0.0
 11
10.00795990926979
 21
10.25240017711673
 31
0.0
  0
LINE
  5
114
330
6C
100
AcDbEntity
  8
Visible (ANSI)
100
AcDbLine
 10
10.00795990926979
 20
10.13822768916753
 30
0.0
 11
10.00795990926979
 21
10.25240017711673
 31
0.0
  0
LINE
  5
115
330
6C
100
AcDbEntity
  8
Visible (ANSI)
100
AcDbLine
 10
10.00795990926979
 20
10.13822768916752
 30
0.0
 11
10.00795990926979
 21
9.946236943594477
 31
0.0
  0
LINE
  5
116
330
6C
100
AcDbEntity
  8
Visible (ANSI)
100
AcDbLine
 10
10.00795990926979
 20
9.946236943594477
 30
0.0
 11
10.00795990926979
 21
9.66745310308182
 31
0.0
  0
LINE
  5
117
330
6C
100
AcDbEntity
  8
Visible (ANSI)
100
AcDbLine
 10
10.00795990926979
 20
9.667453103081818
 30
0.0
 11
10.00795990926979
 21
9.47353789133845
 31
0.0
  0
LINE
  5
118
330
6C
100
AcDbEntity
  8
Visible (ANSI)
100
AcDbLine
 10
10.00795990926979
 20
9.196236943594476
 30
0.0
 11
10.00795990926979
 21
9.47353789133845
 31
0.0
  0
LINE
  5
119
330
6C
100
AcDbEntity
  8
Visible (ANSI)
100
AcDbLine
 10
10.00795990926979
 20
9.195736943594354
 30
0.0
 11
10.00795990926979
 21
9.196236943594476
 31
0.0
  0
LINE
  5
11A
330
6C
100
AcDbEntity
  8
Visible (ANSI)
100
AcDbLine
 10
9.955959909269795
 20
9.195736943594354
 30
0.0
 11
9.955959909269795
 21
9.196236943594476
 31
0.0
  0
LINE
  5
11B
330
6C
100
AcDbEntity
  8
Visible (ANSI)
100
AcDbLine
 10
9.955959909269795
 20
9.196236943594476
 30
0.0
 11
9.955959909269795
 21
9.47353789133845
 31
0.0
  0
LINE
  5
11C
330
6C
100
AcDbEntity
  8
Visible (ANSI)
100
AcDbLine
 10
9.955959909269795
 20
9.667453103081818
 30
0.0
 11
9.955959909269795
 21
9.47353789133845
 31
0.0
  0
LINE
  5
11D
330
6C
100
AcDbEntity
  8
Visible (ANSI)
100
AcDbLine
 10
9.955959909269795
 20
9.946236943594477
 30
0.0
 11
9.955959909269795
 21
9.66745310308182
 31
0.0
  0
LINE
  5
11E
330
6C
100
AcDbEntity
  8
Visible (ANSI)
100
AcDbLine
 10
9.955959909269795
 20
10.13822768916752
 30
0.0
 11
9.955959909269795
 21
9.946236943594477
 31
0.0
  0
LINE
  5
11F
330
6C
100
AcDbEntity
  8
Visible (ANSI)
100
AcDbLine
 10
9.955959909269795
 20
10.13822768916753
 30
0.0
 11
9.955959909269795
 21
10.25240017711673
 31
0.0
  0
LINE
  5
120
330
6C
100
AcDbEntity
  8
Visible (ANSI)
100
AcDbLine
 10
9.955959909269795
 20
10.34788650524338
 30
0.0
 11
9.955959909269795
 21
10.25240017711673
 31
0.0
  0
LINE
  5
121
330
6C
100
AcDbEntity
  8
Visible (ANSI)
100
AcDbLine
 10
11.57566078597186
 20
9.196236943594355
 30
0.0
 11
11.57566078597186
 21
9.298496858507627
 31
0.0
  0
LINE
  5
122
330
6C
100
AcDbEntity
  8
Visible (ANSI)
100
AcDbLine
 10
11.57566078597186
 20
9.564769047856728
 30
0.0
 11
11.57566078597186
 21
9.298496858507627
 31
0.0
  0
LINE
  5
123
330
6C
100
AcDbEntity
  8
Visible (ANSI)
100
AcDbLine
 10
11.57566078597186
 20
9.564769047856728
 30
0.0
 11
11.57566078597186
 21
10.05475317049146
 31
0.0
  0
LINE
  5
124
330
6C
100
AcDbEntity
  8
Visible (ANSI)
100
AcDbLine
 10
11.57566078597186
 20
10.05475317049146
 30
0.0
 11
11.57566078597186
 21
10.34788650524338
 31
0.0
  0
LINE
  5
125
330
6C
100
AcDbEntity
  8
Visible (ANSI)
100
AcDbLine
 10
11.62766078597186
 20
10.05475317049146
 30
0.0
 11
11.62766078597186
 21
10.34788650524338
 31
0.0
  0
LINE
  5
126
330
6C
100
AcDbEntity
  8
Visible (ANSI)
100
AcDbLine
 10
11.62766078597186
 20
9.564769047856728
 30
0.0
 11
11.62766078597186
 21
10.05475317049146
 31
0.0
  0
LINE
  5
127
330
6C
100
AcDbEntity
  8
Visible (ANSI)
100
AcDbLine
 10
11.62766078597186
 20
9.564769047856728
 30
0.0
 11
11.62766078597186
 21
9.298496858507627
 31
0.0
  0
LINE
  5
128
330
6C
100
AcDbEntity
  8
Visible (ANSI)
100
AcDbLine
 10
11.62766078597186
 20
9.196236943594355
 30
0.0
 11
11.62766078597186
 21
9.298496858507627
 31
0.0
  0
LINE
  5
129
330
6C
100
AcDbEntity
  8
Visible (ANSI)
100
AcDbLine
 10
9.978839909269794
 20
10.34788650524338
 30
0.0
 11
9.955959909269795
 21
10.34788650524338
 31
0.0
  0
LINE
  5
12A
330
6C
100
AcDbEntity
  8
Visible (ANSI)
100
AcDbLine
 10
10.00795990926979
 20
10.34788650524338
 30
0.0
 11
9.978839909269794
 21
10.34788650524338
 31
0.0
  0
LINE
  5
12B
330
6C
100
AcDbEntity
  8
Visible (ANSI)
100
AcDbLine
 10
9.916959909269795
 20
10.40976865495649
 30
0.0
 11
9.916959909269795
 21
10.43888650524338
 31
0.0
  0
LINE
  5
12C
330
6C
100
AcDbEntity
  8
Visible (ANSI)
100
AcDbLine
 10
9.916959909269795
 20
10.38688650524338
 30
0.0
 11
9.916959909269795
 21
10.40976865495649
 31
0.0
  0
LINE
  5
12D
330
6C
100
AcDbEntity
  8
Visible (ANSI)
100
AcDbLine
 10
9.764647527160056
 20
10.38688650524338
 30
0.0
 11
9.916959909269795
 21
10.38688650524338
 31
0.0
  0
LINE
  5
12E
330
6C
100
AcDbEntity
  8
Visible (ANSI)
100
AcDbLine
 10
9.264647527159935
 20
10.38688650524338
 30
0.0
 11
9.764647527160056
 21
10.38688650524338
 31
0.0
  0
LINE
  5
12F
330
6C
100
AcDbEntity
  8
Visible (ANSI)
100
AcDbLine
 10
9.042113966847969
 20
10.38688650524338
 30
0.0
 11
9.264647527159935
 21
10.38688650524338
 31
0.0
  0
LINE
  5
130
330
6C
100
AcDbEntity
  8
Visible (ANSI)
100
AcDbLine
 10
9.041810347620831
 20
10.38688650524338
 30
0.0
 11
9.042113966847969
 21
10.38688650524338
 31
0.0
  0
LINE
  5
131
330
6C
100
AcDbEntity
  8
Visible (ANSI)
100
AcDbLine
 10
9.764647527160056
 20
10.43888650524338
 30
0.0
 11
9.916959909269795
 21
10.43888650524338
 31
0.0
  0
LINE
  5
132
330
6C
100
AcDbEntity
  8
Visible (ANSI)
100
AcDbLine
 10
9.764647527160056
 20
10.43888650524338
 30
0.0
 11
9.764647527160056
 21
10.38688650524338
 31
0.0
  0
LINE
  5
133
330
6C
100
AcDbEntity
  8
Visible (ANSI)
100
AcDbLine
 10
11.66666078597186
 20
10.409768918924
 30
0.0
 11
11.66666078597186
 21
10.38688650524338
 31
0.0
  0
LINE
  5
134
330
6C
100
AcDbEntity
  8
Visible (ANSI)
100
AcDbLine
 10
11.66666078597186
 20
10.43888650524338
 30
0.0
 11
11.66666078597186
 21
10.409768918924
 31
0.0
  0
LINE
  5
135
330
6C
100
AcDbEntity
  8
Visible (ANSI)
100
AcDbLine
 10
11.60478078597186
 20
10.34788650524338
 30
0.0
 11
11.57566078597186
 21
10.34788650524338
 31
0.0
  0
LINE
  5
136
330
6C
100
AcDbEntity
  8
Visible (ANSI)
100
AcDbLine
 10
11.62766078597186
 20
10.34788650524338
 30
0.0
 11
11.60478078597186
 21
10.34788650524338
 31
0.0
  0
LINE
  5
137
330
6C
100
AcDbEntity
  8
Visible Narrow (ANSI)
100
AcDbLine
 10
11.57566078597186
 20
10.05475317049146
 30
0.0
 11
11.62766078597186
 21
10.05475317049146
 31
0.0
  0
LINE
  5
138
330
6C
100
AcDbEntity
  8
Visible Narrow (ANSI)
100
AcDbLine
 10
11.57566078597186
 20
9.564769047856728
 30
0.0
 11
11.62766078597186
 21
9.564769047856728
 31
0.0
  0
LINE
  5
139
330
6C
100
AcDbEntity
  8
Visible Narrow (ANSI)
100
AcDbLine
 10
11.57566078597186
 20
9.298496858507627
 30
0.0
 11
11.62766078597186
 21
9.298496858507627
 31
0.0
  0
LINE
  5
13A
330
6C
100
AcDbEntity
  8
Visible (ANSI)
100
AcDbLine
 10
11.57566078597186
 20
9.196236943594355
 30
0.0
 11
11.62766078597186
 21
9.196236943594355
 31
0.0
  0
LINE
  5
13B
330
6C
100
AcDbEntity
  8
Visible (ANSI)
100
AcDbLine
 10
11.66666078597186
 20
10.38688650524338
 30
0.0
 11
11.81576981997059
 21
10.38688650524338
 31
0.0
  0
LINE
  5
13C
330
6C
100
AcDbEntity
  8
Visible (ANSI)
100
AcDbLine
 10
11.81576981997059
 20
10.43888650524338
 30
0.0
 11
11.81576981997059
 21
10.38688650524338
 31
0.0
  0
LINE
  5
13D
330
6C
100
AcDbEntity
  8
Visible (ANSI)
100
AcDbLine
 10
11.66666078597186
 20
10.43888650524338
 30
0.0
 11
11.81576981997059
 21
10.43888650524338
 31
0.0
  0
LINE
  5
13E
330
6C
100
AcDbEntity
  8
Visible (ANSI)
100
AcDbLine
 10
11.81576981997059
 20
10.43888650524338
 30
0.0
 11
12.32306034762083
 21
10.43888650524338
 31
0.0
  0
LINE
  5
13F
330
6C
100
AcDbEntity
  8
Visible (ANSI)
100
AcDbLine
 10
12.32306034762083
 20
10.43888650524338
 30
0.0
 11
12.54181034762076
 21
10.43888650524338
 31
0.0
  0
LINE
  5
140
330
6C
100
AcDbEntity
  8
Visible (ANSI)
100
AcDbLine
 10
11.61901167309789
 20
10.43888650524338
 30
0.0
 11
11.61806034762081
 21
10.43888650524338
 31
0.0
  0
LINE
  5
141
330
6C
100
AcDbEntity
  8
Visible (ANSI)
100
AcDbLine
 10
11.61901167309789
 20
10.43888650524338
 30
0.0
 11
11.66585902214376
 21
10.43888650524338
 31
0.0
  0
LINE
  5
142
330
6C
100
AcDbEntity
  8
Visible (ANSI)
100
AcDbLine
 10
11.66585902214376
 20
10.43888650524338
 30
0.0
 11
11.66666078597186
 21
10.43888650524338
 31
0.0
  0
LINE
  5
143
330
6C
100
AcDbEntity
  8
Visible (ANSI)
100
AcDbLine
 10
12.32306034762083
 20
10.38688650524338
 30
0.0
 11
12.54181034762076
 21
10.38688650524338
 31
0.0
  0
LINE
  5
144
330
6C
100
AcDbEntity
  8
Visible (ANSI)
100
AcDbLine
 10
11.81576981997059
 20
10.38688650524338
 30
0.0
 11
12.32306034762083
 21
10.38688650524338
 31
0.0
  0
LINE
  5
145
330
6C
100
AcDbEntity
  8
Visible Narrow (ANSI)
100
AcDbLine
 10
9.947879294259864
 20
10.37165605786508
 30
0.0
 11
9.75827989581526
 21
10.37165605786508
 31
0.0
  0
LINE
  5
146
330
6C
100
AcDbEntity
  8
Visible Narrow (ANSI)
100
AcDbLine
 10
9.262840799426413
 20
10.37165605786508
 30
0.0
 11
9.041810347620829
 21
10.37165605786508
 31
0.0
  0
LINE
  5
147
330
6C
100
AcDbEntity
  8
Visible (ANSI)
100
AcDbLine
 10
9.965560347620842
 20
10.43888650524338
 30
0.0
 11
9.965560347620842
 21
10.42482152582625
 31
0.0
  0
LINE
  5
148
330
6C
100
AcDbEntity
  8
Visible (ANSI)
100
AcDbLine
 10
9.917761673097894
 20
10.43888650524338
 30
0.0
 11
9.964609022143767
 21
10.43888650524338
 31
0.0
  0
LINE
  5
149
330
6C
100
AcDbEntity
  8
Visible (ANSI)
100
AcDbLine
 10
9.965560347620842
 20
10.43888650524338
 30
0.0
 11
9.964609022143767
 21
10.43888650524338
 31
0.0
  0
LINE
  5
14A
330
6C
100
AcDbEntity
  8
Visible (ANSI)
100
AcDbLine
 10
9.041810347620831
 20
10.43888650524338
 30
0.0
 11
9.042113966847969
 21
10.43888650524338
 31
0.0
  0
LINE
  5
14B
330
6C
100
AcDbEntity
  8
Visible (ANSI)
100
AcDbLine
 10
9.042113966847969
 20
10.43888650524338
 30
0.0
 11
9.264647527159935
 21
10.43888650524338
 31
0.0
  0
LINE
  5
14C
330
6C
100
AcDbEntity
  8
Visible (ANSI)
100
AcDbLine
 10
9.264647527159935
 20
10.43888650524338
 30
0.0
 11
9.764647527160056
 21
10.43888650524338
 31
0.0
  0
LINE
  5
14D
330
6C
100
AcDbEntity
  8
Visible (ANSI)
100
AcDbLine
 10
9.041810347620829
 20
10.43888650524338
 30
0.0
 11
9.041810347620829
 21
10.38688650524338
 31
0.0
  0
LINE
  5
14E
330
6C
100
AcDbEntity
  8
Visible Narrow (ANSI)
100
AcDbLine
 10
9.964609022143767
 20
10.43888650524338
 30
0.0
 11
9.964609022143767
 21
10.42541431987996
 31
0.0
  0
LINE
  5
14F
330
6C
100
AcDbEntity
  8
Visible Narrow (ANSI)
100
AcDbLine
 10
9.917761673097894
 20
10.43888650524338
 30
0.0
 11
9.917761673097894
 21
10.43888297316804
 31
0.0
  0
LINE
  5
150
330
6C
100
AcDbEntity
  8
Visible (ANSI)
100
AcDbLine
 10
9.264647527159935
 20
10.43888650524338
 30
0.0
 11
9.264647527159935
 21
10.38688650524338
 31
0.0
  0
LINE
  5
151
330
6C
100
AcDbEntity
  8
Visible (ANSI)
100
AcDbLine
 10
9.042113966847969
 20
10.43888650524338
 30
0.0
 11
9.042113966847969
 21
10.38688650524338
 31
0.0
  0
LINE
  5
152
330
6C
100
AcDbEntity
  8
Visible Narrow (ANSI)
100
AcDbLine
 10
12.54181034762083
 20
10.37165605786508
 30
0.0
 11
12.32077989581524
 21
10.37165605786508
 31
0.0
  0
LINE
  5
153
330
6C
100
AcDbEntity
  8
Visible Narrow (ANSI)
100
AcDbLine
 10
11.8253407994264
 20
10.37165605786508
 30
0.0
 11
11.63574140098179
 21
10.37165605786508
 31
0.0
  0
ELLIPSE
  5
154
330
6C
100
AcDbEntity
  8
Visible (ANSI)
100
AcDbEllipse
 10
10.09056034762084
 20
10.38331515240913
 30
0.0
 11
0.1249999999999999
 21
0.0000000000000091
 31
0.0
210
0.0
220
0.0
230
1.0
 40
0.707106781186548
 41
3.990500178760884
 42
4.712388980384391
  0
LINE
  5
155
330
6C
100
AcDbEntity
  8
Visible (ANSI)
100
AcDbLine
 10
10.09056034762081
 20
10.29492680476081
 30
0.0
 11
11.49306034762084
 21
10.29492680476081
 31
0.0
  0
ELLIPSE
  5
156
330
6C
100
AcDbEntity
  8
Visible (ANSI)
100
AcDbEllipse
 10
11.49306034762084
 20
10.38331515240913
 30
0.0
 11
0.125
 21
0.0
 31
0.0
210
0.0
220
0.0
230
1.0
 40
0.707106781186547
 41
4.712388980384689
 42
5.434277782008062
  0
ELLIPSE
  5
157
330
6C
100
AcDbEntity
  8
Visible (ANSI)
100
AcDbEllipse
 10
11.57306034762083
 20
9.41104332827763
 30
0.0
 11
-0.0854999999999992
 21
0.0
 31
0.0
210
0.0
220
0.0
230
0.9999999999999998
 40
0.7071067811865475
 41
0.3089867911809422
 42
0.8082464848937124
  0
ELLIPSE
  5
158
330
6C
100
AcDbEntity
  8
Visible (ANSI)
100
AcDbEllipse
 10
10.01056034762083
 20
9.411043328277628
 30
0.0
 11
0.0854999999999965
 21
0.0
 31
0.0
210
0.0
220
0.0
230
1.0
 40
0.7071067811865475
 41
5.474938822285877
 42
5.974198515998633
  0
ELLIPSE
  5
159
330
6C
100
AcDbEntity
  8
Visible (ANSI)
100
AcDbEllipse
 10
10.79181034762083
 20
9.190072459156834
 30
0.0
 11
-0.0854999999999999
 21
0.0
 31
0.0
210
0.0
220
0.0
230
1.0
 40
0.7071067811865476
 41
0.3089867911809374
 42
2.832605862408856
  0
LINE
  5
15A
330
6C
100
AcDbEntity
  8
Visible (ANSI)
100
AcDbLine
 10
12.54181034762083
 20
10.37165605786508
 30
0.0
 11
12.54181034762083
 21
9.749924253161283
 31
0.0
  0
LINE
  5
15B
330
6C
100
AcDbEntity
  8
Visible (ANSI)
100
AcDbLine
 10
11.51399973314563
 20
9.346232487823431
 30
0.0
 11
11.51399973314563
 21
9.367327805760956
 31
0.0
  0
LINE
  5
15C
330
6C
100
AcDbEntity
  8
Visible (ANSI)
100
AcDbLine
 10
11.51399973314563
 20
9.330558253139255
 30
0.0
 11
11.51399973314563
 21
9.346232487823431
 31
0.0
  0
LINE
  5
15D
330
6C
100
AcDbEntity
  8
Visible Narrow (ANSI)
100
AcDbLine
 10
11.51399973314563
 20
8.888137863590179
 30
0.0
 11
11.51399973314563
 21
9.330558253139255
 31
0.0
  0
LINE
  5
15E
330
6C
100
AcDbEntity
  8
Visible (ANSI)
100
AcDbLine
 10
11.51399973314563
 20
8.888137863590179
 30
0.0
 11
10.06962096209603
 21
8.888137863590179
 31
0.0
  0
LINE
  5
15F
330
6C
100
AcDbEntity
  8
Visible (ANSI)
100
AcDbLine
 10
10.06962096209603
 20
9.346232487823447
 30
0.0
 11
10.06962096209603
 21
9.330558253139255
 31
0.0
  0
LINE
  5
160
330
6C
100
AcDbEntity
  8
Visible (ANSI)
100
AcDbLine
 10
10.06962096209603
 20
9.367327805760956
 30
0.0
 11
10.06962096209603
 21
9.346232487823447
 31
0.0
  0
LINE
  5
161
330
6C
100
AcDbEntity
  8
Visible Narrow (ANSI)
100
AcDbLine
 10
10.06962096209603
 20
9.330558253139255
 30
0.0
 11
10.06962096209603
 21
8.888137863590179
 31
0.0
  0
ELLIPSE
  5
162
330
6C
100
AcDbEntity
  8
Visible (ANSI)
100
AcDbEllipse
 10
10.01056034762083
 20
9.374273775655931
 30
0.0
 11
0.0855
 21
0.0
 31
0.0
210
0.0
220
0.0
230
1.0
 40
0.7071067811865475
 41
5.474938822285912
 42
7.884400808671768
  0
ELLIPSE
  5
163
330
6C
100
AcDbEntity
  8
Visible (ANSI)
100
AcDbEllipse
 10
10.01056034762083
 20
9.374273775655929
 30
0.0
 11
-0.0855000000000009
 21
0.0000000000000007
 31
0.0
210
0.0
220
0.0
230
1.0
 40
0.7071067811865506
 41
5.405068701001031
 42
6.277337320630792
  0
LINE
  5
164
330
6C
100
AcDbEntity
  8
Visible (ANSI)
100
AcDbLine
 10
12.32306034762085
 20
10.2325246313211
 30
0.0
 11
12.32306034762083
 21
9.753459787067214
 31
0.0
  0
ELLIPSE
  5
165
330
6C
100
AcDbEntity
  8
Visible (ANSI)
100
AcDbEllipse
 10
12.19306034762085
 20
10.2325246313211
 30
0.0
 11
0.1299999999999909
 21
0.0000000000000098
 31
0.0
210
0.0
220
0.0
230
1.0
 40
0.7071067811865478
 41
0.0
 42
1.570796326795004
  0
LINE
  5
166
330
6C
100
AcDbEntity
  8
Visible (ANSI)
100
AcDbLine
 10
11.95306034762082
 20
10.32444851287535
 30
0.0
 11
12.19306034762083
 21
10.32444851287535
 31
0.0
  0
ELLIPSE
  5
167
330
6C
100
AcDbEntity
  8
Visible (ANSI)
100
AcDbEllipse
 10
11.95306034762082
 20
10.2325246313211
 30
0.0
 11
-0.1299999999999907
 21
0.0000000000000025
 31
0.0
210
0.0
220
0.0
230
1.0
 40
0.7071067811865479
 41
4.712388980384725
 42
6.28318530717964
  0
LINE
  5
168
330
6C
100
AcDbEntity
  8
Visible (ANSI)
100
AcDbLine
 10
11.82306034762081
 20
9.753459787067219
 30
0.0
 11
11.82306034762082
 21
10.2325246313211
 31
0.0
  0
LINE
  5
169
330
6C
100
AcDbEntity
  8
Visible (ANSI)
100
AcDbLine
 10
9.760560347620835
 20
10.2325246313211
 30
0.0
 11
9.760560347620844
 21
9.753459787067219
 31
0.0
  0
ELLIPSE
  5
16A
330
6C
100
AcDbEntity
  8
Visible (ANSI)
100
AcDbEllipse
 10
9.630560347620834
 20
10.2325246313211
 30
0.0
 11
0.1299999999999907
 21
0.0
 31
0.0
210
0.0
220
0.0
230
1.0
 40
0.7071067811865476
 41
0.0
 42
1.570796326794896
  0
LINE
  5
16B
330
6C
100
AcDbEntity
  8
Visible (ANSI)
100
AcDbLine
 10
9.390560347620825
 20
10.32444851287535
 30
0.0
 11
9.630560347620834
 21
10.32444851287535
 31
0.0
  0
ELLIPSE
  5
16C
330
6C
100
AcDbEntity
  8
Visible (ANSI)
100
AcDbEllipse
 10
9.390560347620811
 20
10.2325246313211
 30
0.0
 11
-0.1299999999999911
 21
-0.0000000000000043
 31
0.0
210
0.0
220
0.0
230
1.0
 40
0.7071067811865479
 41
4.712388980384504
 42
6.283185307179492
  0
LINE
  5
16D
330
6C
100
AcDbEntity
  8
Visible (ANSI)
100
AcDbLine
 10
9.260560347620829
 20
9.753459787067214
 30
0.0
 11
9.260560347620812
 21
10.2325246313211
 31
0.0
  0
ELLIPSE
  5
16E
330
6C
100
AcDbEntity
  8
Visible (ANSI)
100
AcDbEllipse
 10
10.79181034762083
 20
9.153302906535135
 30
0.0
 11
0.0855
 21
0.0
 31
0.0
210
0.0
220
0.0
230
1.0
 40
0.7071067811865476
 41
0.0
 42
6.283185307179586
  0
ELLIPSE
  5
16F
330
6C
100
AcDbEntity
  8
Visible (ANSI)
100
AcDbEllipse
 10
10.09056034762084
 20
10.34654559978743
 30
0.0
 11
0.1249999999999999
 21
0.0000000000000091
 31
0.0
210
0.0
220
0.0
230
1.0
 40
0.7071067811865476
 41
3.990500178760884
 42
4.712388980384391
  0
LINE
  5
170
330
6C
100
AcDbEntity
  8
Visible Narrow (ANSI)
100
AcDbLine
 10
10.09056034762081
 20
10.29492680476081
 30
0.0
 11
10.09056034762081
 21
10.25815725213911
 31
0.0
  0
LINE
  5
171
330
6C
100
AcDbEntity
  8
Visible (ANSI)
100
AcDbLine
 10
10.09056034762081
 20
10.25815725213911
 30
0.0
 11
11.49306034762084
 21
10.25815725213911
 31
0.0
  0
LINE
  5
172
330
6C
100
AcDbEntity
  8
Visible Narrow (ANSI)
100
AcDbLine
 10
11.49306034762084
 20
10.29492680476081
 30
0.0
 11
11.49306034762084
 21
10.25815725213911
 31
0.0
  0
ELLIPSE
  5
173
330
6C
100
AcDbEntity
  8
Visible (ANSI)
100
AcDbEllipse
 10
11.49306034762084
 20
10.34654559978743
 30
0.0
 11
0.1250000000000002
 21
0.0
 31
0.0
210
0.0
220
0.0
230
1.0
 40
0.707106781186548
 41
4.712388980384689
 42
5.434277782008062
  0
LINE
  5
174
330
6C
100
AcDbEntity
  8
Visible (ANSI)
100
AcDbLine
 10
12.54181034762083
 20
9.749924253161283
 30
0.0
 11
12.01106034762083
 21
9.374627329046523
 31
0.0
  0
LINE
  5
175
330
6C
100
AcDbEntity
  8
Visible (ANSI)
100
AcDbLine
 10
12.01106034762083
 20
9.374627329046523
 30
0.0
 11
11.65855888562002
 21
9.374627329046523
 31
0.0
  0
ELLIPSE
  5
176
330
6C
100
AcDbEntity
  8
Visible (ANSI)
100
AcDbEllipse
 10
11.57306034762083
 20
9.374273775655931
 30
0.0
 11
0.0855000000000003
 21
0.0
 31
0.0
210
0.0
220
0.0
230
1.0
 40
0.7071067811865475
 41
0.0058479865488055
 42
0.8781166061785496
  0
ELLIPSE
  5
177
330
6C
100
AcDbEntity
  8
Visible (ANSI)
100
AcDbEllipse
 10
11.57306034762083
 20
9.374273775655931
 30
0.0
 11
-0.0854999999999999
 21
0.0
 31
0.0
210
0.0
220
0.0
230
1.0
 40
0.7071067811865475
 41
4.681969805687403
 42
7.091431792073286
  0
LINE
  5
178
330
6C
100
AcDbEntity
  8
Visible (ANSI)
100
AcDbLine
 10
9.925061809621633
 20
9.374627329046523
 30
0.0
 11
9.572560347620829
 21
9.374627329046523
 31
0.0
  0
LINE
  5
179
330
6C
100
AcDbEntity
  8
Visible (ANSI)
100
AcDbLine
 10
9.572560347620829
 20
9.374627329046523
 30
0.0
 11
9.041810347620829
 21
9.749924253161283
 31
0.0
  0
LINE
  5
17A
330
6C
100
AcDbEntity
  8
Visible (ANSI)
100
AcDbLine
 10
9.041810347620829
 20
9.749924253161283
 30
0.0
 11
9.041810347620829
 21
10.37165605786508
 31
0.0
  0
LINE
  5
17B
330
6C
100
AcDbEntity
  8
Visible (ANSI)
100
AcDbLine
 10
10.00795990926979
 20
9.318102681248735
 30
0.0
 11
10.01762096209603
 21
9.318102681248735
 31
0.0
  0
LINE
  5
17C
330
6C
100
AcDbEntity
  8
Visible (ANSI)
100
AcDbLine
 10
10.01762096209603
 20
9.068846507089794
 30
0.0
 11
10.01762096209603
 21
9.318102681248735
 31
0.0
  0
LINE
  5
17D
330
6C
100
AcDbEntity
  8
Visible (ANSI)
100
AcDbLine
 10
9.96562096209603
 20
9.068846507089794
 30
0.0
 11
9.96562096209603
 21
9.195736943594353
 31
0.0
  0
LINE
  5
17E
330
6C
100
AcDbEntity
  8
Visible (ANSI)
100
AcDbLine
 10
9.96562096209603
 20
9.068846507089794
 30
0.0
 11
10.01762096209603
 21
9.068846507089794
 31
0.0
  0
LINE
  5
17F
330
6C
100
AcDbEntity
  8
Visible (ANSI)
100
AcDbLine
 10
10.01762096209603
 20
8.892776918574343
 30
0.0
 11
10.01762096209603
 21
9.068846507089794
 31
0.0
  0
LINE
  5
180
330
6C
100
AcDbEntity
  8
Visible (ANSI)
100
AcDbLine
 10
9.96562096209603
 20
8.892776918574343
 30
0.0
 11
9.96562096209603
 21
9.068846507089794
 31
0.0
  0
LINE
  5
181
330
6C
100
AcDbEntity
  8
Visible (ANSI)
100
AcDbLine
 10
9.96562096209603
 20
8.892776918574343
 30
0.0
 11
10.01762096209603
 21
8.892776918574343
 31
0.0
  0
LINE
  5
182
330
6C
100
AcDbEntity
  8
Visible (ANSI)
100
AcDbLine
 10
10.01762096209603
 20
8.583417701805228
 30
0.0
 11
10.01762096209603
 21
8.892776918574343
 31
0.0
  0
LINE
  5
183
330
6C
100
AcDbEntity
  8
Visible (ANSI)
100
AcDbLine
 10
9.96562096209603
 20
8.583417701805228
 30
0.0
 11
9.96562096209603
 21
8.892776918574343
 31
0.0
  0
LINE
  5
184
330
6C
100
AcDbEntity
  8
Visible (ANSI)
100
AcDbLine
 10
9.96562096209603
 20
8.583417701805228
 30
0.0
 11
10.01762096209603
 21
8.583417701805228
 31
0.0
  0
LINE
  5
185
330
6C
100
AcDbEntity
  8
Visible (ANSI)
100
AcDbLine
 10
11.61799973314563
 20
8.583417701805229
 30
0.0
 11
11.56599973314563
 21
8.583417701805229
 31
0.0
  0
LINE
  5
186
330
6C
100
AcDbEntity
  8
Visible (ANSI)
100
AcDbLine
 10
11.56599973314563
 20
8.892776918574345
 30
0.0
 11
11.56599973314563
 21
8.583417701805229
 31
0.0
  0
LINE
  5
187
330
6C
100
AcDbEntity
  8
Visible (ANSI)
100
AcDbLine
 10
11.61799973314563
 20
8.892776918574345
 30
0.0
 11
11.61799973314563
 21
8.583417701805229
 31
0.0
  0
LINE
  5
188
330
6C
100
AcDbEntity
  8
Visible (ANSI)
100
AcDbLine
 10
11.61799973314563
 20
8.892776918574345
 30
0.0
 11
11.56599973314563
 21
8.892776918574345
 31
0.0
  0
LINE
  5
189
330
6C
100
AcDbEntity
  8
Visible (ANSI)
100
AcDbLine
 10
11.56599973314563
 20
9.068846507089796
 30
0.0
 11
11.56599973314563
 21
8.892776918574345
 31
0.0
  0
LINE
  5
18A
330
6C
100
AcDbEntity
  8
Visible (ANSI)
100
AcDbLine
 10
11.61799973314563
 20
9.068846507089796
 30
0.0
 11
11.61799973314563
 21
8.892776918574345
 31
0.0
  0
LINE
  5
18B
330
6C
100
AcDbEntity
  8
Visible (ANSI)
100
AcDbLine
 10
11.61799973314563
 20
9.068846507089796
 30
0.0
 11
11.56599973314563
 21
9.068846507089796
 31
0.0
  0
LINE
  5
18C
330
6C
100
AcDbEntity
  8
Visible (ANSI)
100
AcDbLine
 10
11.56599973314563
 20
9.318102681248735
 30
0.0
 11
11.56599973314563
 21
9.068846507089796
 31
0.0
  0
LINE
  5
18D
330
6C
100
AcDbEntity
  8
Visible (ANSI)
100
AcDbLine
 10
11.61799973314563
 20
9.196236943594279
 30
0.0
 11
11.61799973314563
 21
9.068846507089796
 31
0.0
  0
LINE
  5
18E
330
6C
100
AcDbEntity
  8
Visible (ANSI)
100
AcDbLine
 10
11.57566078597186
 20
9.318102681248735
 30
0.0
 11
11.56599973314563
 21
9.318102681248735
 31
0.0
  0
LINE
  5
18F
330
6C
100
AcDbEntity
  8
Visible (ANSI)
100
AcDbLine
 10
11.61806034762081
 20
10.43888650524338
 30
0.0
 11
11.61806034762081
 21
10.42482152582625
 31
0.0
  0
LINE
  5
190
330
6C
100
AcDbEntity
  8
Visible Narrow (ANSI)
100
AcDbLine
 10
11.61901167309789
 20
10.43888650524338
 30
0.0
 11
11.61901167309789
 21
10.42541431987996
 31
0.0
  0
LINE
  5
191
330
6C
100
AcDbEntity
  8
Visible Narrow (ANSI)
100
AcDbLine
 10
11.66585902214376
 20
10.43888650524338
 30
0.0
 11
11.66585902214376
 21
10.43888297316804
 31
0.0
  0
LINE
  5
192
330
6C
100
AcDbEntity
  8
Visible (ANSI)
100
AcDbLine
 10
12.32306034762083
 20
10.43888650524338
 30
0.0
 11
12.32306034762083
 21
10.38688650524338
 31
0.0
  0
LINE
  5
193
330
6C
100
AcDbEntity
  8
Visible (ANSI)
100
AcDbLine
 10
12.54181034762076
 20
10.43888650524338
 30
0.0
 11
12.54181034762076
 21
10.38688650524338
 31
0.0
  0
LINE
  5
194
330
6C
100
AcDbEntity
  8
Visible (ANSI)
100
AcDbLine
 10
10.00795990926979
 20
10.25240017711673
 30
0.0
 11
9.955959909269795
 21
10.25240017711673
 31
0.0
  0
LINE
  5
195
330
6C
100
AcDbEntity
  8
Visible Narrow (ANSI)
100
AcDbLine
 10
10.00795990926979
 20
10.13822768916752
 30
0.0
 11
9.955959909269795
 21
10.13822768916752
 31
0.0
  0
LINE
  5
196
330
6C
100
AcDbEntity
  8
Visible (ANSI)
100
AcDbLine
 10
10.00795990926979
 20
9.946236943594477
 30
0.0
 11
9.955959909269795
 21
9.946236943594477
 31
0.0
  0
LINE
  5
197
330
6C
100
AcDbEntity
  8
Visible Narrow (ANSI)
100
AcDbLine
 10
10.00795990926979
 20
9.667453103081818
 30
0.0
 11
9.955959909269795
 21
9.667453103081818
 31
0.0
  0
LINE
  5
198
330
6C
100
AcDbEntity
  8
Visible Narrow (ANSI)
100
AcDbLine
 10
10.00795990926979
 20
9.47353789133845
 30
0.0
 11
9.955959909269795
 21
9.47353789133845
 31
0.0
  0
LINE
  5
199
330
6C
100
AcDbEntity
  8
Visible (ANSI)
100
AcDbLine
 10
10.00795990926979
 20
9.196236943594476
 30
0.0
 11
9.955959909269795
 21
9.196236943594476
 31
0.0
  0
LINE
  5
19A
330
6C
100
AcDbEntity
  8
Visible (ANSI)
100
AcDbLine
 10
10.00795990926979
 20
9.195736943594353
 30
0.0
 11
9.955959909269795
 21
9.195736943594353
 31
0.0
  0
ELLIPSE
  5
19B
330
6C
100
AcDbEntity
  8
Visible Narrow (ANSI)
100
AcDbEllipse
 10
9.830959909269793
 20
9.704844572426827
 30
0.0
 11
0.1250000000000015
 21
-0.0000000000000036
 31
0.0
210
0.0
220
0.0
230
1.0
 40
0.7530998021327532
 41
5.357871012525379
 42
6.283185307179595
  0
SPLINE
  5
19C
330
6C
100
AcDbEntity
  8
Visible Narrow (ANSI)
100
AcDbSpline
210
0.0
220
0.0
230
1.0
 70
     8
 71
     3
 72
    12
 73
     8
 74
     0
 42
0.0000000001
 43
0.0000000001
 40
0.4469903604205068
 40
0.4469903604205068
 40
0.4469903604205068
 40
0.4469903604205068
 40
0.5309410068954592
 40
0.5309410068954592
 40
0.751186679275945
 40
0.751186679275945
 40
0.8951673419923228
 40
0.8951673419923228
 40
0.8951673419923228
 40
0.8951673419923228
 10
9.919350124316151
 20
9.67887169432911
 30
0.0
 10
9.919350468032432
 20
9.678876992587786
 30
0.0
 10
9.919201793033249
 20
9.678250530546447
 30
0.0
 10
9.918128644130986
 20
9.673684595915108
 30
0.0
 10
9.916330224441898
 20
9.666021907506404
 30
0.0
 10
9.911474850810243
 20
9.647816419716077
 30
0.0
 10
9.90905458431467
 20
9.639181102607556
 30
0.0
 10
9.906157854322879
 20
9.629646627374237
 30
0.0
  0
LINE
  5
19D
330
6C
100
AcDbEntity
  8
Visible Narrow (ANSI)
100
AcDbLine
 10
9.906157854322879
 20
9.629646627374237
 30
0.0
 11
9.906157854322879
 21
9.49917422127589
 31
0.0
  0
SPLINE
  5
19E
330
6C
100
AcDbEntity
  8
Visible (ANSI)
100
AcDbSpline
210
0.0
220
0.0
230
1.0
 70
     8
 71
     3
 72
    12
 73
     8
 74
     0
 42
0.0000000001
 43
0.0000000001
 40
2.466043470984515
 40
2.466043470984515
 40
2.466043470984515
 40
2.466043470984515
 40
2.48604246844482
 40
2.48604246844482
 40
2.556409122045188
 40
2.556409122045188
 40
2.610533610397315
 40
2.610533610397315
 40
2.610533610397315
 40
2.610533610397315
 10
9.906157854322879
 20
9.49917422127589
 30
0.0
 10
9.908349589104533
 20
9.500123100376843
 30
0.0
 10
9.910506443520082
 20
9.501220184234874
 30
0.0
 10
9.9199808383089
 20
9.506846973459294
 30
0.0
 10
9.926578409356084
 20
9.513209768226332
 30
0.0
 10
9.93568696499174
 20
9.526156282576764
 30
0.0
 10
9.939347526327114
 20
9.533213295147536
 30
0.0
 10
9.942108617826939
 20
9.540338457513602
 30
0.0
  0
LINE
  5
19F
330
6C
100
AcDbEntity
  8
Visible Narrow (ANSI)
100
AcDbLine
 10
9.796813063443924
 20
9.52030183649456
 30
0.0
 11
9.906157854322879
 21
9.629646627374237
 31
0.0
  0
LINE
  5
1A0
330
6C
100
AcDbEntity
  8
Visible (ANSI)
100
AcDbLine
 10
9.796813063443924
 20
9.52030183649456
 30
0.0
 11
9.839497795618225
 21
9.49565779488344
 31
0.0
  0
ELLIPSE
  5
1A1
330
6C
100
AcDbEntity
  8
Visible (ANSI)
100
AcDbEllipse
 10
9.90538236829915
 20
9.561542367564797
 30
0.0
 11
-0.0757987400125701
 21
-0.0572164047199904
 31
0.0
210
0.0
220
0.0
230
1.0
 40
0.5743430506078561
 41
0.2386024718626212
 42
1.171100671988365
  0
LINE
  5
1A2
330
6C
100
AcDbEntity
  8
Visible (ANSI)
100
AcDbLine
 10
9.796813063443924
 20
9.52030183649456
 30
0.0
 11
9.773959909269796
 21
9.533496111208824
 31
0.0
  0
LINE
  5
1A3
330
6C
100
AcDbEntity
  8
Visible (ANSI)
100
AcDbLine
 10
9.839497795618225
 20
9.49565779488344
 30
0.0
 11
9.883272443958105
 21
9.470384489880729
 31
0.0
  0
ELLIPSE
  5
1A4
330
6C
100
AcDbEntity
  8
Visible (ANSI)
100
AcDbEllipse
 10
9.949157016639031
 20
9.536269062562087
 30
0.0
 11
0.0757987400125667
 21
0.0572164047199949
 31
0.0
210
0.0
220
0.0
230
1.0
 40
0.5743430506078561
 41
3.3801951254521
 42
4.279943653941091
  0
ARC
  5
1A5
330
6C
100
AcDbEntity
  8
Visible (ANSI)
100
AcDbCircle
 10
9.830959909269795
 20
9.76727280650642
 30
0.0
 40
0.125
100
AcDbArc
 50
315.0000000001886
 51
0.0
  0
LINE
  5
1A6
330
6C
100
AcDbEntity
  8
Visible (ANSI)
100
AcDbLine
 10
9.773959909269796
 20
9.533496111208824
 30
0.0
 11
9.919348256918405
 21
9.678884458858391
 31
0.0
  0
ELLIPSE
  5
1A7
330
6C
100
AcDbEntity
  8
Visible (ANSI)
100
AcDbEllipse
 10
9.830959909269795
 20
9.616281044547244
 30
0.0
 11
0.0
 21
-0.1659806570736118
 31
0.0
210
0.0
220
0.0
230
1.0
 40
0.7530998021327447
 41
1.095571043745493
 42
1.570796326794896
  0
LINE
  5
1A8
330
6C
100
AcDbEntity
  8
Visible (ANSI)
100
AcDbLine
 10
9.955959909269795
 20
9.481496111208482
 30
0.0
 11
9.947227053393749
 21
9.472763255332379
 31
0.0
  0
LINE
  5
1A9
330
6C
100
AcDbEntity
  8
Visible Narrow (ANSI)
100
AcDbLine
 10
9.942108617826939
 20
9.540338457513602
 30
0.0
 11
9.955959909269795
 21
9.532341410670445
 31
0.0
  0
SPLINE
  5
1AA
330
6C
100
AcDbEntity
  8
Visible (ANSI)
100
AcDbSpline
210
0.0
220
0.0
230
1.0
 70
     8
 71
     3
 72
    12
 73
     8
 74
     0
 42
0.0000000001
 43
0.0000000001
 40
0.2150359196811818
 40
0.2150359196811818
 40
0.2150359196811818
 40
0.2150359196811818
 40
0.2751313054488032
 40
0.2751313054488032
 40
0.3422840281604402
 40
0.3422840281604402
 40
0.359237451063495
 40
0.359237451063495
 40
0.359237451063495
 40
0.359237451063495
 10
11.64149164770393
 20
9.540390864083107
 30
0.0
 10
11.64451277705466
 20
9.532587852445546
 30
0.0
 10
11.64873614471539
 20
9.524663029050914
 30
0.0
 10
11.65840360261868
 20
9.511834647782341
 30
0.0
 10
11.66484185339432
 20
9.505979790423225
 30
0.0
 10
11.6737595583835
 20
9.500917033644791
 30
0.0
 10
11.67559848644962
 20
9.500003632820892
 30
0.0
 10
11.67746255598306
 20
9.499197296756904
 30
0.0
  0
LINE
  5
1AB
330
6C
100
AcDbEntity
  8
Visible Narrow (ANSI)
100
AcDbLine
 10
11.67746255598306
 20
9.499197296756904
 30
0.0
 11
11.67746255598306
 21
9.629536364653349
 31
0.0
  0
ELLIPSE
  5
1AC
330
6C
100
AcDbEntity
  8
Visible Narrow (ANSI)
100
AcDbEllipse
 10
11.75266078597186
 20
9.704734594642154
 30
0.0
 11
-0.1250000000000011
 21
0.0000000000000014
 31
0.0
210
0.0
220
0.0
230
1.0
 40
0.7531042742016833
 41
0.0
 42
0.9253114410487643
  0
SPLINE
  5
1AD
330
6C
100
AcDbEntity
  8
Visible Narrow (ANSI)
100
AcDbSpline
210
0.0
220
0.0
230
1.0
 70
     8
 71
     3
 72
    12
 73
     8
 74
     0
 42
0.0000000001
 43
0.0000000001
 40
0.0
 40
0.0
 40
0.0
 40
0.0
 40
0.1273308985630307
 40
0.1273308985630307
 40
0.3310603362638798
 40
0.3310603362638798
 40
0.4469856652263854
 40
0.4469856652263854
 40
0.4469856652263854
 40
0.4469856652263854
 10
11.67746255598306
 20
9.629536364653349
 30
0.0
 10
11.67490082938673
 20
9.637968226954962
 30
0.0
 10
11.67270457377039
 20
9.645719311117353
 30
0.0
 10
11.66801386342415
 20
9.663068663970863
 30
0.0
 10
11.66613514522158
 20
9.670891103711554
 30
0.0
 10
11.664555671631
 20
9.677541212519017
 30
0.0
 10
11.66427104568531
 20
9.678753177816941
 30
0.0
 10
11.66427057095
 20
9.678760493330335
 30
0.0
  0
LINE
  5
1AE
330
6C
100
AcDbEntity
  8
Visible Narrow (ANSI)
100
AcDbLine
 10
11.78669684516535
 20
9.52030207547105
 30
0.0
 11
11.67746255598306
 21
9.629536364653349
 31
0.0
  0
LINE
  5
1AF
330
6C
100
AcDbEntity
  8
Visible (ANSI)
100
AcDbLine
 10
11.80954958540362
 20
9.533496111199333
 30
0.0
 11
11.78669684516535
 21
9.520302075471049
 31
0.0
  0
ELLIPSE
  5
1B0
330
6C
100
AcDbEntity
  8
Visible (ANSI)
100
AcDbEllipse
 10
11.67819694087241
 20
9.561582674974602
 30
0.0
 11
-0.0757983729340706
 21
0.0572167702163227
 31
0.0
210
0.0
220
0.0
230
0.9999999999999998
 40
0.5743360513661404
 41
1.970989107170623
 42
2.902996433962787
  0
LINE
  5
1B1
330
6C
100
AcDbEntity
  8
Visible (ANSI)
100
AcDbLine
 10
11.74408151355361
 20
9.495698102293403
 30
0.0
 11
11.78669684516535
 21
9.52030207547105
 31
0.0
  0
ELLIPSE
  5
1B2
330
6C
100
AcDbEntity
  8
Visible (ANSI)
100
AcDbEllipse
 10
11.63428409467891
 20
9.536229581403905
 30
0.0
 11
-0.0757983729340723
 21
0.0572167702163212
 31
0.0
210
0.0
220
0.0
230
1.0
 40
0.57433605136615
 41
2.007699107222606
 42
2.902996433962769
  0
LINE
  5
1B3
330
6C
100
AcDbEntity
  8
Visible (ANSI)
100
AcDbLine
 10
11.70016866736011
 20
9.470345008722706
 30
0.0
 11
11.70030712515546
 21
9.470424947368121
 31
0.0
  0
LINE
  5
1B4
330
6C
100
AcDbEntity
  8
Visible (ANSI)
100
AcDbLine
 10
11.70030712515546
 20
9.470424947368121
 30
0.0
 11
11.74408151355361
 21
9.495698102293403
 31
0.0
  0
ELLIPSE
  5
1B5
330
6C
100
AcDbEntity
  8
Visible (ANSI)
100
AcDbEllipse
 10
11.63442255247426
 20
9.536309520049321
 30
0.0
 11
0.0757983729340739
 21
-0.0572167702163182
 31
0.0
210
0.0
220
0.0
230
0.9999999999999998
 40
0.5743360513661387
 41
5.144836956222653
 42
6.044589087552249
  0
ARC
  5
1B6
330
6C
100
AcDbEntity
  8
Visible (ANSI)
100
AcDbCircle
 10
11.75266078597186
 20
9.767161605927732
 30
0.0
 40
0.125
100
AcDbArc
 50
180.0
 51
225.0
  0
LINE
  5
1B7
330
6C
100
AcDbEntity
  8
Visible (ANSI)
100
AcDbLine
 10
11.80954958540362
 20
9.533496111199333
 30
0.0
 11
11.66427243832354
 21
9.678773258279415
 31
0.0
  0
ELLIPSE
  5
1B8
330
6C
100
AcDbEntity
  8
Visible (ANSI)
100
AcDbEllipse
 10
11.75266078597186
 20
9.616280257213487
 30
0.0
 11
-0.0000000000000001
 21
-0.1659796714505485
 31
0.0
210
0.0
220
0.0
230
1.0
 40
0.7531042742016883
 41
4.712388980384689
 42
5.187256928784073
  0
LINE
  5
1B9
330
6C
100
AcDbEntity
  8
Visible (ANSI)
100
AcDbLine
 10
11.63635275371252
 20
9.47280414345867
 30
0.0
 11
11.63658220993688
 21
9.472574687234317
 31
0.0
  0
LINE
  5
1BA
330
6C
100
AcDbEntity
  8
Visible Narrow (ANSI)
100
AcDbLine
 10
11.64149164770394
 20
9.5403908640831
 30
0.0
 11
11.62766078597186
 21
9.532405612338962
 31
0.0
  0
LINE
  5
1BB
330
6C
100
AcDbEntity
  8
Visible (ANSI)
100
AcDbLine
 10
11.63635275371252
 20
9.47280414345867
 30
0.0
 11
11.62766078597186
 21
9.481496111199332
 31
0.0
  0
SPLINE
  5
1BC
330
6C
100
AcDbEntity
  8
Visible (ANSI)
100
AcDbSpline
210
0.0
220
0.0
230
1.0
 70
     8
 71
     3
 72
    10
 73
     6
 74
     0
 42
0.0000000001
 43
0.0000000001
 40
0.0
 40
0.0
 40
0.0
 40
0.0
 40
0.0619722869969245
 40
0.0619722869969245
 40
0.1075629630867637
 40
0.1075629630867637
 40
0.1075629630867637
 40
0.1075629630867637
 10
9.992885671920404
 20
10.39804902677015
 30
0.0
 10
9.995789690609045
 20
10.39365351739431
 30
0.0
 10
10.00046929095578
 20
10.38587811236918
 30
0.0
 10
10.00644350846169
 20
10.36652478419761
 30
0.0
 10
10.00795990926979
 20
10.35764728349714
 30
0.0
 10
10.00795990926979
 20
10.34788650524338
 30
0.0
  0
LINE
  5
1BD
330
6C
100
AcDbEntity
  8
Visible Narrow (ANSI)
100
AcDbLine
 10
9.949499521834344
 20
10.36938472875485
 30
0.0
 11
9.992885671920406
 21
10.39804902677014
 31
0.0
  0
SPLINE
  5
1BE
330
6C
100
AcDbEntity
  8
Visible (ANSI)
100
AcDbSpline
210
0.0
220
0.0
230
1.0
 70
     8
 71
     3
 72
    10
 73
     6
 74
     0
 42
0.0000000001
 43
0.0000000001
 40
0.0
 40
0.0
 40
0.0
 40
0.0
 40
0.0689759110286879
 40
0.0689759110286879
 40
0.145584785476404
 40
0.145584785476404
 40
0.145584785476404
 40
0.145584785476404
 10
9.955959909269795
 20
10.34788650524338
 30
0.0
 10
9.955959909269795
 20
10.35209819243107
 30
0.0
 10
9.95528748860273
 20
10.35594733936627
 30
0.0
 10
9.953044521112577
 20
10.36321337646315
 30
0.0
 10
9.951431041604651
 20
10.36646118928411
 30
0.0
 10
9.949499521834342
 20
10.36938472875485
 30
0.0
  0
SPLINE
  5
1BF
330
6C
100
AcDbEntity
  8
Visible (ANSI)
100
AcDbSpline
210
0.0
220
0.0
230
1.0
 70
     8
 71
     3
 72
    12
 73
     8
 74
     0
 42
0.0000000001
 43
0.0000000001
 40
0.0
 40
0.0
 40
0.0
 40
0.0
 40
0.0882286125303759
 40
0.0882286125303759
 40
0.2207786515735491
 40
0.2207786515735491
 40
0.3533301784052159
 40
0.3533301784052159
 40
0.3533301784052159
 40
0.3533301784052159
 10
9.91695990926979
 20
10.43888650524338
 30
0.0
 10
9.924453681642001
 20
10.43888650524338
 30
0.0
 10
9.931918929056386
 20
10.43796084612618
 30
0.0
 10
9.95010344528397
 20
10.43338071524723
 30
0.0
 10
9.960416469623879
 20
10.42862857171141
 30
0.0
 10
9.978783877929853
 20
10.41560322164291
 30
0.0
 10
9.986679643784658
 20
10.40744244250955
 30
0.0
 10
9.992885671920408
 20
10.39804902677014
 30
0.0
  0
SPLINE
  5
1C0
330
6C
100
AcDbEntity
  8
Visible (ANSI)
100
AcDbSpline
210
0.0
220
0.0
230
1.0
 70
     8
 71
     3
 72
    10
 73
     6
 74
     0
 42
0.0000000001
 43
0.0000000001
 40
0.0
 40
0.0
 40
0.0
 40
0.0
 40
0.1436811737508989
 40
0.1436811737508989
 40
0.2873623500482826
 40
0.2873623500482826
 40
0.2873623500482826
 40
0.2873623500482826
 10
9.949499521834344
 20
10.36938472875485
 30
0.0
 10
9.945945422563923
 20
10.37476419711947
 30
0.0
 10
9.941112140291449
 20
10.37917933427773
 30
0.0
 10
9.929755460057704
 20
10.3852876455175
 30
0.0
 10
9.923407412893945
 20
10.38688650524338
 30
0.0
 10
9.916959909269795
 20
10.38688650524338
 30
0.0
  0
SPLINE
  5
1C1
330
6C
100
AcDbEntity
  8
Visible (ANSI)
100
AcDbSpline
210
0.0
220
0.0
230
1.0
 70
     8
 71
     3
 72
    12
 73
     8
 74
     0
 42
0.0000000001
 43
0.0000000001
 40
0.0
 40
0.0
 40
0.0
 40
0.0
 40
0.0947511056574864
 40
0.0947511056574864
 40
0.2371340283594931
 40
0.2371340283594931
 40
0.3795187378086742
 40
0.3795187378086742
 40
0.3795187378086742
 40
0.3795187378086742
 10
11.58728946386329
 20
10.3923971020349
 30
0.0
 10
11.59122583603886
 20
10.39941644318976
 30
0.0
 10
11.59607607562748
 20
10.40588278201467
 30
0.0
 10
11.61018411210725
 20
10.42025806444335
 30
0.0
 10
11.62029130200023
 20
10.42711483502891
 30
0.0
 10
11.64259399564708
 20
10.43647572895946
 30
0.0
 10
11.65456725279774
 20
10.43888650524338
 30
0.0
 10
11.66666078597186
 20
10.43888650524338
 30
0.0
  0
LINE
  5
1C2
330
6C
100
AcDbEntity
  8
Visible Narrow (ANSI)
100
AcDbLine
 10
11.63264450506819
 20
10.36696247529689
 30
0.0
 11
11.58728946386329
 21
10.3923971020349
 31
0.0
  0
SPLINE
  5
1C3
330
6C
100
AcDbEntity
  8
Visible (ANSI)
100
AcDbSpline
210
0.0
220
0.0
230
1.0
 70
     8
 71
     3
 72
    10
 73
     6
 74
     0
 42
0.0000000001
 43
0.0000000001
 40
0.0
 40
0.0
 40
0.0
 40
0.0
 40
0.1543908232656084
 40
0.1543908232656084
 40
0.3087816513629164
 40
0.3087816513629164
 40
0.3087816513629164
 40
0.3087816513629164
 10
11.66666078597186
 20
10.38688650524338
 30
0.0
 10
11.65973270836663
 20
10.38688650524338
 30
0.0
 10
11.65292810349898
 20
10.3850404156337
 30
0.0
 10
11.64097171928162
 20
10.37803731751737
 30
0.0
 10
11.63603321801849
 20
10.37300523020246
 30
0.0
 10
11.63264450506819
 20
10.36696247529689
 30
0.0
  0
SPLINE
  5
1C4
330
6C
100
AcDbEntity
  8
Visible (ANSI)
100
AcDbSpline
210
0.0
220
0.0
230
1.0
 70
     8
 71
     3
 72
    10
 73
     6
 74
     0
 42
0.0000000001
 43
0.0000000001
 40
0.0
 40
0.0
 40
0.0
 40
0.0
 40
0.0830257892418959
 40
0.0830257892418959
 40
0.1932781071171972
 40
0.1932781071171972
 40
0.1932781071171972
 40
0.1932781071171972
 10
11.57566078597186
 20
10.34788650524338
 30
0.0
 10
11.57566078597186
 20
10.35617486048549
 30
0.0
 10
11.57678663130491
 20
10.36405840140964
 30
0.0
 10
11.58136510887384
 20
10.38116919212755
 30
0.0
 10
11.58494861547465
 20
10.38822289982565
 30
0.0
 10
11.58728946386329
 20
10.3923971020349
 30
0.0
  0
SPLINE
  5
1C5
330
6C
100
AcDbEntity
  8
Visible (ANSI)
100
AcDbSpline
210
0.0
220
0.0
230
1.0
 70
     8
 71
     3
 72
    10
 73
     6
 74
     0
 42
0.0000000001
 43
0.0000000001
 40
0.0
 40
0.0
 40
0.0
 40
0.0
 40
0.0691409725432826
 40
0.0691409725432826
 40
0.1320716091151738
 40
0.1320716091151738
 40
0.1320716091151738
 40
0.1320716091151738
 10
11.63264450506819
 20
10.36696247529689
 30
0.0
 10
11.63112606568196
 20
10.36425479329947
 30
0.0
 10
11.6298849299086
 20
10.36132621007778
 30
0.0
 10
11.62816817307463
 20
10.35491030731659
 30
0.0
 10
11.62766078597186
 20
10.35154031564765
 30
0.0
 10
11.62766078597186
 20
10.34788650524338
 30
0.0
  0
LINE
  5
1C6
330
6C
100
AcDbEntity
  8
Visible (ANSI)
100
AcDbLine
 10
9.041810347620829
 20
10.38688650524338
 30
0.0
 11
9.041810347620833
 21
10.37165605786508
 31
0.0
  0
LINE
  5
1C7
330
6C
100
AcDbEntity
  8
Visible (ANSI)
100
AcDbLine
 10
12.54181034762083
 20
10.37165605786508
 30
0.0
 11
12.54181034762083
 21
10.38688650524338
 31
0.0
  0
LINE
  5
1C8
330
6C
100
AcDbEntity
  8
Visible (ANSI)
100
AcDbLine
 10
9.708560347620831
 20
10.33488650524338
 30
0.0
 11
9.630560347620841
 21
10.33488650524338
 31
0.0
  0
LINE
  5
1C9
330
6C
100
AcDbEntity
  8
Visible (ANSI)
100
AcDbLine
 10
9.390560347620832
 20
10.33488650524338
 30
0.0
 11
9.630560347620841
 21
10.33488650524338
 31
0.0
  0
LINE
  5
1CA
330
6C
100
AcDbEntity
  8
Visible (ANSI)
100
AcDbLine
 10
9.390560347620832
 20
10.33488650524338
 30
0.0
 11
9.312560347620832
 21
10.33488650524338
 31
0.0
  0
LINE
  5
1CB
330
6C
100
AcDbEntity
  8
Visible Narrow (ANSI)
100
AcDbLine
 10
9.390560347620832
 20
10.33488650524338
 30
0.0
 11
9.390560347620832
 21
10.38688650524338
 31
0.0
  0
ARC
  5
1CC
330
6C
100
AcDbEntity
  8
Visible (ANSI)
100
AcDbCircle
 10
9.312560347620829
 20
10.38688650524338
 30
0.0
 40
0.0520000000000008
100
AcDbArc
 50
180.0
 51
270.0
  0
LINE
  5
1CD
330
6C
100
AcDbEntity
  8
Visible Narrow (ANSI)
100
AcDbLine
 10
9.630560347620841
 20
10.33488650524338
 30
0.0
 11
9.630560347620841
 21
10.38688650524338
 31
0.0
  0
ARC
  5
1CE
330
6C
100
AcDbEntity
  8
Visible (ANSI)
100
AcDbCircle
 10
9.708560347620844
 20
10.38688650524338
 30
0.0
 40
0.0520000000000003
100
AcDbArc
 50
270.0
 51
0.0
  0
ELLIPSE
  5
1CF
330
6C
100
AcDbEntity
  8
Visible Narrow (ANSI)
100
AcDbEllipse
 10
11.87506034762082
 20
9.753459787067217
 30
0.0
 11
-0.0520000000000008
 21
0.0000000000000014
 31
0.0
210
0.0
220
0.0
230
1.0
 40
0.7071067811865485
 41
0.0
 42
1.570796326794941
  0
LINE
  5
1D0
330
6C
100
AcDbEntity
  8
Visible Narrow (ANSI)
100
AcDbLine
 10
11.95306034762082
 20
9.661535905512964
 30
0.0
 11
11.95306034762082
 21
9.646305458134662
 31
0.0
  0
ELLIPSE
  5
1D1
330
6C
100
AcDbEntity
  8
Visible Narrow (ANSI)
100
AcDbEllipse
 10
11.95306034762081
 20
9.716690234445515
 30
0.0
 11
-0.0779999999999907
 21
-0.0000000000000028
 31
0.0
210
0.0
220
0.0
230
1.0
 40
0.7071067811865476
 41
0.0
 42
1.570796326794961
  0
LINE
  5
1D2
330
6C
100
AcDbEntity
  8
Visible Narrow (ANSI)
100
AcDbLine
 10
12.19306034762083
 20
9.661535905512964
 30
0.0
 11
12.19306034762083
 21
9.646305458134666
 31
0.0
  0
LINE
  5
1D3
330
6C
100
AcDbEntity
  8
Visible Narrow (ANSI)
100
AcDbLine
 10
12.19306034762083
 20
9.661535905512964
 30
0.0
 11
11.95306034762082
 21
9.661535905512971
 31
0.0
  0
ELLIPSE
  5
1D4
330
6C
100
AcDbEntity
  8
Visible Narrow (ANSI)
100
AcDbEllipse
 10
12.27106034762082
 20
9.753459787067216
 30
0.0
 11
0.052000000000009
 21
-0.0000000000000008
 31
0.0
210
0.0
220
0.0
230
0.9999999999999998
 40
0.707106781186549
 41
4.712388980384673
 42
6.283185307179509
  0
ELLIPSE
  5
1D5
330
6C
100
AcDbEntity
  8
Visible Narrow (ANSI)
100
AcDbEllipse
 10
12.19306034762083
 20
9.716690234445515
 30
0.0
 11
0.077999999999991
 21
-0.0000000000000012
 31
0.0
210
0.0
220
0.0
230
0.9999999999999998
 40
0.7071067811865471
 41
4.71238898038479
 42
6.283185307179634
  0
ELLIPSE
  5
1D6
330
6C
100
AcDbEntity
  8
Visible Narrow (ANSI)
100
AcDbEllipse
 10
12.27106034762085
 20
10.2325246313211
 30
0.0
 11
0.0520000000000003
 21
-0.000000000000001
 31
0.0
210
0.0
220
0.0
230
0.9999999999999998
 40
0.7071067811865476
 41
4.712388980384677
 42
6.283185307179511
  0
LINE
  5
1D7
330
6C
100
AcDbEntity
  8
Visible Narrow (ANSI)
100
AcDbLine
 10
12.27106034762085
 20
10.1957550786994
 30
0.0
 11
12.27106034762082
 21
9.716690234445515
 31
0.0
  0
LINE
  5
1D8
330
6C
100
AcDbEntity
  8
Visible Narrow (ANSI)
100
AcDbLine
 10
12.19306034762084
 20
10.25090940763194
 30
0.0
 11
12.19306034762083
 21
10.32444851287535
 31
0.0
  0
ELLIPSE
  5
1D9
330
6C
100
AcDbEntity
  8
Visible Narrow (ANSI)
100
AcDbEllipse
 10
12.19306034762085
 20
10.1957550786994
 30
0.0
 11
0.077999999999991
 21
0.0000000000000058
 31
0.0
210
0.0
220
0.0
230
1.0
 40
0.7071067811865476
 41
0.0
 42
1.570796326795004
  0
LINE
  5
1DA
330
6C
100
AcDbEntity
  8
Visible Narrow (ANSI)
100
AcDbLine
 10
11.95306034762082
 20
10.25090940763195
 30
0.0
 11
11.95306034762082
 21
10.32444851287535
 31
0.0
  0
LINE
  5
1DB
330
6C
100
AcDbEntity
  8
Visible Narrow (ANSI)
100
AcDbLine
 10
11.95306034762082
 20
10.25090940763195
 30
0.0
 11
12.19306034762084
 21
10.25090940763194
 31
0.0
  0
ELLIPSE
  5
1DC
330
6C
100
AcDbEntity
  8
Visible Narrow (ANSI)
100
AcDbEllipse
 10
11.87506034762083
 20
10.2325246313211
 30
0.0
 11
-0.0520000000000101
 21
0.000000000000001
 31
0.0
210
0.0
220
0.0
230
1.0
 40
0.7071067811865479
 41
0.0
 42
1.570796326794855
  0
ELLIPSE
  5
1DD
330
6C
100
AcDbEntity
  8
Visible Narrow (ANSI)
100
AcDbEllipse
 10
11.95306034762082
 20
10.1957550786994
 30
0.0
 11
-0.0779999999999907
 21
0.0000000000000014
 31
0.0
210
0.0
220
0.0
230
1.0
 40
0.7071067811865471
 41
4.712388980384737
 42
6.283185307179636
  0
LINE
  5
1DE
330
6C
100
AcDbEntity
  8
Visible Narrow (ANSI)
100
AcDbLine
 10
11.87506034762082
 20
9.716690234445518
 30
0.0
 11
11.87506034762083
 21
10.1957550786994
 31
0.0
  0
ELLIPSE
  5
1DF
330
6C
100
AcDbEntity
  8
Visible Narrow (ANSI)
100
AcDbEllipse
 10
9.312560347620838
 20
9.753459787067216
 30
0.0
 11
-0.0520000000000008
 21
-0.0000000000000006
 31
0.0
210
0.0
220
0.0
230
1.0
 40
0.7071067811865485
 41
0.0
 42
1.570796326794887
  0
LINE
  5
1E0
330
6C
100
AcDbEntity
  8
Visible Narrow (ANSI)
100
AcDbLine
 10
9.390560347620828
 20
9.661535905512964
 30
0.0
 11
9.390560347620827
 21
9.646305458134662
 31
0.0
  0
ELLIPSE
  5
1E1
330
6C
100
AcDbEntity
  8
Visible Narrow (ANSI)
100
AcDbEllipse
 10
9.39056034762083
 20
9.716690234445515
 30
0.0
 11
-0.0779999999999911
 21
0.0000000000000019
 31
0.0
210
0.0
220
0.0
230
1.0
 40
0.7071067811865475
 41
0.0
 42
1.570796326794859
  0
LINE
  5
1E2
330
6C
100
AcDbEntity
  8
Visible Narrow (ANSI)
100
AcDbLine
 10
9.630560347620837
 20
9.661535905512964
 30
0.0
 11
9.630560347620837
 21
9.646305458134666
 31
0.0
  0
LINE
  5
1E3
330
6C
100
AcDbEntity
  8
Visible Narrow (ANSI)
100
AcDbLine
 10
9.630560347620837
 20
9.661535905512964
 30
0.0
 11
9.390560347620827
 21
9.661535905512971
 31
0.0
  0
ELLIPSE
  5
1E4
330
6C
100
AcDbEntity
  8
Visible Narrow (ANSI)
100
AcDbEllipse
 10
9.708560347620835
 20
9.753459787067217
 30
0.0
 11
0.052000000000009
 21
0.0000000000000012
 31
0.0
210
0.0
220
0.0
230
0.9999999999999998
 40
0.7071067811865471
 41
4.7123889803847
 42
6.283185307179662
  0
ELLIPSE
  5
1E5
330
6C
100
AcDbEntity
  8
Visible Narrow (ANSI)
100
AcDbEllipse
 10
9.630560347620845
 20
9.716690234445515
 30
0.0
 11
0.0779999999999909
 21
0.0000000000000018
 31
0.0
210
0.0
220
0.0
230
1.0
 40
0.7071067811865471
 41
4.712388980384547
 42
6.283185307179495
  0
ELLIPSE
  5
1E6
330
6C
100
AcDbEntity
  8
Visible Narrow (ANSI)
100
AcDbEllipse
 10
9.708560347620833
 20
10.2325246313211
 30
0.0
 11
0.0520000000000003
 21
0.0000000000000005
 31
0.0
210
0.0
220
0.0
230
0.9999999999999998
 40
0.7071067811865476
 41
4.712388980384682
 42
6.283185307179588
  0
LINE
  5
1E7
330
6C
100
AcDbEntity
  8
Visible Narrow (ANSI)
100
AcDbLine
 10
9.708560347620835
 20
10.1957550786994
 30
0.0
 11
9.708560347620835
 21
9.716690234445518
 31
0.0
  0
LINE
  5
1E8
330
6C
100
AcDbEntity
  8
Visible Narrow (ANSI)
100
AcDbLine
 10
9.630560347620834
 20
10.25090940763194
 30
0.0
 11
9.630560347620834
 21
10.32444851287535
 31
0.0
  0
ELLIPSE
  5
1E9
330
6C
100
AcDbEntity
  8
Visible Narrow (ANSI)
100
AcDbEllipse
 10
9.630560347620834
 20
10.1957550786994
 30
0.0
 11
0.0779999999999908
 21
0.0000000000000002
 31
0.0
210
0.0
220
0.0
230
1.0
 40
0.707106781186548
 41
0.0
 42
1.570796326794894
  0
LINE
  5
1EA
330
6C
100
AcDbEntity
  8
Visible Narrow (ANSI)
100
AcDbLine
 10
9.390560347620825
 20
10.25090940763195
 30
0.0
 11
9.390560347620825
 21
10.32444851287535
 31
0.0
  0
LINE
  5
1EB
330
6C
100
AcDbEntity
  8
Visible Narrow (ANSI)
100
AcDbLine
 10
9.390560347620825
 20
10.25090940763195
 30
0.0
 11
9.630560347620834
 21
10.25090940763194
 31
0.0
  0
ELLIPSE
  5
1EC
330
6C
100
AcDbEntity
  8
Visible Narrow (ANSI)
100
AcDbEllipse
 10
9.312560347620822
 20
10.2325246313211
 30
0.0
 11
-0.0520000000000092
 21
-0.0000000000000018
 31
0.0
210
0.0
220
0.0
230
0.9999999999999998
 40
0.7071067811865478
 41
0.0000000000000743
 42
1.570796326794898
  0
ELLIPSE
  5
1ED
330
6C
100
AcDbEntity
  8
Visible Narrow (ANSI)
100
AcDbEllipse
 10
9.390560347620811
 20
10.1957550786994
 30
0.0
 11
-0.0779999999999903
 21
-0.0000000000000028
 31
0.0
210
0.0
220
0.0
230
1.0
 40
0.7071067811865478
 41
4.71238898038443
 42
6.283185307179482
  0
LINE
  5
1EE
330
6C
100
AcDbEntity
  8
Visible Narrow (ANSI)
100
AcDbLine
 10
9.312560347620838
 20
9.716690234445515
 30
0.0
 11
9.312560347620822
 21
10.1957550786994
 31
0.0
  0
ARC
  5
1EF
330
6C
100
AcDbEntity
  8
Visible (ANSI)
100
AcDbCircle
 10
12.27106034762083
 20
10.38688650524338
 30
0.0
 40
0.0520000000000003
100
AcDbArc
 50
270.0
 51
0.0
  0
LINE
  5
1F0
330
6C
100
AcDbEntity
  8
Visible Narrow (ANSI)
100
AcDbLine
 10
12.19306034762082
 20
10.33488650524339
 30
0.0
 11
12.19306034762082
 21
10.38688650524338
 31
0.0
  0
LINE
  5
1F1
330
6C
100
AcDbEntity
  8
Visible (ANSI)
100
AcDbLine
 10
12.27106034762083
 20
10.33488650524338
 30
0.0
 11
12.19306034762082
 21
10.33488650524338
 31
0.0
  0
LINE
  5
1F2
330
6C
100
AcDbEntity
  8
Visible Narrow (ANSI)
100
AcDbLine
 10
11.95306034762082
 20
10.33488650524338
 30
0.0
 11
11.95306034762082
 21
10.38688650524338
 31
0.0
  0
LINE
  5
1F3
330
6C
100
AcDbEntity
  8
Visible (ANSI)
100
AcDbLine
 10
11.95306034762082
 20
10.33488650524338
 30
0.0
 11
12.19306034762082
 21
10.33488650524338
 31
0.0
  0
ARC
  5
1F4
330
6C
100
AcDbEntity
  8
Visible (ANSI)
100
AcDbCircle
 10
11.87506034762082
 20
10.38688650524338
 30
0.0
 40
0.0520000000000121
100
AcDbArc
 50
180.0
 51
270.0
  0
LINE
  5
1F5
330
6C
100
AcDbEntity
  8
Visible (ANSI)
100
AcDbLine
 10
11.95306034762081
 20
10.33488650524338
 30
0.0
 11
11.87506034762082
 21
10.33488650524338
 31
0.0
  0
SPLINE
  5
1F6
330
6C
100
AcDbEntity
  8
Visible (ANSI)
100
AcDbSpline
210
0.0
220
0.0
230
1.0
 70
     8
 71
     3
 72
    18
 73
    14
 74
     0
 42
0.0000000001
 43
0.0000000001
 40
3.14159265358976
 40
3.14159265358976
 40
3.14159265358976
 40
3.14159265358976
 40
3.387771616201621
 40
3.387771616201621
 40
3.648007836116796
 40
3.648007836116796
 40
3.946584255909652
 40
3.946584255909652
 40
4.260743521268648
 40
4.260743521268648
 40
4.574902786627643
 40
4.574902786627643
 40
4.712388980384738
 40
4.712388980384738
 40
4.712388980384738
 40
4.712388980384738
 10
11.82306034762082
 20
9.753459787067221
 30
0.0
 10
11.82306034762082
 20
9.742899248360423
 30
0.0
 10
11.82494655990296
 20
9.732363751720182
 30
0.0
 10
11.832078959572
 20
9.712292697736193
 30
0.0
 10
11.83746658368558
 20
9.702860883408709
 30
0.0
 10
11.85135800422735
 20
9.685151497349512
 30
0.0
 10
11.86018050203384
 20
9.677214367791865
 30
0.0
 10
11.8798378924333
 20
9.663848786154595
 30
0.0
 10
11.89077129554055
 20
9.658550475195013
 30
0.0
 10
11.91352075153435
 20
9.650747237348152
 30
0.0
 10
11.92534735204807
 20
9.648243066177478
 30
0.0
 10
11.94254085477
 20
9.646560946090925
 30
0.0
 10
11.94780060463777
 20
9.646305458134673
 30
0.0
 10
11.95306034762082
 20
9.646305458134673
 30
0.0
  0
LINE
  5
1F7
330
6C
100
AcDbEntity
  8
Visible (ANSI)
100
AcDbLine
 10
11.95306034762082
 20
9.646305458134666
 30
0.0
 11
12.19306034762083
 21
9.646305458134666
 31
0.0
  0
SPLINE
  5
1F8
330
6C
100
AcDbEntity
  8
Visible (ANSI)
100
AcDbSpline
210
0.0
220
0.0
230
1.0
 70
     8
 71
     3
 72
    18
 73
    14
 74
     0
 42
0.0000000001
 43
0.0000000001
 40
4.712388980384726
 40
4.712388980384726
 40
4.712388980384726
 40
4.712388980384726
 40
5.026548245743693
 40
5.026548245743693
 40
5.340707511102661
 40
5.340707511102661
 40
5.654866776461629
 40
5.654866776461629
 40
5.969026041820597
 40
5.969026041820597
 40
6.237583632685709
 40
6.237583632685709
 40
6.283185307179564
 40
6.283185307179564
 40
6.283185307179564
 40
6.283185307179564
 10
12.19306034762083
 20
9.646305458134673
 30
0.0
 10
12.20507898706657
 20
9.646305458134673
 30
0.0
 10
12.21709821015061
 20
9.647635065109865
 30
0.0
 10
12.24051671011217
 20
9.653015533870874
 30
0.0
 10
12.251921530489
 20
9.657063956341261
 30
0.0
 10
12.27341816052381
 20
9.668107702734749
 30
0.0
 10
12.28352864595167
 20
9.675111668362626
 30
0.0
 10
12.30133418289511
 20
9.69244088919976
 30
0.0
 10
12.30903387259457
 20
9.702823650867708
 30
0.0
 10
12.31915993293432
 20
9.724860498790297
 30
0.0
 10
12.32212992495562
 20
9.736108552092527
 30
0.0
 10
12.32299720233037
 20
9.749547369160207
 30
0.0
 10
12.32306034762082
 20
9.751503575035618
 30
0.0
 10
12.32306034762082
 20
9.753459787067214
 30
0.0
  0
SPLINE
  5
1F9
330
6C
100
AcDbEntity
  8
Visible (ANSI)
100
AcDbSpline
210
0.0
220
0.0
230
1.0
 70
     8
 71
     3
 72
    18
 73
    14
 74
     0
 42
0.0000000001
 43
0.0000000001
 40
3.141592653589813
 40
3.141592653589813
 40
3.141592653589813
 40
3.141592653589813
 40
3.387771616201674
 40
3.387771616201674
 40
3.648007836116856
 40
3.648007836116856
 40
3.946584255909721
 40
3.946584255909721
 40
4.260743521268691
 40
4.260743521268691
 40
4.574902786627659
 40
4.574902786627659
 40
4.712388980384657
 40
4.712388980384657
 40
4.712388980384657
 40
4.712388980384657
 10
9.260560347620838
 20
9.753459787067214
 30
0.0
 10
9.260560347620838
 20
9.742899248360417
 30
0.0
 10
9.262446559902979
 20
9.732363751720177
 30
0.0
 10
9.269578959572017
 20
9.712292697736186
 30
0.0
 10
9.274966583685598
 20
9.702860883408703
 30
0.0
 10
9.288858004227368
 20
9.685151497349506
 30
0.0
 10
9.297680502033864
 20
9.67721436779186
 30
0.0
 10
9.317337892433316
 20
9.663848786154591
 30
0.0
 10
9.328271295540572
 20
9.65855047519501
 30
0.0
 10
9.351020751534376
 20
9.650747237348152
 30
0.0
 10
9.36284735204809
 20
9.648243066177478
 30
0.0
 10
9.380040854770019
 20
9.646560946090927
 30
0.0
 10
9.385300604637777
 20
9.646305458134673
 30
0.0
 10
9.390560347620825
 20
9.646305458134673
 30
0.0
  0
LINE
  5
1FA
330
6C
100
AcDbEntity
  8
Visible (ANSI)
100
AcDbLine
 10
9.390560347620825
 20
9.646305458134666
 30
0.0
 11
9.630560347620837
 21
9.646305458134666
 31
0.0
  0
SPLINE
  5
1FB
330
6C
100
AcDbEntity
  8
Visible (ANSI)
100
AcDbSpline
210
0.0
220
0.0
230
1.0
 70
     8
 71
     3
 72
    18
 73
    14
 74
     0
 42
0.0000000001
 43
0.0000000001
 40
4.712388980384634
 40
4.712388980384634
 40
4.712388980384634
 40
4.712388980384634
 40
5.026548245743631
 40
5.026548245743631
 40
5.340707511102628
 40
5.340707511102628
 40
5.654866776461625
 40
5.654866776461625
 40
5.969026041820622
 40
5.969026041820622
 40
6.237583632685732
 40
6.237583632685732
 40
6.283185307179618
 40
6.283185307179618
 40
6.283185307179618
 40
6.283185307179618
 10
9.630560347620837
 20
9.646305458134673
 30
0.0
 10
9.642578987066574
 20
9.646305458134671
 30
0.0
 10
9.654598210150613
 20
9.647635065109865
 30
0.0
 10
9.678016710112181
 20
9.653015533870872
 30
0.0
 10
9.689421530489017
 20
9.657063956341259
 30
0.0
 10
9.710918160523819
 20
9.668107702734747
 30
0.0
 10
9.72102864595168
 20
9.675111668362626
 30
0.0
 10
9.738834182895121
 20
9.692440889199762
 30
0.0
 10
9.746533872594588
 20
9.70282365086771
 30
0.0
 10
9.756659932934333
 20
9.724860498790301
 30
0.0
 10
9.759629924955635
 20
9.736108552092529
 30
0.0
 10
9.76049720233038
 20
9.749547369160211
 30
0.0
 10
9.760560347620835
 20
9.751503575035624
 30
0.0
 10
9.760560347620835
 20
9.753459787067221
 30
0.0
  0
ELLIPSE
  5
1FC
330
6C
100
AcDbEntity
  8
Visible (ANSI)
100
AcDbEllipse
 10
11.51399973314563
 20
8.851368310968478
 30
0.0
 11
0.052
 21
0.0000000000000001
 31
0.0
210
0.0
220
0.0
230
1.0
 40
0.7071067811865478
 41
0.0
 42
1.570796326794895
  0
SPLINE
  5
1FD
330
6C
100
AcDbEntity
  8
Visible (ANSI)
100
AcDbSpline
210
0.0
220
0.0
230
1.0
 70
     8
 71
     3
 72
    12
 73
     8
 74
     0
 42
0.0000000001
 43
0.0000000001
 40
0.0
 40
0.0
 40
0.0
 40
0.0
 40
0.0311675615940499
 40
0.0311675615940499
 40
0.0764588992397915
 40
0.0764588992397915
 40
0.0988381683774871
 40
0.0988381683774871
 40
0.0988381683774871
 40
0.0988381683774871
 10
11.51399973314563
 20
9.367327805760956
 30
0.0
 10
11.51738043238621
 20
9.365699791056908
 30
0.0
 10
11.52280849118267
 20
9.363163153376094
 30
0.0
 10
11.54029433108109
 20
9.355218799715865
 30
0.0
 10
11.55098635339843
 20
9.350329834424172
 30
0.0
 10
11.56620744430539
 20
9.342330931915574
 30
0.0
 10
11.57105971000932
 20
9.339604042240928
 30
0.0
 10
11.57565837807033
 20
9.336813978712994
 30
0.0
  0
SPLINE
  5
1FE
330
6C
100
AcDbEntity
  8
Visible (ANSI)
100
AcDbSpline
210
0.0
220
0.0
230
1.0
 70
     8
 71
     3
 72
    20
 73
    16
 74
     0
 42
0.0000000001
 43
0.0000000001
 40
0.0007098775223212
 40
0.0007098775223212
 40
0.0007098775223212
 40
0.0007098775223212
 40
0.0212505109555764
 40
0.0212505109555764
 40
0.050270098744464
 40
0.050270098744464
 40
0.0739596752965666
 40
0.0739596752965666
 40
0.0957274077760154
 40
0.0957274077760154
 40
0.1184632751070246
 40
0.1184632751070246
 40
0.14098148036994
 40
0.14098148036994
 40
0.1732631605020587
 40
0.1732631605020587
 40
0.1732631605020587
 40
0.1732631605020587
 10
11.56599951197729
 20
9.293412868230936
 30
0.0
 10
11.56599512368174
 20
9.293018660222005
 30
0.0
 10
11.56592195628247
 20
9.292607295478168
 30
0.0
 10
11.5648407652435
 20
9.292691586363762
 30
0.0
 10
11.56357900948482
 20
9.293588795034811
 30
0.0
 10
11.55977157303401
 20
9.296438610444363
 30
0.0
 10
11.55750299798881
 20
9.298168002381212
 30
0.0
 10
11.55198655897587
 20
9.302195714290585
 30
0.0
 10
11.54893429241548
 20
9.304360252983739
 30
0.0
 10
11.54209680584278
 20
9.30910807249732
 30
0.0
 10
11.53842428389824
 20
9.31161253187046
 30
0.0
 10
11.53113984426457
 20
9.3166940155294
 30
0.0
 10
11.52762292983882
 20
9.319209086355375
 30
0.0
 10
11.51961265718237
 20
9.325365075116597
 30
0.0
 10
11.51612441718497
 20
9.328504523310581
 30
0.0
 10
11.51399973314563
 20
9.330558253139255
 30
0.0
  0
SPLINE
  5
1FF
330
6C
100
AcDbEntity
  8
Visible (ANSI)
100
AcDbSpline
210
0.0
220
0.0
230
1.0
 70
     8
 71
     3
 72
    12
 73
     8
 74
     0
 42
0.0000000001
 43
0.0000000001
 40
0.1402649157782185
 40
0.1402649157782185
 40
0.1402649157782185
 40
0.1402649157782185
 40
0.1668782400282282
 40
0.1668782400282282
 40
0.1992185073588584
 40
0.1992185073588584
 40
0.2434826415858734
 40
0.2434826415858734
 40
0.2434826415858734
 40
0.2434826415858734
 10
10.00796209384765
 20
9.336814510327652
 30
0.0
 10
10.01339579068859
 20
9.340109303181074
 30
0.0
 10
10.01917683147981
 20
9.34331109789519
 30
0.0
 10
10.03247774047988
 20
9.350147120286953
 30
0.0
 10
10.03999447183249
 20
9.353677757937997
 30
0.0
 10
10.0576669314153
 20
9.361758530466458
 30
0.0
 10
10.06535763193544
 20
9.365274749959262
 30
0.0
 10
10.06962096209603
 20
9.367327805760957
 30
0.0
  0
SPLINE
  5
200
330
6C
100
AcDbEntity
  8
Visible (ANSI)
100
AcDbSpline
210
0.0
220
0.0
230
1.0
 70
     8
 71
     3
 72
    20
 73
    16
 74
     0
 42
0.0000000001
 43
0.0000000001
 40
0.0
 40
0.0
 40
0.0
 40
0.0
 40
0.0213105760993171
 40
0.0213105760993171
 40
0.0505839085943616
 40
0.0505839085943616
 40
0.074393138297982
 40
0.074393138297982
 40
0.0962051165753124
 40
0.0962051165753124
 40
0.1188954899765604
 40
0.1188954899765604
 40
0.1412884715855229
 40
0.1412884715855229
 40
0.1724432896309585
 40
0.1724432896309585
 40
0.1724432896309585
 40
0.1724432896309585
 10
10.06962096209603
 20
9.330558253139257
 30
0.0
 10
10.0679697553425
 20
9.328962188736159
 30
0.0
 10
10.06550724719537
 20
9.326703107111239
 30
0.0
 10
10.05786125016999
 20
9.320520778983965
 30
0.0
 10
10.05313825265495
 20
9.317146884740573
 30
0.0
 10
10.04459099832679
 20
9.311195365752903
 30
0.0
 10
10.04075944409509
 20
9.308583947624143
 30
0.0
 10
10.03384551783386
 20
9.303768500987185
 30
0.0
 10
10.0308580723682
 20
9.301637340317887
 30
0.0
 10
10.02563188397923
 20
9.297802069299715
 30
0.0
 10
10.02353005852424
 20
9.296196916570094
 30
0.0
 10
10.02036440337799
 20
9.293833556435719
 30
0.0
 10
10.01932302269847
 20
9.293096766428265
 30
0.0
 10
10.01772880648636
 20
9.292377685385389
 30
0.0
 10
10.01762587103853
 20
9.292903331052359
 30
0.0
 10
10.01762114448298
 20
9.293412894954183
 30
0.0
  0
ELLIPSE
  5
201
330
6C
100
AcDbEntity
  8
Visible (ANSI)
100
AcDbEllipse
 10
10.06962096209603
 20
8.851368310968476
 30
0.0
 11
-0.0520000000000001
 21
0.0000000000000014
 31
0.0
210
0.0
220
0.0
230
1.0
 40
0.7071067811865479
 41
4.712388980384735
 42
6.283185307179671
  0
ENDSEC
  0
SECTION
  2
OBJECTS
  0
DICTIONARY
  5
C
330
0
100
AcDbDictionary
281
     1
  3
ACAD_CIP_PREVIOUS_PRODUCT_INFO
350
202
  3
ACAD_COLOR
350
63
  3
ACAD_GROUP
350
D
  3
ACAD_LAYOUT
350
62
  3
ACAD_MATERIAL
350
10
  3
ACAD_MLEADERSTYLE
350
66
  3
ACAD_MLINESTYLE
350
5F
  3
ACAD_PLOTSETTINGS
350
61
  3
ACAD_PLOTSTYLENAME
350
E
  3
ACAD_SCALELIST
350
42
  3
ACAD_TABLESTYLE
350
64
  3
ACAD_VISUALSTYLE
350
29
  3
ACDB_RECOMPOSE_DATA
350
25A
  3
AcDbVariableDictionary
350
76
  3
DWGPROPS
350
25B
  0
DICTIONARY
  5
209
330
8
100
AcDbDictionary
280
     1
281
     1
  0
XRECORD
  5
202
102
{ACAD_REACTORS
330
C
102
}
330
C
100
AcDbXrecord
280
     1
300
AMECH_PP
300
2012
300
85796PDSU_2012_0F
  0
DICTIONARY
  5
63
102
{ACAD_REACTORS
330
C
102
}
330
C
100
AcDbDictionary
281
     1
  0
DICTIONARY
  5
D
102
{ACAD_REACTORS
330
C
102
}
330
C
100
AcDbDictionary
281
     1
  0
DICTIONARY
  5
62
102
{ACAD_REACTORS
330
C
102
}
330
C
100
AcDbDictionary
281
     1
  3
Layout1
350
6B
  3
Layout2
350
73
  3
Model
350
6F
  0
DICTIONARY
  5
10
102
{ACAD_REACTORS
330
C
102
}
330
C
100
AcDbDictionary
281
     1
  3
ByBlock
350
19
  3
ByLayer
350
11
  3
Global
350
21
  0
DICTIONARY
  5
66
102
{ACAD_REACTORS
330
C
102
}
330
C
100
AcDbDictionary
281
     1
  3
Standard
350
67
  0
DICTIONARY
  5
5F
102
{ACAD_REACTORS
330
C
102
}
330
C
100
AcDbDictionary
281
     1
  3
Standard
350
60
  0
DICTIONARY
  5
61
102
{ACAD_REACTORS
330
C
102
}
330
C
100
AcDbDictionary
281
     1
  0
ACDBDICTIONARYWDFLT
  5
E
102
{ACAD_REACTORS
330
C
102
}
330
C
100
AcDbDictionary
281
     1
  3
Normal
350
F
100
AcDbDictionaryWithDefault
340
F
  0
DICTIONARY
  5
42
102
{ACAD_REACTORS
330
C
102
}
330
C
100
AcDbDictionary
281
     1
  3
A0
350
43
  3
A1
350
44
  3
A2
350
45
  3
A3
350
46
  3
A4
350
47
  3
A5
350
48
  3
A6
350
49
  3
A7
350
4A
  3
A8
350
4B
  3
A9
350
4C
  3
B0
350
4D
  3
B1
350
4E
  3
B2
350
4F
  3
B3
350
50
  3
B4
350
51
  3
B5
350
52
  3
B6
350
53
  0
DICTIONARY
  5
64
102
{ACAD_REACTORS
330
C
102
}
330
C
100
AcDbDictionary
281
     1
  3
Standard
350
65
  0
DICTIONARY
  5
29
102
{ACAD_REACTORS
330
C
102
}
330
C
100
AcDbDictionary
281
     1
  3
2dWireframe
350
2F
  3
Basic
350
2E
  3
Brighten
350
35
  3
ColorChange
350
39
  3
Conceptual
350
32
  3
Dim
350
34
  3
EdgeColorOff
350
41
  3
Facepattern
350
38
  3
Flat
350
2A
  3
FlatWithEdges
350
2B
  3
Gouraud
350
2C
  3
GouraudWithEdges
350
2D
  3
Hidden
350
31
  3
JitterOff
350
3F
  3
Linepattern
350
37
  3
OverhangOff
350
40
  3
Realistic
350
33
  3
Shaded
350
3E
  3
Shaded with edges
350
3D
  3
Shades of Gray
350
3A
  3
Sketchy
350
3B
  3
Thicken
350
36
  3
Wireframe
350
30
  3
X-Ray
350
3C
  0
XRECORD
  5
25A
102
{ACAD_REACTORS
330
C
102
}
330
C
100
AcDbXrecord
280
     1
 90
        1
330
65
  0
DICTIONARY
  5
76
102
{ACAD_REACTORS
330
C
102
}
330
C
100
AcDbDictionary
281
     1
  3
CANNOSCALE
350
79
  3
CMLEADERSTYLE
350
78
  3
CTABLESTYLE
350
77
  3
DIMASSOC
350
24D
  3
HIDETEXT
350
24C
  3
INDEXCTL
350
24B
  3
LAYEREVAL
350
248
  3
LAYERNOTIFY
350
249
  3
LIGHTINGUNITS
350
247
  3
MSLTSCALE
350
246
  3
SORTENTS
350
24A
  3
XCLIPFRAME
350
255
  0
XRECORD
  5
25B
102
{ACAD_REACTORS
330
C
102
}
330
C
100
AcDbXrecord
280
     1
  1
DWGPROPS COOKIE
  2

  3

  4
JIM WALLS
  6

  7

  8
jwalls
  9

300
Manager=
301
Company=
302
Category=
303
Part Number=
304
Description=
305
Project=
306
Designer=JIM WALLS
307
Engineer=
308
Authority=
309
Cost Center=
 40
0.0007123148148148
 41
2456038.567983044
 42
2456038.590067651
  1

 90
       16
300
Vendor=
300
User Status=
300
Design Status=WorkInProgress
300
Checked by=
300
Engr Approved by=
300
Mfg Approved by=
  0
LAYOUT
  5
6B
102
{ACAD_XDICTIONARY
360
290
102
}
102
{ACAD_REACTORS
330
62
102
}
330
62
100
AcDbPlotSettings
  1

  2

  4

  6

 40
0.0
 41
0.0
 42
0.0
 43
0.0
 44
0.0
 45
0.0
 46
0.0
 47
0.0
 48
0.0
 49
0.0
140
0.0
141
0.0
142
1.0
143
1.0
 70
   688
 72
     0
 73
     0
 74
     5
  7

 75
    16
147
1.0
148
0.0
149
0.0
100
AcDbLayout
  1
Layout1
 70
     1
 71
     1
 10
0.0
 20
0.0
 11
22.0
 21
17.0
 12
0.0
 22
0.0
 32
0.0
 14
0.0
 24
0.0
 34
0.0
 15
22.0
 25
17.0
 35
0.0
146
0.0
 13
0.0
 23
0.0
 33
0.0
 16
1.0
 26
0.0
 36
0.0
 17
0.0
 27
1.0
 37
0.0
 76
     0
330
68
  0
LAYOUT
  5
73
102
{ACAD_XDICTIONARY
360
294
102
}
102
{ACAD_REACTORS
330
62
102
}
330
62
100
AcDbPlotSettings
  1

  2

  4

  6

 40
0.0
 41
0.0
 42
0.0
 43
0.0
 44
0.0
 45
0.0
 46
0.0
 47
0.0
 48
0.0
 49
0.0
140
0.0
141
0.0
142
1.0
143
1.0
 70
   688
 72
     0
 73
     0
 74
     5
  7

 75
    16
147
1.0
148
0.0
149
0.0
100
AcDbLayout
  1
Layout2
 70
     1
 71
     2
 10
0.0
 20
0.0
 11
12.0
 21
9.0
 12
0.0
 22
0.0
 32
0.0
 14
0.0
 24
0.0
 34
0.0
 15
0.0
 25
0.0
 35
0.0
146
0.0
 13
0.0
 23
0.0
 33
0.0
 16
1.0
 26
0.0
 36
0.0
 17
0.0
 27
1.0
 37
0.0
 76
     0
330
70
  0
LAYOUT
  5
6F
102
{ACAD_XDICTIONARY
360
292
102
}
102
{ACAD_REACTORS
330
62
102
}
330
62
100
AcDbPlotSettings
  1

  2

  4

  6

 40
0.0
 41
0.0
 42
0.0
 43
0.0
 44
0.0
 45
0.0
 46
0.0
 47
0.0
 48
0.0
 49
0.0
140
0.0
141
0.0
142
1.0
143
1.0
 70
  1712
 72
     0
 73
     0
 74
     0
  7

 75
     0
147
1.0
148
0.0
149
0.0
100
AcDbLayout
  1
Model
 70
     1
 71
     0
 10
0.0
 20
0.0
 11
12.0
 21
9.0
 12
0.0
 22
0.0
 32
0.0
 14
0.0
 24
0.0
 34
0.0
 15
0.0
 25
0.0
 35
0.0
146
0.0
 13
0.0
 23
0.0
 33
0.0
 16
1.0
 26
0.0
 36
0.0
 17
0.0
 27
1.0
 37
0.0
 76
     0
330
6C
331
57
  0
MATERIAL
  5
19
102
{ACAD_XDICTIONARY
360
1A
102
}
102
{ACAD_REACTORS
330
10
102
}
330
10
100
AcDbMaterial
  1
ByBlock
 72
     0
 43
0.0208333333333333
 43
0.0
 43
0.0
 43
0.0
 43
0.0
 43
0.0208333333333333
 43
0.0
 43
0.0
 43
0.0
 43
0.0
 43
1.0
 43
0.0
 43
0.0
 43
0.0
 43
0.0
 43
1.0
 77
     0
 47
0.0208333333333333
 47
0.0
 47
0.0
 47
0.0
 47
0.0
 47
0.0208333333333333
 47
0.0
 47
0.0
 47
0.0
 47
0.0
 47
1.0
 47
0.0
 47
0.0
 47
0.0
 47
0.0
 47
1.0
171
     0
 49
0.0208333333333333
 49
0.0
 49
0.0
 49
0.0
 49
0.0
 49
0.0208333333333333
 49
0.0
 49
0.0
 49
0.0
 49
0.0
 49
1.0
 49
0.0
 49
0.0
 49
0.0
 49
0.0
 49
1.0
175
     0
142
0.0208333333333333
142
0.0
142
0.0
142
0.0
142
0.0
142
0.0208333333333333
142
0.0
142
0.0
142
0.0
142
0.0
142
1.0
142
0.0
142
0.0
142
0.0
142
0.0
142
1.0
179
     0
144
0.0208333333333333
144
0.0
144
0.0
144
0.0
144
0.0
144
0.0208333333333333
144
0.0
144
0.0
144
0.0
144
0.0
144
1.0
144
0.0
144
0.0
144
0.0
144
0.0
144
1.0
147
0.0208333333333333
147
0.0
147
0.0
147
0.0
147
0.0
147
0.0208333333333333
147
0.0
147
0.0
147
0.0
147
0.0
147
1.0
147
0.0
147
0.0
147
0.0
147
0.0
147
1.0
  0
MATERIAL
  5
11
102
{ACAD_XDICTIONARY
360
12
102
}
102
{ACAD_REACTORS
330
10
102
}
330
10
100
AcDbMaterial
  1
ByLayer
 72
     0
 43
0.0208333333333333
 43
0.0
 43
0.0
 43
0.0
 43
0.0
 43
0.0208333333333333
 43
0.0
 43
0.0
 43
0.0
 43
0.0
 43
1.0
 43
0.0
 43
0.0
 43
0.0
 43
0.0
 43
1.0
 77
     0
 47
0.0208333333333333
 47
0.0
 47
0.0
 47
0.0
 47
0.0
 47
0.0208333333333333
 47
0.0
 47
0.0
 47
0.0
 47
0.0
 47
1.0
 47
0.0
 47
0.0
 47
0.0
 47
0.0
 47
1.0
171
     0
 49
0.0208333333333333
 49
0.0
 49
0.0
 49
0.0
 49
0.0
 49
0.0208333333333333
 49
0.0
 49
0.0
 49
0.0
 49
0.0
 49
1.0
 49
0.0
 49
0.0
 49
0.0
 49
0.0
 49
1.0
175
     0
142
0.0208333333333333
142
0.0
142
0.0
142
0.0
142
0.0
142
0.0208333333333333
142
0.0
142
0.0
142
0.0
142
0.0
142
1.0
142
0.0
142
0.0
142
0.0
142
0.0
142
1.0
179
     0
144
0.0208333333333333
144
0.0
144
0.0
144
0.0
144
0.0
144
0.0208333333333333
144
0.0
144
0.0
144
0.0
144
0.0
144
1.0
144
0.0
144
0.0
144
0.0
144
0.0
144
1.0
147
0.0208333333333333
147
0.0
147
0.0
147
0.0
147
0.0
147
0.0208333333333333
147
0.0
147
0.0
147
0.0
147
0.0
147
1.0
147
0.0
147
0.0
147
0.0
147
0.0
147
1.0
  0
MATERIAL
  5
21
102
{ACAD_XDICTIONARY
360
22
102
}
102
{ACAD_REACTORS
330
10
102
}
330
10
100
AcDbMaterial
  1
Global
 72
     0
 43
0.0208333333333333
 43
0.0
 43
0.0
 43
0.0
 43
0.0
 43
0.0208333333333333
 43
0.0
 43
0.0
 43
0.0
 43
0.0
 43
1.0
 43
0.0
 43
0.0
 43
0.0
 43
0.0
 43
1.0
 77
     0
 47
0.0208333333333333
 47
0.0
 47
0.0
 47
0.0
 47
0.0
 47
0.0208333333333333
 47
0.0
 47
0.0
 47
0.0
 47
0.0
 47
1.0
 47
0.0
 47
0.0
 47
0.0
 47
0.0
 47
1.0
171
     0
 49
0.0208333333333333
 49
0.0
 49
0.0
 49
0.0
 49
0.0
 49
0.0208333333333333
 49
0.0
 49
0.0
 49
0.0
 49
0.0
 49
1.0
 49
0.0
 49
0.0
 49
0.0
 49
0.0
 49
1.0
175
     0
142
0.0208333333333333
142
0.0
142
0.0
142
0.0
142
0.0
142
0.0208333333333333
142
0.0
142
0.0
142
0.0
142
0.0
142
1.0
142
0.0
142
0.0
142
0.0
142
0.0
142
1.0
179
     0
144
0.0208333333333333
144
0.0
144
0.0
144
0.0
144
0.0
144
0.0208333333333333
144
0.0
144
0.0
144
0.0
144
0.0
144
1.0
144
0.0
144
0.0
144
0.0
144
0.0
144
1.0
147
0.0208333333333333
147
0.0
147
0.0
147
0.0
147
0.0
147
0.0208333333333333
147
0.0
147
0.0
147
0.0
147
0.0
147
1.0
147
0.0
147
0.0
147
0.0
147
0.0
147
1.0
  0
MLEADERSTYLE
  5
67
102
{ACAD_XDICTIONARY
360
258
102
}
102
{ACAD_REACTORS
330
66
102
}
330
66
100
AcDbMLeaderStyle
170
     2
171
     1
172
     0
 90
        2
 40
0.0
 41
0.0
173
     1
 91
-1056964608
340
5B
 92
       -2
290
     1
 42
0.09
291
     1
 43
0.36
  3
Standard
 44
0.18
300

342
55
174
     1
178
     6
175
     1
176
     0
 93
-1056964608
 45
0.18
292
     0
297
     0
 46
0.18
 94
-1056964608
 47
1.0
 49
1.0
140
1.0
293
     1
141
0.0
294
     1
177
     0
142
1.0
295
     0
296
     0
143
0.125
1001
ACAD_MLEADERVER
1070
     2
  0
MLINESTYLE
  5
60
102
{ACAD_REACTORS
330
5F
102
}
330
5F
100
AcDbMlineStyle
  2
STANDARD
 70
     0
  3

 62
   256
 51
90.0
 52
90.0
 71
     2
 49
0.5
 62
   256
  6
BYLAYER
 49
-0.5
 62
   256
  6
BYLAYER
  0
ACDBPLACEHOLDER
  5
F
102
{ACAD_REACTORS
330
E
102
}
330
E
  0
SCALE
  5
43
102
{ACAD_REACTORS
330
42
102
}
330
42
100
AcDbScale
 70
     0
300
1:1
140
1.0
141
1.0
290
     1
  0
SCALE
  5
44
102
{ACAD_REACTORS
330
42
102
}
330
42
100
AcDbScale
 70
     0
300
1/128" = 1'-0"
140
0.0078125
141
12.0
290
     0
  0
SCALE
  5
45
102
{ACAD_REACTORS
330
42
102
}
330
42
100
AcDbScale
 70
     0
300
1/64" = 1'-0"
140
0.015625
141
12.0
290
     0
  0
SCALE
  5
46
102
{ACAD_REACTORS
330
42
102
}
330
42
100
AcDbScale
 70
     0
300
1/32" = 1'-0"
140
0.03125
141
12.0
290
     0
  0
SCALE
  5
47
102
{ACAD_REACTORS
330
42
102
}
330
42
100
AcDbScale
 70
     0
300
1/16" = 1'-0"
140
0.0625
141
12.0
290
     0
  0
SCALE
  5
48
102
{ACAD_REACTORS
330
42
102
}
330
42
100
AcDbScale
 70
     0
300
3/32" = 1'-0"
140
0.09375
141
12.0
290
     0
  0
SCALE
  5
49
102
{ACAD_REACTORS
330
42
102
}
330
42
100
AcDbScale
 70
     0
300
1/8" = 1'-0"
140
0.125
141
12.0
290
     0
  0
SCALE
  5
4A
102
{ACAD_REACTORS
330
42
102
}
330
42
100
AcDbScale
 70
     0
300
3/16" = 1'-0"
140
0.1875
141
12.0
290
     0
  0
SCALE
  5
4B
102
{ACAD_REACTORS
330
42
102
}
330
42
100
AcDbScale
 70
     0
300
1/4" = 1'-0"
140
0.25
141
12.0
290
     0
  0
SCALE
  5
4C
102
{ACAD_REACTORS
330
42
102
}
330
42
100
AcDbScale
 70
     0
300
3/8" = 1'-0"
140
0.375
141
12.0
290
     0
  0
SCALE
  5
4D
102
{ACAD_REACTORS
330
42
102
}
330
42
100
AcDbScale
 70
     0
300
1/2" = 1'-0"
140
0.5
141
12.0
290
     0
  0
SCALE
  5
4E
102
{ACAD_REACTORS
330
42
102
}
330
42
100
AcDbScale
 70
     0
300
3/4" = 1'-0"
140
0.75
141
12.0
290
     0
  0
SCALE
  5
4F
102
{ACAD_REACTORS
330
42
102
}
330
42
100
AcDbScale
 70
     0
300
1" = 1'-0"
140
1.0
141
12.0
290
     0
  0
SCALE
  5
50
102
{ACAD_REACTORS
330
42
102
}
330
42
100
AcDbScale
 70
     0
300
1-1/2" = 1'-0"
140
1.5
141
12.0
290
     0
  0
SCALE
  5
51
102
{ACAD_REACTORS
330
42
102
}
330
42
100
AcDbScale
 70
     0
300
3" = 1'-0"
140
3.0
141
12.0
290
     0
  0
SCALE
  5
52
102
{ACAD_REACTORS
330
42
102
}
330
42
100
AcDbScale
 70
     0
300
6" = 1'-0"
140
6.0
141
12.0
290
     0
  0
SCALE
  5
53
102
{ACAD_REACTORS
330
42
102
}
330
42
100
AcDbScale
 70
     0
300
1'-0" = 1'-0"
140
12.0
141
12.0
290
     0
  0
TABLESTYLE
  5
65
102
{ACAD_XDICTIONARY
360
203
102
}
102
{ACAD_REACTORS
330
64
102
}
330
64
100
AcDbTableStyle
  3
Standard
 70
     0
 71
     0
 40
0.06
 41
0.06
280
     0
281
     0
  7
Standard
140
0.18
170
     2
 62
     0
 63
     7
283
     0
274
    -2
284
     1
 64
     0
275
    -2
285
     1
 65
     0
276
    -2
286
     1
 66
     0
277
    -2
287
     1
 67
     0
278
    -2
288
     1
 68
     0
279
    -2
289
     1
 69
     0
  7
Standard
140
0.25
170
     5
 62
     0
 63
     7
283
     0
274
    -2
284
     1
 64
     0
275
    -2
285
     1
 65
     0
276
    -2
286
     1
 66
     0
277
    -2
287
     1
 67
     0
278
    -2
288
     1
 68
     0
279
    -2
289
     1
 69
     0
  7
Standard
140
0.18
170
     5
 62
     0
 63
     7
283
     0
274
    -2
284
     1
 64
     0
275
    -2
285
     1
 65
     0
276
    -2
286
     1
 66
     0
277
    -2
287
     1
 67
     0
278
    -2
288
     1
 68
     0
279
    -2
289
     1
 69
     0
  0
VISUALSTYLE
  5
2F
102
{ACAD_XDICTIONARY
360
269
102
}
102
{ACAD_REACTORS
330
29
102
}
330
29
100
AcDbVisualStyle
  2
2dWireframe
 70
     4
 71
     0
 72
     2
 73
     0
 90
        0
 40
-0.6
 41
-30.0
 62
     5
 63
     7
 74
     1
 91
        4
 64
     7
 65
   257
 75
     1
175
     1
 42
1.0
 92
        0
 66
   257
 43
1.0
 76
     1
 77
     6
 78
     2
 67
     7
 79
     5
170
     0
171
     0
290
     0
174
     0
 93
        1
 44
0.0
173
     0
291
     0
 45
0.0
1001
ACAD
1000
AcDbSavedByObjectVersion
1070
     0
  0
VISUALSTYLE
  5
2E
102
{ACAD_XDICTIONARY
360
267
102
}
102
{ACAD_REACTORS
330
29
102
}
330
29
100
AcDbVisualStyle
  2
Basic
 70
     7
 71
     1
 72
     0
 73
     1
 90
        0
 40
-0.6
 41
-30.0
 62
     5
 63
     7
 74
     0
 91
        4
 64
     7
 65
   257
 75
     1
175
     1
 42
1.0
 92
        8
 66
     7
 43
1.0
 76
     1
 77
     6
 78
     2
 67
     7
 79
     5
170
     0
171
     0
290
     0
174
     0
 93
        1
 44
0.0
173
     0
291
     1
 45
0.0
1001
ACAD
1000
AcDbSavedByObjectVersion
1070
     0
  0
VISUALSTYLE
  5
35
102
{ACAD_XDICTIONARY
360
275
102
}
102
{ACAD_REACTORS
330
29
102
}
330
29
100
AcDbVisualStyle
  2
Brighten
 70
    12
 71
     2
 72
     2
 73
     0
 90
        0
 40
-0.6
 41
-30.0
 62
     5
 63
     7
 74
     1
 91
        4
 64
     7
 65
   257
 75
     1
175
     1
 42
1.0
 92
        8
 66
     7
 43
1.0
 76
     1
 77
     6
 78
     2
 67
     7
 79
     5
170
     0
171
     0
290
     0
174
     0
 93
        1
 44
50.0
173
     0
291
     1
 45
0.0
1001
ACAD
1000
AcDbSavedByObjectVersion
1070
     0
  0
VISUALSTYLE
  5
39
102
{ACAD_XDICTIONARY
360
27D
102
}
102
{ACAD_REACTORS
330
29
102
}
330
29
100
AcDbVisualStyle
  2
ColorChange
 70
    16
 71
     2
 72
     2
 73
     3
 90
        0
 40
-0.6
 41
-30.0
 62
     5
 63
     8
 74
     1
 91
        4
 64
     7
 65
   257
 75
     1
175
     1
 42
1.0
 92
        8
 66
     8
 43
1.0
 76
     1
 77
     6
 78
     2
 67
     7
 79
     5
170
     0
171
     0
290
     0
174
     0
 93
        1
 44
0.0
173
     0
291
     1
 45
0.0
1001
ACAD
1000
AcDbSavedByObjectVersion
1070
     0
  0
VISUALSTYLE
  5
32
102
{ACAD_XDICTIONARY
360
26F
102
}
102
{ACAD_REACTORS
330
29
102
}
330
29
100
AcDbVisualStyle
  2
Conceptual
 70
     9
 71
     3
 72
     2
 73
     0
 90
        0
 40
-0.6
 41
-30.0
 62
     5
 63
     7
 74
     2
 91
        2
 64
     7
 65
   257
 75
     1
175
     1
 42
179.0
 92
        8
 66
     7
 43
1.0
 76
     1
 77
     6
 78
     2
 67
     7
 79
     3
170
     0
171
     0
290
     0
174
     0
 93
        1
 44
0.0
173
     0
291
     0
 45
0.0
1001
ACAD
1000
AcDbSavedByObjectVersion
1070
     0
  0
VISUALSTYLE
  5
34
102
{ACAD_XDICTIONARY
360
273
102
}
102
{ACAD_REACTORS
330
29
102
}
330
29
100
AcDbVisualStyle
  2
Dim
 70
    11
 71
     2
 72
     2
 73
     0
 90
        0
 40
-0.6
 41
-30.0
 62
     5
 63
     7
 74
     1
 91
        4
 64
     7
 65
   257
 75
     1
175
     1
 42
1.0
 92
        8
 66
     7
 43
1.0
 76
     1
 77
     6
 78
     2
 67
     7
 79
     5
170
     0
171
     0
290
     0
174
     0
 93
        1
 44
-50.0
173
     0
291
     1
 45
0.0
1001
ACAD
1000
AcDbSavedByObjectVersion
1070
     0
  0
VISUALSTYLE
  5
41
102
{ACAD_XDICTIONARY
360
28D
102
}
102
{ACAD_REACTORS
330
29
102
}
330
29
100
AcDbVisualStyle
  2
EdgeColorOff
 70
    22
 71
     2
 72
     2
 73
     0
 90
        0
 40
-0.6
 41
-30.0
 62
     5
 63
     7
 74
     1
 91
        4
 64
     7
 65
   257
 75
     1
175
     1
 42
1.0
 92
        8
 66
     7
 43
1.0
 76
     1
 77
     6
 78
     2
 67
     7
 79
     5
170
     0
171
     0
290
     0
174
     0
 93
        1
 44
0.0
173
     0
291
     1
 45
0.0
1001
ACAD
1000
AcDbSavedByObjectVersion
1070
     0
  0
VISUALSTYLE
  5
38
102
{ACAD_XDICTIONARY
360
27B
102
}
102
{ACAD_REACTORS
330
29
102
}
330
29
100
AcDbVisualStyle
  2
Facepattern
 70
    15
 71
     2
 72
     2
 73
     0
 90
        0
 40
-0.6
 41
-30.0
 62
     5
 63
     7
 74
     1
 91
        4
 64
     7
 65
   257
 75
     1
175
     1
 42
1.0
 92
        8
 66
     7
 43
1.0
 76
     1
 77
     6
 78
     2
 67
     7
 79
     5
170
     0
171
     0
290
     0
174
     0
 93
        1
 44
0.0
173
     0
291
     1
 45
0.0
1001
ACAD
1000
AcDbSavedByObjectVersion
1070
     0
  0
VISUALSTYLE
  5
2A
102
{ACAD_XDICTIONARY
360
25F
102
}
102
{ACAD_REACTORS
330
29
102
}
330
29
100
AcDbVisualStyle
  2
Flat
 70
     0
 71
     2
 72
     1
 73
     1
 90
        2
 40
-0.6
 41
30.0
 62
     5
 63
     7
 74
     0
 91
        0
 64
     7
 65
   257
 75
     1
175
     1
 42
1.0
 92
        8
 66
     7
 43
1.0
 76
     1
 77
     6
 78
     2
 67
     7
 79
     5
170
     0
171
     0
290
     0
174
     0
 93
       13
 44
0.0
173
     0
291
     1
 45
0.0
1001
ACAD
1000
AcDbSavedByObjectVersion
1070
     0
  0
VISUALSTYLE
  5
2B
102
{ACAD_XDICTIONARY
360
261
102
}
102
{ACAD_REACTORS
330
29
102
}
330
29
100
AcDbVisualStyle
  2
FlatWithEdges
 70
     1
 71
     2
 72
     1
 73
     1
 90
        2
 40
-0.6
 41
30.0
 62
     5
 63
     7
 74
     1
 91
        0
 64
     7
 65
   257
 75
     1
175
     1
 42
1.0
 92
        0
 66
   257
 43
1.0
 76
     1
 77
     6
 78
     2
 67
     7
 79
     5
170
     0
171
     0
290
     0
174
     0
 93
       13
 44
0.0
173
     0
291
     1
 45
0.0
1001
ACAD
1000
AcDbSavedByObjectVersion
1070
     0
  0
VISUALSTYLE
  5
2C
102
{ACAD_XDICTIONARY
360
263
102
}
102
{ACAD_REACTORS
330
29
102
}
330
29
100
AcDbVisualStyle
  2
Gouraud
 70
     2
 71
     2
 72
     2
 73
     1
 90
        2
 40
-0.6
 41
30.0
 62
     5
 63
     7
 74
     0
 91
        0
 64
     7
 65
   257
 75
     1
175
     1
 42
1.0
 92
        0
 66
     7
 43
1.0
 76
     1
 77
     6
 78
     2
 67
     7
 79
     5
170
     0
171
     0
290
     0
174
     0
 93
       13
 44
0.0
173
     0
291
     1
 45
0.0
1001
ACAD
1000
AcDbSavedByObjectVersion
1070
     0
  0
VISUALSTYLE
  5
2D
102
{ACAD_XDICTIONARY
360
265
102
}
102
{ACAD_REACTORS
330
29
102
}
330
29
100
AcDbVisualStyle
  2
GouraudWithEdges
 70
     3
 71
     2
 72
     2
 73
     1
 90
        2
 40
-0.6
 41
30.0
 62
     5
 63
     7
 74
     1
 91
        0
 64
     7
 65
   257
 75
     1
175
     1
 42
1.0
 92
        0
 66
   257
 43
1.0
 76
     1
 77
     6
 78
     2
 67
     7
 79
     5
170
     0
171
     0
290
     0
174
     0
 93
       13
 44
0.0
173
     0
291
     1
 45
0.0
1001
ACAD
1000
AcDbSavedByObjectVersion
1070
     0
  0
VISUALSTYLE
  5
31
102
{ACAD_XDICTIONARY
360
26D
102
}
102
{ACAD_REACTORS
330
29
102
}
330
29
100
AcDbVisualStyle
  2
Hidden
 70
     6
 71
     1
 72
     2
 73
     2
 90
        0
 40
-0.6
 41
-30.0
 62
     5
 63
     7
 74
     2
 91
        2
 64
     7
 65
   257
 75
     2
175
     1
 42
40.0
 92
        0
 66
   257
 43
1.0
 76
     1
 77
     6
 78
     2
 67
     7
 79
     3
170
     0
171
     0
290
     0
174
     0
 93
        1
 44
0.0
173
     0
291
     0
 45
0.0
1001
ACAD
1000
AcDbSavedByObjectVersion
1070
     0
  0
VISUALSTYLE
  5
3F
102
{ACAD_XDICTIONARY
360
289
102
}
102
{ACAD_REACTORS
330
29
102
}
330
29
100
AcDbVisualStyle
  2
JitterOff
 70
    20
 71
     2
 72
     2
 73
     0
 90
        0
 40
-0.6
 41
-30.0
 62
     5
 63
     7
 74
     1
 91
        4
 64
     7
 65
   257
 75
     1
175
     1
 42
1.0
 92
       10
 66
     7
 43
1.0
 76
     1
 77
     6
 78
     2
 67
     7
 79
     5
170
     0
171
     0
290
     0
174
     0
 93
        1
 44
0.0
173
     0
291
     1
 45
0.0
1001
ACAD
1000
AcDbSavedByObjectVersion
1070
     0
  0
VISUALSTYLE
  5
37
102
{ACAD_XDICTIONARY
360
279
102
}
102
{ACAD_REACTORS
330
29
102
}
330
29
100
AcDbVisualStyle
  2
Linepattern
 70
    14
 71
     2
 72
     2
 73
     0
 90
        0
 40
-0.6
 41
-30.0
 62
     5
 63
     7
 74
     1
 91
        4
 64
     7
 65
   257
 75
     7
175
     7
 42
1.0
 92
        8
 66
     7
 43
1.0
 76
     1
 77
     6
 78
     2
 67
     7
 79
     5
170
     0
171
     0
290
     0
174
     0
 93
        1
 44
0.0
173
     0
291
     1
 45
0.0
1001
ACAD
1000
AcDbSavedByObjectVersion
1070
     0
  0
VISUALSTYLE
  5
40
102
{ACAD_XDICTIONARY
360
28B
102
}
102
{ACAD_REACTORS
330
29
102
}
330
29
100
AcDbVisualStyle
  2
OverhangOff
 70
    21
 71
     2
 72
     2
 73
     0
 90
        0
 40
-0.6
 41
-30.0
 62
     5
 63
     7
 74
     1
 91
        4
 64
     7
 65
   257
 75
     1
175
     1
 42
1.0
 92
        9
 66
     7
 43
1.0
 76
     1
 77
     6
 78
     2
 67
     7
 79
     5
170
     0
171
     0
290
     0
174
     0
 93
        1
 44
0.0
173
     0
291
     1
 45
0.0
1001
ACAD
1000
AcDbSavedByObjectVersion
1070
     0
  0
VISUALSTYLE
  5
33
102
{ACAD_XDICTIONARY
360
271
102
}
102
{ACAD_REACTORS
330
29
102
}
330
29
100
AcDbVisualStyle
  2
Realistic
 70
     8
 71
     2
 72
     2
 73
     0
 90
        2
 40
-0.6
 41
30.0
 62
     5
 63
     7
 74
     0
 91
        0
 64
     7
 65
   257
 75
     1
175
     1
 42
1.0
 92
        8
 66
   257
 43
1.0
 76
     1
 77
     6
 78
     2
 67
     7
 79
     3
170
     0
171
     0
290
     0
174
     0
 93
       13
 44
0.0
173
     0
291
     0
 45
0.0
1001
ACAD
1000
AcDbSavedByObjectVersion
1070
     0
  0
VISUALSTYLE
  5
3E
102
{ACAD_XDICTIONARY
360
287
102
}
102
{ACAD_REACTORS
330
29
102
}
330
29
100
AcDbVisualStyle
  2
Shaded
 70
    27
 71
     2
 72
     2
 73
     1
 90
        2
 40
-0.6
 41
30.0
 62
     5
 63
     7
 74
     0
 91
        4
 64
     7
 65
   257
 75
     1
175
     1
 42
1.0
 92
        8
 66
   257
 43
1.0
 76
     1
 77
     6
 78
     2
 67
     8
 79
     3
170
     0
171
     0
290
     0
174
     0
 93
        5
 44
0.0
173
     0
291
     0
 45
0.0
1001
ACAD
1000
AcDbSavedByObjectVersion
1070
     0
  0
VISUALSTYLE
  5
3D
102
{ACAD_XDICTIONARY
360
285
102
}
102
{ACAD_REACTORS
330
29
102
}
330
29
100
AcDbVisualStyle
  2
Shaded with edges
 70
    26
 71
     2
 72
     2
 73
     1
 90
        2
 40
-0.6
 41
30.0
 62
     5
 63
     7
 74
     1
 91
       10
 64
     7
 65
   257
 75
     2
175
     1
 42
1.0
 92
        8
 66
   257
 43
1.0
 76
     1
 77
     6
 78
     2
 67
     7
 79
     3
170
     0
171
     0
290
     0
174
     0
 93
        5
 44
0.0
173
     0
291
     0
 45
0.0
1001
ACAD
1000
AcDbSavedByObjectVersion
1070
     0
  0
VISUALSTYLE
  5
3A
102
{ACAD_XDICTIONARY
360
27F
102
}
102
{ACAD_REACTORS
330
29
102
}
330
29
100
AcDbVisualStyle
  2
Shades of Gray
 70
    23
 71
     2
 72
     2
 73
     3
 90
        0
 40
-0.6
 41
-30.0
 62
     5
 63
     7
 74
     2
 91
        2
 64
     7
 65
     7
 75
     1
175
     1
 42
40.0
 92
        8
 66
     7
 43
1.0
 76
     1
 77
     6
 78
     2
 67
     7
 79
     3
170
     0
171
     0
290
     0
174
     0
 93
        1
 44
0.0
173
     0
291
     0
 45
0.0
1001
ACAD
1000
AcDbSavedByObjectVersion
1070
     0
  0
VISUALSTYLE
  5
3B
102
{ACAD_XDICTIONARY
360
281
102
}
102
{ACAD_REACTORS
330
29
102
}
330
29
100
AcDbVisualStyle
  2
Sketchy
 70
    24
 71
     1
 72
     2
 73
     2
 90
        0
 40
-0.6
 41
-30.0
 62
     5
 63
     7
 74
     2
 91
        2
 64
     7
 65
     7
 75
     1
175
     1
 42
40.0
 92
       11
 66
     7
 43
1.0
 76
     1
 77
     6
 78
     2
 67
     7
 79
     6
170
     0
171
     0
290
     0
174
     0
 93
        1
 44
0.0
173
     0
291
     0
 45
0.0
1001
ACAD
1000
AcDbSavedByObjectVersion
1070
     0
  0
VISUALSTYLE
  5
36
102
{ACAD_XDICTIONARY
360
277
102
}
102
{ACAD_REACTORS
330
29
102
}
330
29
100
AcDbVisualStyle
  2
Thicken
 70
    13
 71
     2
 72
     2
 73
     0
 90
        0
 40
-0.6
 41
-30.0
 62
     5
 63
     7
 74
     1
 91
        4
 64
     7
 65
   257
 75
     1
175
     1
 42
1.0
 92
       12
 66
     7
 43
1.0
 76
     1
 77
     6
 78
     2
 67
     7
 79
     5
170
     0
171
     0
290
     0
174
     0
 93
        1
 44
0.0
173
     0
291
     1
 45
0.0
1001
ACAD
1000
AcDbSavedByObjectVersion
1070
     0
  0
VISUALSTYLE
  5
30
102
{ACAD_XDICTIONARY
360
26B
102
}
102
{ACAD_REACTORS
330
29
102
}
330
29
100
AcDbVisualStyle
  2
Wireframe
 70
     5
 71
     0
 72
     2
 73
     0
 90
        0
 40
-0.6
 41
-30.0
 62
     5
 63
     7
 74
     1
 91
        4
 64
     7
 65
   257
 75
     1
175
     1
 42
1.0
 92
        0
 66
   257
 43
1.0
 76
     1
 77
     6
 78
     2
 67
     7
 79
     3
170
     0
171
     0
290
     0
174
     0
 93
        1
 44
0.0
173
     0
291
     0
 45
0.0
1001
ACAD
1000
AcDbSavedByObjectVersion
1070
     0
  0
VISUALSTYLE
  5
3C
102
{ACAD_XDICTIONARY
360
283
102
}
102
{ACAD_REACTORS
330
29
102
}
330
29
100
AcDbVisualStyle
  2
X-Ray
 70
    25
 71
     2
 72
     2
 73
     1
 90
        1
 40
0.5
 41
-30.0
 62
     5
 63
     7
 74
     1
 91
        0
 64
     7
 65
   257
 75
     1
175
     1
 42
1.0
 92
        8
 66
     7
 43
1.0
 76
     1
 77
     6
 78
     2
 67
     7
 79
     3
170
     0
171
     0
290
     0
174
     0
 93
       13
 44
0.0
173
     0
291
     0
 45
0.0
1001
ACAD
1000
AcDbSavedByObjectVersion
1070
     0
  0
DICTIONARYVAR
  5
79
102
{ACAD_REACTORS
330
76
102
}
330
76
100
DictionaryVariables
280
     0
  1
1:1
  0
DICTIONARYVAR
  5
78
102
{ACAD_REACTORS
330
76
102
}
330
76
100
DictionaryVariables
280
     0
  1
STANDARD
  0
DICTIONARYVAR
  5
77
102
{ACAD_REACTORS
330
76
102
}
330
76
100
DictionaryVariables
280
     0
  1
STANDARD
  0
DICTIONARYVAR
  5
24D
102
{ACAD_REACTORS
330
76
102
}
330
76
100
DictionaryVariables
280
     0
  1
1
  0
DICTIONARYVAR
  5
24C
102
{ACAD_REACTORS
330
76
102
}
330
76
100
DictionaryVariables
280
     0
  1
1
  0
DICTIONARYVAR
  5
24B
102
{ACAD_REACTORS
330
76
102
}
330
76
100
DictionaryVariables
280
     0
  1
0
  0
DICTIONARYVAR
  5
248
102
{ACAD_REACTORS
330
76
102
}
330
76
100
DictionaryVariables
280
     0
  1
0
  0
DICTIONARYVAR
  5
249
102
{ACAD_REACTORS
330
76
102
}
330
76
100
DictionaryVariables
280
     0
  1
0
  0
DICTIONARYVAR
  5
247
102
{ACAD_REACTORS
330
76
102
}
330
76
100
DictionaryVariables
280
     0
  1
2
  0
DICTIONARYVAR
  5
246
102
{ACAD_REACTORS
330
76
102
}
330
76
100
DictionaryVariables
280
     0
  1
1
  0
DICTIONARYVAR
  5
24A
102
{ACAD_REACTORS
330
76
102
}
330
76
100
DictionaryVariables
280
     0
  1
127
  0
DICTIONARYVAR
  5
255
102
{ACAD_REACTORS
330
76
102
}
330
76
100
DictionaryVariables
280
     0
  1
2
  0
DICTIONARY
  5
290
330
6B
100
AcDbDictionary
280
     1
281
     1
  3
ACAD_XREC_ROUNDTRIP
360
291
  0
DICTIONARY
  5
294
330
73
100
AcDbDictionary
280
     1
281
     1
  3
ACAD_XREC_ROUNDTRIP
360
295
  0
DICTIONARY
  5
292
330
6F
100
AcDbDictionary
280
     1
281
     1
  3
ACAD_XREC_ROUNDTRIP
360
293
  0
DICTIONARY
  5
1A
330
19
100
AcDbDictionary
280
     1
281
     1
  3
ACAD_XREC_ROUNDTRIP
360
25D
  3
BUMPTILE
360
1C
  3
DIFFUSETILE
360
1B
  3
OPACITYTILE
360
1F
  3
REFLECTIONTILE
360
1E
  3
REFRACTIONTILE
360
20
  3
SPECULARTILE
360
1D
  0
DICTIONARY
  5
12
330
11
100
AcDbDictionary
280
     1
281
     1
  3
ACAD_XREC_ROUNDTRIP
360
25C
  3
BUMPTILE
360
14
  3
DIFFUSETILE
360
13
  3
FBXASSET
360
F9
  3
OPACITYTILE
360
17
  3
REFLECTIONTILE
360
16
  3
REFRACTIONTILE
360
18
  3
SPECULARTILE
360
15
  0
DICTIONARY
  5
22
330
21
100
AcDbDictionary
280
     1
281
     1
  3
ACAD_XREC_ROUNDTRIP
360
25E
  3
BUMPTILE
360
24
  3
DIFFUSETILE
360
23
  3
FBXASSET
360
BA
  3
OPACITYTILE
360
27
  3
REFLECTIONTILE
360
26
  3
REFRACTIONTILE
360
28
  3
SPECULARTILE
360
25
  0
DICTIONARY
  5
258
330
67
100
AcDbDictionary
280
     1
281
     1
  3
ACAD_XREC_ROUNDTRIP
360
259
  0
DICTIONARY
  5
203
330
65
100
AcDbDictionary
280
     1
281
     1
  3
ACAD_ROUNDTRIP_2008_TABLESTYLE_CELLSTYLEMAP
360
257
  3
ACAD_XREC_ROUNDTRIP
360
28F
  0
DICTIONARY
  5
269
330
2F
100
AcDbDictionary
280
     1
281
     1
  3
ACAD_XREC_ROUNDTRIP
360
26A
  0
DICTIONARY
  5
267
330
2E
100
AcDbDictionary
280
     1
281
     1
  3
ACAD_XREC_ROUNDTRIP
360
268
  0
DICTIONARY
  5
275
330
35
100
AcDbDictionary
280
     1
281
     1
  3
ACAD_XREC_ROUNDTRIP
360
276
  0
DICTIONARY
  5
27D
330
39
100
AcDbDictionary
280
     1
281
     1
  3
ACAD_XREC_ROUNDTRIP
360
27E
  0
DICTIONARY
  5
26F
330
32
100
AcDbDictionary
280
     1
281
     1
  3
ACAD_XREC_ROUNDTRIP
360
270
  0
DICTIONARY
  5
273
330
34
100
AcDbDictionary
280
     1
281
     1
  3
ACAD_XREC_ROUNDTRIP
360
274
  0
DICTIONARY
  5
28D
330
41
100
AcDbDictionary
280
     1
281
     1
  3
ACAD_XREC_ROUNDTRIP
360
28E
  0
DICTIONARY
  5
27B
330
38
100
AcDbDictionary
280
     1
281
     1
  3
ACAD_XREC_ROUNDTRIP
360
27C
  0
DICTIONARY
  5
25F
330
2A
100
AcDbDictionary
280
     1
281
     1
  3
ACAD_XREC_ROUNDTRIP
360
260
  0
DICTIONARY
  5
261
330
2B
100
AcDbDictionary
280
     1
281
     1
  3
ACAD_XREC_ROUNDTRIP
360
262
  0
DICTIONARY
  5
263
330
2C
100
AcDbDictionary
280
     1
281
     1
  3
ACAD_XREC_ROUNDTRIP
360
264
  0
DICTIONARY
  5
265
330
2D
100
AcDbDictionary
280
     1
281
     1
  3
ACAD_XREC_ROUNDTRIP
360
266
  0
DICTIONARY
  5
26D
330
31
100
AcDbDictionary
280
     1
281
     1
  3
ACAD_XREC_ROUNDTRIP
360
26E
  0
DICTIONARY
  5
289
330
3F
100
AcDbDictionary
280
     1
281
     1
  3
ACAD_XREC_ROUNDTRIP
360
28A
  0
DICTIONARY
  5
279
330
37
100
AcDbDictionary
280
     1
281
     1
  3
ACAD_XREC_ROUNDTRIP
360
27A
  0
DICTIONARY
  5
28B
330
40
100
AcDbDictionary
280
     1
281
     1
  3
ACAD_XREC_ROUNDTRIP
360
28C
  0
DICTIONARY
  5
271
330
33
100
AcDbDictionary
280
     1
281
     1
  3
ACAD_XREC_ROUNDTRIP
360
272
  0
DICTIONARY
  5
287
330
3E
100
AcDbDictionary
280
     1
281
     1
  3
ACAD_XREC_ROUNDTRIP
360
288
  0
DICTIONARY
  5
285
330
3D
100
AcDbDictionary
280
     1
281
     1
  3
ACAD_XREC_ROUNDTRIP
360
286
  0
DICTIONARY
  5
27F
330
3A
100
AcDbDictionary
280
     1
281
     1
  3
ACAD_XREC_ROUNDTRIP
360
280
  0
DICTIONARY
  5
281
330
3B
100
AcDbDictionary
280
     1
281
     1
  3
ACAD_XREC_ROUNDTRIP
360
282
  0
DICTIONARY
  5
277
330
36
100
AcDbDictionary
280
     1
281
     1
  3
ACAD_XREC_ROUNDTRIP
360
278
  0
DICTIONARY
  5
26B
330
30
100
AcDbDictionary
280
     1
281
     1
  3
ACAD_XREC_ROUNDTRIP
360
26C
  0
DICTIONARY
  5
283
330
3C
100
AcDbDictionary
280
     1
281
     1
  3
ACAD_XREC_ROUNDTRIP
360
284
  0
XRECORD
  5
291
102
{ACAD_REACTORS
330
290
102
}
330
290
100
AcDbXrecord
280
     1
102
SHADEPLOT
 70
     0
102
SHADEPLOTRESLEVEL
 70
     2
102
SHADEPLOTCUSTOMDPI
 70
   300
  0
XRECORD
  5
295
102
{ACAD_REACTORS
330
294
102
}
330
294
100
AcDbXrecord
280
     1
102
SHADEPLOT
 70
     0
102
SHADEPLOTRESLEVEL
 70
     2
102
SHADEPLOTCUSTOMDPI
 70
   300
  0
XRECORD
  5
293
102
{ACAD_REACTORS
330
292
102
}
330
292
100
AcDbXrecord
280
     1
102
SHADEPLOT
 70
     0
102
SHADEPLOTRESLEVEL
 70
     2
102
SHADEPLOTCUSTOMDPI
 70
   300
  0
XRECORD
  5
25D
102
{ACAD_REACTORS
330
1A
102
}
330
1A
100
AcDbXrecord
280
     1
102
MATERIAL
148
0.0
149
0.0
149
0.0
 93
        0
 94
      127
282
     0
 72
     0
 77
     0
171
     0
175
     0
179
     0
273
     0
  0
XRECORD
  5
1C
102
{ACAD_REACTORS
330
1A
102
}
330
1A
100
AcDbXrecord
280
     1
270
     1
271
     1
  0
XRECORD
  5
1B
102
{ACAD_REACTORS
330
1A
102
}
330
1A
100
AcDbXrecord
280
     1
270
     1
271
     1
  0
XRECORD
  5
1F
102
{ACAD_REACTORS
330
1A
102
}
330
1A
100
AcDbXrecord
280
     1
270
     1
271
     1
  0
XRECORD
  5
1E
102
{ACAD_REACTORS
330
1A
102
}
330
1A
100
AcDbXrecord
280
     1
270
     1
271
     1
  0
XRECORD
  5
20
102
{ACAD_REACTORS
330
1A
102
}
330
1A
100
AcDbXrecord
280
     1
270
     1
271
     1
  0
XRECORD
  5
1D
102
{ACAD_REACTORS
330
1A
102
}
330
1A
100
AcDbXrecord
280
     1
270
     1
271
     1
  0
XRECORD
  5
25C
102
{ACAD_REACTORS
330
12
102
}
330
12
100
AcDbXrecord
280
     1
102
MATERIAL
148
0.0
149
0.0
149
0.0
 93
        0
 94
      127
282
     0
 72
     0
 77
     0
171
     0
175
     0
179
     0
273
     0
  0
XRECORD
  5
14
102
{ACAD_REACTORS
330
12
102
}
330
12
100
AcDbXrecord
280
     1
270
     1
271
     1
  0
XRECORD
  5
13
102
{ACAD_REACTORS
330
12
102
}
330
12
100
AcDbXrecord
280
     1
270
     1
271
     1
  0
XRECORD
  5
F9
102
{ACAD_REACTORS
330
12
102
}
330
12
100
AcDbXrecord
280
     1
 70
     1
 90
1959938040
 71
     1
  1
5511AE74-39B1-4414-858E-CCAC354FF125
311
504B03040A0000080000BB6C94403DEE336E79000000790000001B0000006175746F6465736B2D64657369676E2D7061636B6167652E786D6C3C3F786D6C2076657273696F6E3D22312E302220656E636F64696E673D227574662D3822203F3E3C666F726D6174733E3C666F726D61743E687474703A2F2F736368656D612E
311
6175746F6465736B2E636F6D2F64657369676E2D7061636B6167652F323030393C2F666F726D61743E3C2F666F726D6174733E504B0304140006080800BB6C9440D486FD9CA0000000F4000000130000005B436F6E74656E745F54797065735D2E786D6C7D8EC10E82300C865F65E91D8A1E8C310C0EEA1BF002731658846E
311
D98AC1B77784ABF1D8FE5FBFBF75BBCE937A534CCEB38643598122B6FEE978D0B0485F9C41B54DDD7D022595594E1A469170414C76A4D9A4D207E29CF43ECE46F218070CC6BECC4078ACAA135ACF422C856C0E68EA1BF5669944DDD7BCDE7B1F8E415D77AECB980613C2E4AC91FC167A2B244592486606FC29C8FD7F045B9A
311
EF7053A7E60B504B0304140006080800BB6C9440F2B6347AEB0000007C01000008000000636F72652E786D6C8D904D6EC3201085AF82668F0DFE695C0B13B9717C825E0001715062B00C543D7E71E248EDAEAB19BD79DFCCE8B1E3F77C475F7AF5C6D90E684600692B9D3276EA20860B6E001D395B9D0BBF6C80AC9875079B
311
0C9C4DAB8BCB2E496783B621A9D629BD8BC27B1D00C97B6A3AF0F2AA6791891892C3DFB245C89B9874465F5D8263340A3D8F1895F6998BD12BF003A57DD99FCFB829AA1A57A7F737DC8F23C543DD0F1FC3D837A7B262F9067316CCFCBA2F572D8256C00B420B4C2A5C904F5AB6E5A1AD2B4C9A9610966FF63F505CD43FA168
311
6C288BFDDD27E681D3F4C863C059BE6591CA23A854B7DCF80F504B0304140006080800BB6C944055019EA25F0000007C00000007000000636E782E786D6C4DCB3B0E80201045D1AD90E915ED2CF8AC45050C11660C8261F98AB1B07AC9C97D42D718D865D3E909258CFD00CCE24AC6E326A164D74DC0B4128928FF32603847
311
2BA13128B1252AC747C6BAB984FC68F0B87FE8960A5C09FE86CFB69FBA01504B0304140006080800BB6C94406913761767010000020300000C0000006662782F636F72652E786D6C8D525B6E833010BC8AE57F635E69D2C838A2799CA01770C0A156C046C646397E9747445345518464AC999DDDD901B6BB3535EAA5ED94D1
311
198E821023A90B532A5D65D8BB0BD960B4E3CC1AE3FE9461A44523333CC098B3CA1ADFCE5061B493DA01AA4D296750749D741815355C32DC153FB21181F00E2ABA6BD08AE22A2A194401D050C759E72C1840D390E1C4FC72BE313AE19C79AFCA9955254C5317252DE6EB28CA93FC78249B385D9174FFF941F2D3292287557E
311
F83A9CF2CD3E49191DC49C39D5DCDD15560A274BCCE3308A49989238FC8E926DB2DEAE52126EB661C8E850FE20F26DF9A6C82BED9278B63BC93ACC23303212FFB685881CEA440F7E28677408115E63C28F41432010B213E7FABEC715A05E16CED81498D2F885EA45ED254C0DD1F8303AB1D0796C009B3DED13BFE8F3BA077C
311
40A12BB0261C5CCFDE0DD3D934758EA29596F4EE86B4B18DA8177393C5E55C063D9517A636F61D359D57A5739874F87BF92F504B0304140006080800BB6C94401794CE7D7E0000009D0000000B0000006662782F636E782E786D6C4DCCD10A83201886E15B91FFDC95ADA6821A13B7FB886521990EA76397BF1A1DECE88387
311
8F57F49FD5A3B74D2F17830472AA01D9F088A30BB3849227CC00F54AA418F3DF0D5018562B616750624EB13C0F1AED34149F37F52E2C07DE58436BA319BE104371AB29C59AB70613C2B969BA73772757A894A87EA56DF7B0FA02504B0304140006080800BB6C9440ABD00CA62C01000015020000310000006662782F453832
311
37304442382D363144372D344237372D423934442D3131393944323533354631412F636F72652E786D6C8D51CB6EC32010FC15C4293D6003C6B11361A2466EBFA03FE000495062B07854F9FCE2DA91DA5B2E2C9A9D991DEDF2C363BC836FED8371B683A4C010682B9D32F6D2C114CFA885E020B8772EFEA141608751777086
311
A1E017EFD2B442D2D9A86DCCA8754AAFE010828E10C87BFE7430C8AB1E8762483133C2AD9806791B2EBA20456E679EE021FA1C002C43E6178A8F9636B83FB6684BFA06B163D3A0E38EF58890DDAEA775557F92775E2E42C153326A951B95E398B3D1FE5593592C7834E333BEF47A885A414131A1083344F117A9F655B3AF19
311
C2ED1E635ECEF47FA234A91745C9D858D135EE220B50105E2E0DC1954BA7FB338C7E4CCE4730CFDB042DDFA0C005C60DA6ACAA5A5E2EDCBC816CBA65AB6988CEE70D6F6EA74C27F5E2BC658297F39172F9BD60AEF341C50F504B0304140006080800BB6C944010C599224D01000033030000300000006662782F4538323730
311
4442382D363144372D344237372D423934442D3131393944323533354631412F636E782E786D6CD593CD6E022114855F85B09F3F9D5A63184CBAE81374D12D0357451998F0D3D4B7EF45D1BA71D165376472EEE19C9B2F0CDB7E4F867C810FDAD98176754B0958E994B6FB81A6B8ABD6946C39F3CEC5071B25564C30D02C53
311
CEF6DEA5B9480A76229988AAD1F654440FC1252F21A09C6F12E3A4301800B64A28C2348252A0C8DD885F3BF0B80A8AE399C40390F7B74FE2C623C818589353386B720767F92C4D0F264AA411210C34C8034CA216293A05E1542B1145DDD5B7AE273BFD26917CE15699BC26B97CA0F9A4BC6C542347D6E090B3103DD22BA678
311
9E817231CF464B11117273315E3D9C256DE3AA2F5E8DE03DBABBD5B2EF31EC32E32CEA098A437A101114E58BB65B546D5F2DDA8F6EB959BE6E5EFAAA5D6FDA9635D9CED9E89C29973006BC9B897436828D9477ACC9E367F88A8F28ED91B5F3E73F804400A5F54AE79EF19FF93497F78DB83CFE05FC07504B03041400060808
311
00BB6C9440455AAD3FA605000081100000340000006662782F45383237304442382D363144372D344237372D423934442D3131393944323533354631412F6F626A656374732E786D6CAD575B6FDB3614FE2B82F6B23D58B26CB94D064583632785D1A52D6AB4D88301839628850B750149A5CE7EFD3E4A942CB976EA0D7DD1
311
8597C373BEF39D0B833FF619B79EA990ACC86F6CCF19DB16CDA32266797A63572A195DD9D61F61208A42F596D9564E327A63EB613B0C525154A5198A69422AAE8E46EF6FFFB26444736A5B112752DED8327AA4197148A58A98CA2727268A3869B2773CA75938149B0A523E1E092D89A0B982A618CF21C56A94F286BF63DB0D
311
0357CF87817E9A55D3F3ABDCDA9EE1F92C978AE4D177871D89997AFEF26E32BB1ECD7C7F3AF2DF4CBCD1EDFDED72E4BD9D8E176F168BEBF9DD350E964A4092D144D0C40EDF011BC1A2C06DA6C2A062B99A4ECC12E32057D067A63D658713CB0BDC664D679D31F294FA5191E734AAB1021AB57D46744C4B9AC7F039A3129AF5
311
101A0F7F3D8D636F7AAAFFCD91FDE1CB10E8EFE8096A756FDF7D4D8BDDDF30415EC22021A9666083A531B4E1EAF880F0AE28B89963D2CA88A282116E71B61344BCD82196EA25613010A3992C7434680BEC105E68A687744118FD98E7A7B44C2ACE358DEDB08E822D62852A596BC6FEA1E2A07D1F19E8045F69365C1983D44B
311
49EDF0BAA1C8D5119B1A20AD8493142E87997AE7747264E842C7E96A6987EFEF77FBB58EDDD38797A228A9509A3EA056EBB8F6AD51323A7917794E6FB08F543980F219C87F40A81F5481DF04DBFB7BDF9CA204C96552880CBEB1C6D6688CC7D8F2EAA7FEEE7D056EB779E8BD7378C2D91AAA9F80E7D086BE2F7B7086C13308
311
5F88A9316D1D118EB4F1C07200A44962F10243C8C3C96E6F872B64396465EC223CF46032D47DC667E01A314814F549BD770E2C8FD2E205091AB0D58C841A0DF98D82073F7D97CEEA83CDB273F0CE7E0A5DE7CBF5FB75251212D10713D34B9AB09C2994B8036FFA0A0D301F58F4445FBE152286A1DFE3BDEEE39D99A324D0D6
311
986BE0D336A7EB9FC3C9830322EC4B0B9D6E821F9C00237461EDC97F6032A29C939C16557BEEABF50365A3815807BB667257600E8505A469668E6210453A12ACD42076D5AA4B9ACE19EBBEAC3E80917678FBF22779E967AFDD21F746052FC476F7B26DD2D249A8BF0EB96D3070B514D0BD0E9236FE0DE8DB9825492591044F
311
E0FA75B5E8FB4EA705A488566A132D3EEC4770116148DBCA45B5160495B4C8B70C75137177F280BE7C406A18500B3CA7B1A43CD932CEAB6C9B308E6AB4CD4879068EFFAFFFAECACA2DC98A2A5767640F54477518EA3E60AFFC4654F46887EBFA3DBA45EE8D697C860CBA969CC06AE0DAD9CCF3E6776FFDD1F4FAD61BF9BEE7
311
8FAE665777A3C562BE98CEFCFB7B6F822C6134AA9BA830684B4D3FA2E12594B6A012CCB8EFCB0AF16392801D3E102537EF9AF06CDF5F560E7AE1C0C51ED4CB6EE33C7E46DF47E31F0B38AC3C296895959C66345744C7D083FEE09F09FA8C8132CDF82A2329BD40CAC777EB23633072C1BE4F3ADEE9B7A3BD6674A103F2A410
311
F55865BB9C307EB4316D9074CA3C35F8B53EE9DE4DA1697FF59F710C3A53597016230FC6564A8B8C2A64C30B8A90C8A804F5FA3D7D6CEE1E17EC7E6E3A4445769CB69A3C1234C95C222C40F22A52C371EB173475BAAFBAB1516E9D273C4CA6B02D70E6C64693AE5844A5B34381D6AD502D1C5CEA77F2E02CC9538E5EBBD9D4
311
FD77BB34368392DC2DB9A47F32763529DC18803452A26F404304EFD4CA8441AD9B998FFE93E1AD3A1651F8DC55AAB3E530D019531F83106D8C32B70534314FE6E83D02F575B33CA75E3340E4A25BD6AB2468A48E1411697D53D0FA1995E6CB4F2E3A146BF5D12A7995C297974B1A090A32573AC0C122B0C2C82C89025517BF
311
6F3E890237D9CCBA67A080F5EBFEEACD6F9B45916545DE0C6DE6E63E6CAD1F71BB8D37480E545F4BE46632F6269BFA3A606E28DB1D91D421B17CC2003C2B5807F4C0FDE0657367441D6A26BA75AE76C51143574BCB14361F420D5DFAB9558383C623A71662485F2975C4F41794AFDE08DC7A295410E8E5C37F01504B030414
311
0006080000BB6C9440000000000000000000000000350000006662782F45383237304442382D363144372D344237372D423934442D3131393944323533354631412F76657274696365732E62696E504B0304140006080800BB6C9440F270F1330600000004000000360000006662782F45383237304442382D363144372D34
311
4237372D423934442D3131393944323533354631412F747269616E676C65732E62696E636660600000504B0304140006080000BB6C9440000000000000000000000000370000006662782F45383237304442382D363144372D344237372D423934442D3131393944323533354631412F617474726962757465732E62696E50
311
4B0304140006080800BB6C9440D5987DFC8F00000041010000360000006662782F45383237304442382D363144372D344237372D423934442D3131393944323533354631412F6469726563746F72792E786D6C858F410EC2201045AF4266AF15DDB800BA74E7C21B903225242D6328188F2FA5C4183471359997F9FF81E89F
311
F3C41E1816475E02DF1F80A11FC8386F25A438EECEC07A250251FC3803E6F58C12560C4AD840E95E91C151A72936F496F35732D860FE635F62C8F2DA16B505C545B74125BAA2FA9E05D7CC053D063734D5C7665FD55B6B8D15D5E9BFEAFD8490FFA45E504B0304140006080800BB6C9440E11D1AE2FE000000A00100003B00
311
00006662782F45383237304442382D363144372D344237372D423934442D3131393944323533354631412F7265736F75726365732F636F72652E786D6C8D504B6E833010BD0A9ABDC106D250641CD1D09CA017B0CC84580976E44FD5E3D74EA8D4EEBA9919BD8FE6E9F1C3D77A2B3ED1796DCD00ACA450A05176D666192086
311
33E9A03808EEAC0DBF645018B9E2001906C11767E37D839435014D48A8B1336EA0F41E0314EA968E01BCBAE02A4B194352F86B7997EA2A172C5999E8A413DC07970214CF27798270E86D740A3DAF9EACE031EA79D3E839FDD4678D0EC49EB1B119DF27D2D5ED8EB4C7D717329E4E8C4CBB717A9B4E63776C5A5E65B3E041AF
311
3F19954319700651535613DA929A7EB0A66FF6FDAE25B4EB29E55596FF31C5FBFC4F53D42634F516F769F320580AF22004AF725F693DCA4C3B772BBE01504B010214000A0000080000BB6C94403DEE336E79000000790000001B00000000000000000000000000000000006175746F6465736B2D64657369676E2D7061636B
311
6167652E786D6C504B01021400140006080800BB6C9440D486FD9CA0000000F40000001300000000000000000000000000B20000005B436F6E74656E745F54797065735D2E786D6C504B01021400140006080800BB6C9440F2B6347AEB0000007C010000080000000000000000000000000083010000636F72652E786D6C50
311
4B01021400140006080800BB6C944055019EA25F0000007C000000070000000000000000000000000094020000636E782E786D6C504B01021400140006080800BB6C94406913761767010000020300000C00000000000000000000000000180300006662782F636F72652E786D6C504B01021400140006080800BB6C944017
311
94CE7D7E0000009D0000000B00000000000000000000000000A90400006662782F636E782E786D6C504B01021400140006080800BB6C9440ABD00CA62C010000150200003100000000000000000000000000500500006662782F45383237304442382D363144372D344237372D423934442D3131393944323533354631412F
311
636F72652E786D6C504B01021400140006080800BB6C944010C599224D010000330300003000000000000000000000000000CB0600006662782F45383237304442382D363144372D344237372D423934442D3131393944323533354631412F636E782E786D6C504B01021400140006080800BB6C9440455AAD3FA605000081
311
1000003400000000000000000000000000660800006662782F45383237304442382D363144372D344237372D423934442D3131393944323533354631412F6F626A656374732E786D6C504B01021400140006080000BB6C944000000000000000000000000035000000000000000000000000005E0E00006662782F45383237
311
304442382D363144372D344237372D423934442D3131393944323533354631412F76657274696365732E62696E504B01021400140006080800BB6C9440F270F13306000000040000003600000000000000000000000000B10E00006662782F45383237304442382D363144372D344237372D423934442D3131393944323533
311
354631412F747269616E676C65732E62696E504B01021400140006080000BB6C944000000000000000000000000037000000000000000000000000000B0F00006662782F45383237304442382D363144372D344237372D423934442D3131393944323533354631412F617474726962757465732E62696E504B010214001400
311
06080800BB6C9440D5987DFC8F000000410100003600000000000000000000000000600F00006662782F45383237304442382D363144372D344237372D423934442D3131393944323533354631412F6469726563746F72792E786D6C504B01021400140006080800BB6C9440E11D1AE2FE000000A00100003B000000000000
311
00000000000000431000006662782F45383237304442382D363144372D344237372D423934442D3131393944323533354631412F7265736F75726365732F636F72652E786D6C504B0506000000000E000E00800400009A1100000000
310
504B03040A0000080000BB6C94403DEE336E79000000790000001B0000006175746F6465736B2D64657369676E2D7061636B6167652E786D6C3C3F786D6C2076657273696F6E3D22312E302220656E636F64696E673D227574662D3822203F3E3C666F726D6174733E3C666F726D61743E687474703A2F2F736368656D612E
310
6175746F6465736B2E636F6D2F64657369676E2D7061636B6167652F323030393C2F666F726D61743E3C2F666F726D6174733E504B0304140006080800BB6C9440D486FD9CA0000000F4000000130000005B436F6E74656E745F54797065735D2E786D6C7D8EC10E82300C865F65E91D8A1E8C310C0EEA1BF002731658846E
310
D98AC1B77784ABF1D8FE5FBFBF75BBCE937A534CCEB38643598122B6FEE978D0B0485F9C41B54DDD7D022595594E1A469170414C76A4D9A4D207E29CF43ECE46F218070CC6BECC4078ACAA135ACF422C856C0E68EA1BF5669944DDD7BCDE7B1F8E415D77AECB980613C2E4AC91FC167A2B244592486606FC29C8FD7F045B9A
310
EF7053A7E60B504B0304140006080800BB6C9440DF07DA5EEB0000007C01000008000000636F72652E786D6C8D905D6EC3201084AF82F61D1BFF24752C4CE4E0F404BD0002E2A0C46019A87AFCE0C491DAB74A48BB1AE6DB5D0D3DFE4C77F4AD176F9CEDA0C808206DA553C68E1DC470C10DA023A38B73E1970D901593EE60
310
9581D1717171DE24E96CD03624D53AA5375178AF0320794F4D075E5EF52432114372F85B360B7913A3CE8A7797E0188D42AF2546A579E662F4028C570319F8A9C703E73DAE49B3C787DD89E38A7FEE0FFDB94FAFA4F90A331ACCF4DE2F172D8256C04A529498D4B8245F45D5561FEDAEC6A46909A1F96AFF03C559FD138AC6
310
86AADCCE7D611E58910E797E309AAF59A4F20C2AD53537F600504B0304140006080800BB6C944055019EA25F0000007C00000007000000636E782E786D6C4DCB3B0E80201045D1AD90E915ED2CF8AC45050C11660C8261F98AB1B07AC9C97D42D718D865D3E909258CFD00CCE24AC6E326A164D74DC0B4128928FF32603847
310
2BA13128B1252AC747C6BAB984FC68F0B87FE8960A5C09FE86CFB69FBA01504B0304140006080800BB6C94401134DA4966010000020300000C0000006662782F636F72652E786D6C8D52ED8E8230107C95A6FF4BCB879E9A528378F704F702152A4784969496F8F8B77C18CF8B310602CDCCCEEEEC00DF5FDB060DCAF6B5D1
310
290E038691D285296B5DA5D8BB33D960B417DC1AE3FE9461A465AB523CC258F0CA1ADF2D5061B453DA01AA4DA91650F6BD7218150D1C52DC173FAA9581F40E2AFA4BD0C9E2222B158401D0502778EF2C1840F390F189C5F974E574C605F7BE2E17B62E615A7DAE95C5228F8FEC981F3272CCF38C246CB326DBD5212771FEB5
310
DE669F19DC11A7A3587057B737778555D2A9128B888511610989D87718EFE28FDD2A216CB3638CD3B1FC41E4BBF24D91AFB58BA3C5EE2CEBB108C1C844FCDB162272A89703F8A182D33144784D093F060D8140C84E9E9ADB1E17800655386313604AE3EFD4201BAF602A43D3C5E9CC42E7A9016CF6B44FF4A2CFEB1EF001A5
310
AEC09A74703C79374EE7F3D4258A4E5932B82BD2C6B6B2B99B9B2DDE9FF7414FE585698C7D474D9755E912261DFF5EF10B504B0304140006080800BB6C94400F1206C37E0000009D0000000B0000006662782F636E782E786D6C4DCCD10A83201886E15B91FFDC95E96A811AB8E97DC4B290990EA76397BF1A1DECE883878F
310
970F9FD5A3B74D2F17830072AA01D9708F930B8B8092677C0134489E62CC7F3740615CAD809D41F225C5F23C68B2F3587CDED4BBF03890314A14530DEE283598915AE35EB537DC35BD3657A3557B2650495EFD4ADBEE61F905504B0304140006080800BB6C9440852D4EDD2B01000015020000310000006662782F34343331
310
423442322D373333462D343130452D394236442D3732394546434645423635312F636F72652E786D6C8D514B6EC32014BC0A62952EB0C1103B8E3091DC2627E8058821294A0C169F2AC72FAE1DA9DD65C343F366E60D3C7E788C77F0AD7D30CE76901418026D07A78CBD7630C50BDA417010DC3B17FFD020B072D41D9C6128
310
F8D5BB34ADD0E06CD43666D43AA5575086A02304C33D5F3A18862F3DCA42A69819E1564C72B8C9AB2E4891DB992778883E0700CB90F98482314A7AD657A8A1F48418C147D4F6F5076AAAF6787A3F1DFB7A4B78B908054FC9A8556E548E632E46FB574D66B1E0D18CCFF883D7326A0545854985304315FE24744F9BFD9621BC
310
DB63CCCB99FE4F9426F5A228191B69B5C65D64018AFC9AA521B872E97C7F86D18FC9F908E6799BA08737287081F18E34ACA52D2F176EFE816C5AB3D53444E7F30F6F6EE74CA7AB73CD042FE725E5F2BBC15CE7858A1F504B0304140006080800BB6C9440766256355401000033030000300000006662782F34343331423442
310
322D373333462D343130452D394236442D3732394546434645423635312F636E782E786D6CBD93CD6EC32010845F0571F7BF9B5A1126520F7D821E7A25B04968305880ABE6EDBB2424CD25874A552FC89A1D66569F30DB7C4D867C820FDAD99136654D0958E994B6FB912E71570C946C38F3CEC53B1B25564C30D22453CEF6
310
DE2D739614ECC46222AA46DB63163D04B7780901E57493182785C100B0C582224C5B500A14B919F16B071E5741717B22F100E4F5E59DB8ED07C81858955238AB520767E9CC4D77264AA411218C34C8034CA2144B740AC2B154228AB229AF5D0F76FA4922E9C2B572F19AA4F291A693F2BC51891C598543CE42F4482F9BE269
310
06CAC53C1B2D4544C8D5D978F170B6681B577DF66A04EFD1DDB5AB61C0B0F38CB3A827C80EE941445094B775D316755FB4F55BD3ADBBE7F5535FD4C3BAAE5995EC9C6D9D33F912C680773391CE46B091F2865569FC085FF611A53DB276FEF40B900820B75EE8DC32FE924FB3EAFAFE1FF954E7F78DB83CFE05FC1B504B0304
310
140006080800BB6C9440145277E1630700009A1B0000340000006662782F34343331423442322D373333462D343130452D394236442D3732394546434645423635312F6F626A656374732E786D6CED59DD739B3810FF5718EEE5EEC1D8C4769BDC103A89D3743CBDB49DFADAB907CF3032C8441721184924F1FDF5B7FA0003
310
3109BEE6DEFA6003425AEDFEF6534BF0EE31A3CE3DE682E4ECDCF5BD89EB6016E70961E9B95BCAEDE8D475DE8501CF73D998E63A0C65F8DC55C36E18A43C2F0B3B94E02D2AA9EC8C5E5FFEE5881833EC3A3145429CBB22BEC519F25029F3048B3B2F411279E9F6D1F33D33B14D36E5A8B8ED102D10C74C02A730CE808A6398
310
F2DB8F13771C0663F53E0CD4BF9D351D346BD63F6BACA56E7349989088C54F58EA90990E6269EACFAEDE9FCCCF46F3D96C3A9ABD39F14797D7975723FFED74B278B3589C5DBC3F03F636794EAD4C092E304B407F3B37F483B17A538B6E1138C4759C3386630D2440A5C5EA122458C0560DF826ED475F49D478AD256C3CCFD4
310
7BCB426378DAA6D2376B18102DBA2088DDAE92B8BA36E5CB377F83E0628851728125702B2407ED5A783878851B4E82B1190D83CD5E17443819929813441D4A361C71500A4C5553C2C02CB06494737020E52809B4E6CCEBB66D8167BEEC3A87B8DC96942ACF7043ED5811B81F96427346FEC17CCF7D1319E009A42D0993A796
310
4BB92BB01B9E05633D1806EA323DB12F0D90CE96A2546844CCDB8EA00BE5FACB2B37FC78BD795CA9707078F382E705E652199DD2A3E60B0CD95E154A765B7F90E6D40210C6806A57EE41F90AC87F82E8B16705F4C6C9E3EC7166E74A8E98D8E63C03DD3813673481BF89E3EB7F75DFB80BC6F5E2B6F6FAF0043755509DFE38
310
9E6D19345696FF069C61700F069FF3A97DB58A11057BBE210C005246E2D01C8620B46F378F6EB884C009811E56211AFA2032B07B0FB7C1D892D96BA5722FEB750C10B57B4C87280960D316096CF4E8E903640F4EE2BD9A9A22F6C13B7F1573BDB85A7D5C957C8B627C637DFA0A6F092312B2E661865A98B724BAC3BB879C27
310
20E853BC574DBC33BB9500B415E60AF8B402413DEC776E6D10C3BA3457E1267861071042E5EA06FD1B22624C2962382FAB7DEBE8A60CB5F6785B33B8E18981787AD231618EEF89AA2AC069F6335A8C42DE8F392914886EF8C14856074DAF47BA6FCB4F6091F5FC9E594B06A19721FAA70E5A077068597685B405A21678B30F
310
E7714E731E6D769189742ED412C046DB5BBEB78842AC374A5254C083B4DF55212535D24609D96E4B0171F5008BDF978BA6394CBCA93F779AFF1D679C41B405DF45DCFA5D678F886428C5D116257DDB3577AB690B4DB28734C75B0A72917B22771192D124C1E931D01C45FCEC55A9A7341782302C205F1D04BF89C6C4834062
310
B459B1ACB4DA019A8828C312D1631050647AC0D56947D7B831940E2FF3585BEF731A6B12FD9F2C8223A82573161128452187BCC8B8EFCD2186B4D1352877F0056BAB686B3168092544BC8B1E30496FE531A81BF23DB8C77024296594172806B31E40F689AF28A57678DFA0F84EE58F282EE96B1988C0741B114ACB2C821F61
310
70F218E2DA75607A1685067113FB24CEA02843B2E4433679339F3CD9C7D40CDD10D8D8684B2884ED2843450FEAAD80A8EB11A706DF52EF51EAA6CC8A086579C906198A37ED7A9325DF55AB223B905F552A42D95811B604C380305967D52A6683A9EBC00A6EA403D52E12282BA83985BD9078FCDA9B34E5DE0DB8F5D3D7DD20
310
83C2AF477BCD883AAB60B03CB60A03F180647CEB862B7D1D5D42FD9DE0649FEAAB5AB3590102622A92979C58157D5B4279636B3437BC4152AC3F98AC5B5DBF2D3DE87E04635803B54BBD70A980CE309348552637EA867E4510825B34CCF852E5D463A85C2489AE1A11BD267DEA6C9511AD4D33E215B798E519FCD89AB09896
310
095EA344DC453792462BA258B7527A19A9307E56C0CF1F561D78606480485F5481871F3A6BEDE842954B0789C8DB32DB30442008B6444B8D6EBC82A556239596EBAB3A5340DD050666553CFB79B268B6237E9E2C526B183F74B2B8DCFD8176CDBE48239DC7CAAE8F3A06D4F94951798D63806E3BD454EB2C6292B995DF3A53
310
0441B18AF283ABB12A6818827D1CFFE7ACDD9705CD761DFE8FCBDAFE938AE3A8ACD29AACBA54072AD7653387CDE7BE7FF1FEED6C343DBBF447B3993F1B9DCE4FDF8F168B8BC5743EBBBEF64FF6C706EDA8615007339DBBE0D904B56A583D590CA02B2B724A1238CD274E8A21E64B38D30F689FF30C0B489ECD6677629BF203
310
56DF9B3EA7441B8A2B4E6E113488A980B40E1895B16C8F3BBF406B52C241FBDC85A69177077FD62A5D0732CFB90BAD0249622CBC0DB49954434F138794AB73BF2506F82096AA946816D5CFF52A854D2BFCD75386A4012B57AB8701855B01DDAF568742F366798A8F12BC62C741126E37A5846ACDC8B21FA885D1DBECD56F64
310
A384DDD9AD1FC1759F17CBF7F49C1622833E193C6B0486EA48229EEA7EB762CCB27471F5650C7D3667F9D9296899822E87531A710CC65CAA820AAC08ACC2D22C9004535DFCBEFEC273F8C49339BA2A727E7D3C7DF3DB7A916759CECCD0FA024E65097C287256B7F0D9275943F18055735DAC4F26FEC95A37B56D9F3DDA2081
310
3D5515C140554C28413A260776F9A44165DB9763A58ACEF4E59563832878B5B1A3273D5EF391CB011F529F5394C7683FAFA47DB6AF3DD653C1263874A4C37F01504B0304140006080000BB6C9440000000000000000000000000350000006662782F34343331423442322D373333462D343130452D394236442D3732394546
310
434645423635312F76657274696365732E62696E504B0304140006080800BB6C9440F270F1330600000004000000360000006662782F34343331423442322D373333462D343130452D394236442D3732394546434645423635312F747269616E676C65732E62696E636660600000504B0304140006080000BB6C9440000000
310
000000000000000000370000006662782F34343331423442322D373333462D343130452D394236442D3732394546434645423635312F617474726962757465732E62696E504B0304140006080800BB6C9440D5987DFC8F00000041010000360000006662782F34343331423442322D373333462D343130452D394236442D37
310
32394546434645423635312F6469726563746F72792E786D6C858F410EC2201045AF4266AF15DDB800BA74E7C21B903225242D6328188F2FA5C4183471359997F9FF81E89FF3C41E1816475E02DF1F80A11FC8386F25A438EECEC07A250251FC3803E6F58C12560C4AD840E95E91C151A72936F496F35732D860FE635F62C8
310
F2DA16B505C545B74125BAA2FA9E05D7CC053D063734D5C7665FD55B6B8D15D5E9BFEAFD8490FFA45E504B0304140006080800BB6C944062CEB99FFD000000A00100003B0000006662782F34343331423442322D373333462D343130452D394236442D3732394546434645423635312F7265736F75726365732F636F72652E
310
786D6C8D50596E833010BD0A9A7F83599202328E08B427E8052C33A156828DBC543D7E4DA052FB57C9F28CDEA2797AECF2B53C924FB44E19DD419E5248504B33293D7710FC8DD4905C38B3C6F85F3248B458B0830D06CE666BC27A40D2688FDA47549B090F5038871E12F9884B074E7EE02252117C54B87BBA0A791733A679
310
1AE9A8E3CC791B0324FB91ED076ED19960253A96ED2C6721A8E9D0A829DE54378516F8508E741CAE0D1987A12715ADCFA4395D07520E6FE7A67FEDE32B58B69939F36AF9C9282D0A8F13F082E605A11529E87B5EB6E54B7BAA08AD5B4A59B6C9FF98C23AFDD31494F66571C4DD6D0E781E833C09CEB2ADAF389E65C6B975CB
310
BF01504B010214000A0000080000BB6C94403DEE336E79000000790000001B00000000000000000000000000000000006175746F6465736B2D64657369676E2D7061636B6167652E786D6C504B01021400140006080800BB6C9440D486FD9CA0000000F40000001300000000000000000000000000B20000005B436F6E7465
310
6E745F54797065735D2E786D6C504B01021400140006080800BB6C9440DF07DA5EEB0000007C010000080000000000000000000000000083010000636F72652E786D6C504B01021400140006080800BB6C944055019EA25F0000007C000000070000000000000000000000000094020000636E782E786D6C504B0102140014
310
0006080800BB6C94401134DA4966010000020300000C00000000000000000000000000180300006662782F636F72652E786D6C504B01021400140006080800BB6C94400F1206C37E0000009D0000000B00000000000000000000000000A80400006662782F636E782E786D6C504B01021400140006080800BB6C9440852D4E
310
DD2B0100001502000031000000000000000000000000004F0500006662782F34343331423442322D373333462D343130452D394236442D3732394546434645423635312F636F72652E786D6C504B01021400140006080800BB6C94407662563554010000330300003000000000000000000000000000C90600006662782F34
310
343331423442322D373333462D343130452D394236442D3732394546434645423635312F636E782E786D6C504B01021400140006080800BB6C9440145277E1630700009A1B000034000000000000000000000000006B0800006662782F34343331423442322D373333462D343130452D394236442D37323945464346454236
310
35312F6F626A656374732E786D6C504B01021400140006080000BB6C94400000000000000000000000003500000000000000000000000000201000006662782F34343331423442322D373333462D343130452D394236442D3732394546434645423635312F76657274696365732E62696E504B01021400140006080800BB6C
310
9440F270F13306000000040000003600000000000000000000000000731000006662782F34343331423442322D373333462D343130452D394236442D3732394546434645423635312F747269616E676C65732E62696E504B01021400140006080000BB6C944000000000000000000000000037000000000000000000000000
310
00CD1000006662782F34343331423442322D373333462D343130452D394236442D3732394546434645423635312F617474726962757465732E62696E504B01021400140006080800BB6C9440D5987DFC8F000000410100003600000000000000000000000000221100006662782F34343331423442322D373333462D343130
310
452D394236442D3732394546434645423635312F6469726563746F72792E786D6C504B01021400140006080800BB6C944062CEB99FFD000000A00100003B00000000000000000000000000051200006662782F34343331423442322D373333462D343130452D394236442D3732394546434645423635312F7265736F757263
310
65732F636F72652E786D6C504B0506000000000E000E00800400005B1300000000
  0
XRECORD
  5
17
102
{ACAD_REACTORS
330
12
102
}
330
12
100
AcDbXrecord
280
     1
270
     1
271
     1
  0
XRECORD
  5
16
102
{ACAD_REACTORS
330
12
102
}
330
12
100
AcDbXrecord
280
     1
270
     1
271
     1
  0
XRECORD
  5
18
102
{ACAD_REACTORS
330
12
102
}
330
12
100
AcDbXrecord
280
     1
270
     1
271
     1
  0
XRECORD
  5
15
102
{ACAD_REACTORS
330
12
102
}
330
12
100
AcDbXrecord
280
     1
270
     1
271
     1
  0
XRECORD
  5
25E
102
{ACAD_REACTORS
330
22
102
}
330
22
100
AcDbXrecord
280
     1
102
MATERIAL
148
0.0
149
0.0
149
0.0
 93
        0
 94
      127
282
     0
 72
     0
 77
     0
171
     0
175
     0
179
     0
273
     0
  0
XRECORD
  5
24
102
{ACAD_REACTORS
330
22
102
}
330
22
100
AcDbXrecord
280
     1
270
     1
271
     1
  0
XRECORD
  5
23
102
{ACAD_REACTORS
330
22
102
}
330
22
100
AcDbXrecord
280
     1
270
     1
271
     1
  0
XRECORD
  5
BA
102
{ACAD_REACTORS
330
22
102
}
330
22
100
AcDbXrecord
280
     1
 70
     1
 90
1959938040
 71
     1
  1
C6D4ED93-F98D-4258-943B-93917BC59F53
311
504B03040A0000080000BB6C94403DEE336E79000000790000001B0000006175746F6465736B2D64657369676E2D7061636B6167652E786D6C3C3F786D6C2076657273696F6E3D22312E302220656E636F64696E673D227574662D3822203F3E3C666F726D6174733E3C666F726D61743E687474703A2F2F736368656D612E
311
6175746F6465736B2E636F6D2F64657369676E2D7061636B6167652F323030393C2F666F726D61743E3C2F666F726D6174733E504B0304140006080800BB6C9440D486FD9CA0000000F4000000130000005B436F6E74656E745F54797065735D2E786D6C7D8EC10E82300C865F65E91D8A1E8C310C0EEA1BF002731658846E
311
D98AC1B77784ABF1D8FE5FBFBF75BBCE937A534CCEB38643598122B6FEE978D0B0485F9C41B54DDD7D022595594E1A469170414C76A4D9A4D207E29CF43ECE46F218070CC6BECC4078ACAA135ACF422C856C0E68EA1BF5669944DDD7BCDE7B1F8E415D77AECB980613C2E4AC91FC167A2B244592486606FC29C8FD7F045B9A
311
EF7053A7E60B504B0304140006080800BB6C94400C99722DEA0000007C01000008000000636F72652E786D6C8D904D6E83301085AF62CDDEE01F10041947414D4ED00B58D82156828DB05DF5F8350991DA5D57337AF3BE99D113C7EFF981BECC1AAC773DD08200326EF4DABAA98714AFB805749462F53EFEB201726A363D6C
311
324831AD3E2DBB347A178D8B59755E9B5D54219808687CE4A68730DECCAC0A956276847BB1A8F1AE2653D07797E194AC46AF2356E77DF66ACD0A72B89C79DD9C383EB37AC0156D5A3CD49716B3FA403F383FF1433B887283A588767EDF1F57A3A2D12019A10C930A33F24979C79BAEAE30693B4244B9D9FF4069D1FF849275
311
91B3FDDD171640D2FCC8732045B96591CB33A85CB7DCE40F504B0304140006080800BB6C944055019EA25F0000007C00000007000000636E782E786D6C4DCB3B0E80201045D1AD90E915ED2CF8AC45050C11660C8261F98AB1B07AC9C97D42D718D865D3E909258CFD00CCE24AC6E326A164D74DC0B4128928FF326038472B
311
A13128B1252AC747C6BAB984FC68F0B87FE8960A5C09FE86CFB69FBA01504B0304140006080800BB6C9440F3DC47AF66010000020300000C0000006662782F636F72652E786D6C8D52ED8E8230107C95A6FF4BF98C684A8DE4F409EE052A54AE115A525AE2E3DFF2613C2FC61892D2CCECECCE0EB0FDAD6BD128EDA08C2E70
311
148418495D995AE9A6C0DE5D488ED19E336B8CFB538691169D2CF00463CE1A6B7CBF4295D14E6A07A836B55C41310CD26154B57029F050FDC84E04C23BA818AE412FAAAB6864100540431D6783B360002D43A613F3CBF9C6E88273E6BDAA5756D5304D5D94B49897A763926D0E0939C65949D2689393323BE524CEB6D15792
311
1C926D5E323A893973AABBBBABAC144ED698C7611493302571F81D25BB64B3CB5212E6BB3064742A7F12F9BEFE50E4957649BCDA5D6403E6111899897FDB42440E0D62043F94333A8508AF39E1E7A0211008D989737BDFE30AD0282B676C0A4C6DFC831A45EB254C0DD1FC30BAB0D0796E009BBDEC13BFE9F3BE077C40A11B
311
B0261C5CCFDE4DD3D932758DA297968CEE86B4B19D681FE6168B8FF331E8A5BC32ADB19FA8E9BA2A5DC3A4D3DFCB7F01504B0304140006080800BB6C94401023E55C7D0000009D0000000B0000006662782F636E782E786D6C4DCCD10AC2201886E15B91FFDCA62BA6813A30E77D8CE686E4344CA3CB6F8B1D74F4C1C3C72B
311
FACF1AD0DBE5974F51023D11402EDED3E4E322A196197340BD1239A5F2770314C7D549D819945872AACF8326378F35944D838F8F03F5403A4628C3D6DE2CBE98A1C59AB5161BCA5977D5FCCC8C854689E657DA760FAB2F504B0304140006080800BB6C9440C58C4B232C01000015020000310000006662782F424530363730
311
31372D464643462D344445322D423732462D4431383736394238333744462F636F72652E786D6C8D51CB6EC32010FC15C4293D6083DF893091D2C45FD01F2086242831583CAA7C7EA176A4F6960B8B66676647BB74FF9C1EE05B5AA78CEE21C93004528F46287DED61F017D441B067D41AE3FFD020D07C923D4C3064F46A4D
311
98576834DA4BED23AA8D902BC89D931E82F1113F3D74E34D4E3CE3C14786BB67331FEFFC2A3392C576E431EABC8D01C03224BD901D4EB8693169D1307C0EA83A9E0A74688B011D49D736DB4357B6C781E68B90D1109458E54AC438EAA2A47DD7248919F56A7AC51FADE45E0AC80A4C0A842B54E02F52EECA76575708773B8C
311
699EE8FF4461166F8A82D2BE2CD6B88BCC414668BE341815269C1FAF30F2391BEB419AB77172FC800C671837DBBAABAB2DCD176EDC40346DAAD5D47963E38637F773A4937A716E2A46F374A4587E2F186B3A28FB01504B0304140006080800BB6C944010C599224D01000033030000300000006662782F4245303637303137
311
2D464643462D344445322D423732462D4431383736394238333744462F636E782E786D6CD593CD6E022114855F85B09F3F9D5A63184CBAE81374D12D0357451998F0D3D4B7EF45D1BA71D165376472EEE19C9B2F0CDB7E4F867C810FDAD98176754B0958E994B6FB81A6B8ABD6946C39F3CEC5071B25564C30D02C53CEF6DE
311
A5B9480A76229988AAD1F654440FC1252F21A09C6F12E3A4301800B64A28C2348252A0C8DD885F3BF0B80A8AE399C40390F7B74FE2C623C818589353386B720767F92C4D0F264AA411210C34C8034CA216293A05E1542B1145DDD5B7AE273BFD26917CE15699BC26B97CA0F9A4BC6C542347D6E090B3103DD22BA6789E8172
311
31CF464B11117273315E3D9C256DE3AA2F5E8DE03DBABBD5B2EF31EC32E32CEA098A437A101114E58BB65B546D5F2DDA8F6EB959BE6E5EFAAA5D6FDA9635D9CED9E89C29973006BC9B897436828D9477ACC9E367F88A8F28ED91B5F3E73F804400A5F54AE79EF19FF93497F78DB83CFE05FC07504B0304140006080800BB6C
311
9440625942B6A505000080100000340000006662782F42453036373031372D464643462D344445322D423732462D4431383736394238333744462F6F626A656374732E786D6CAD57DB6EDB3810FD1541FBB2FBE08B6C278D178A8AC46E0AA3485BD448B10F060C4AA2146E285120A9D4D9AFDF43899225C74EBD8BBE581635
311
1CCE9C3973A1FF7E9771E7994AC5447EED7AC3B1EBD03C1231CBD36BB7D4C9E0CA75DE07BE144277C45C272719BD76CDB21BF8A914656197629A9092EB83D5BBDBBF1C15D19CBA4EC48952D7AE8A1E694686A4D422A6EA6918134D8669B21B7AC35AB0AF3695A4783C505A1049730D4BB19E438B531BE5F55FC7EE28F047E6
311
7BE09B5F2B353D2D35AAFCE99FCF72A5491EBD3AEC40CDD49B2D3F4C2EE6838BD96C3A985D4EBCC1EDDDED72E0BD9B8E17978BC5FCE6C31C072B2DA1C95A2269E2061F818D64913FAA3F057EC9723D9D58111BA091A4CFCC44CA0D268EE78F6A99D63BEBE431F32391E734AAB0021A957F56754C0B9AC78839A30A9675101A
311
F75F3D8363E7F3D4BCDB23BBCBE721D0DDD151D4D8DE3CBB968AF06FB8A0CE619054D430B0C6D23A5A7375BC47381482DB6F4C3919D15432C21DCE4249E48B1B40D488047E4F8D61B234D9603C700344A1FEDCA70BD2E8E73C3F666552726E68EC0655166C912B54ABCA32F60F957BEBBBC8C026C4CAB0E1CA3AA45F0AEA06
311
F39A2257076CAA8174124E52841C6E9A9DD3C981A30B93A7ABA51B7CBA0B776B93BBC70F2FA428A8D4863EA05613B8E66950B236796745CE6C700F4CD983F20DC87F46AAEF4D41DC24DBCD76337B8A96245789901962E38C9DC1183F63C7AB7ECDFFCE3F7FD46EEE47EF149E08B681EA17E0D9F7A11BCB0E9C81FF0CC20B39
311
B5AEAD23C25136EE590E800C491C2EB0843A9C843B3758A1CAA12A6317E181079761EE33FEFA23AB0685A23AA9F3CC81E541593CA34003B68A9130A326BF35701FA757E5AC3AD88A9D82F7E297D0F566B9FEB42E6542227A6F737A491396338D16B7E74DD7A01EE63D8F9EE8CB0F216338FA1AEF7517EFCC1EA580B6C1DC00
311
9F3635DDBCEC4FEE1D10615F2A4CB9F17F72029C308DB5A3FF9EA988724E722ACAE6DC37FB07DA460DB14976C3E4B6C1EC1B0B48537F39C84134E948B2C280D876ABB6680E4F78F7B0FA0C46429E8B90F0BD50B82FBD91E0426EC3976D5D958E22FDBD4F6D0BC1C86801DBAB1C69D2DF62BE8D5992940A35F008ACDF578B6E
311
E84C55408568B4D6C93283FBC82D222D671BBD68D692A0918A7CCBD0369176470FE8EA07A2960095C253162BCA932DE3BCCCB609E36846DB8C1427E0F8FFF68765566C4926CA5C9FD0DD331DCDA16F7B8FBCEA07D1D1A31BACABE7E016A537A6F13ECC3D61D34A8E60D50BEDE27239FBB09C4F0777F3ABE56036B9B81ACC67
311
D3DBC17C3AF7DEDD2E2EE67717D3264EB5F2C06F3A4D37A111257436BF94CC86EF6185F4B135C00DEE89569B8F757636CF87D510A3B03FC21EB4CB76E34DFC8CB18FC63F57B0973CAA6895159C6634D7C4A4D0BDF9C3BF118C193D63EAF55546527A86962F1FD707CE60E58C7D5F4DBAD31F077BEDEAC224E45125FAB1CCC2
311
9C307EB031AD911C16796AF16B62D23EEB3ED3BC9A371B180CA64A7016A30CC64E4A4546358AE1193D486654817ADD913EB6578F33763FD703A22621A78D258F04333257480B50AB8C747FDDF90D339D19ABAE5D74DBE1137E6CA5701D70E6DAC58CAE5944D530447F369350A51C5CEA0EF298FB499E728CDAF5A6F6BDDD65
311
B0E975E456E49CF1C9FA555770EB00CA4881B101F310A2531913F8956DF67BF49F1C6FCC7188C6DFB0D4AD2FFB85D699EA18A468ED94BD2C608679B247EF90A86FBBE50D2B991E22675DB2DE2441AD75A0894CAB8B82B1CF9A74B3FC3AC280E2ACBE38052F53C4F27C4D034941E6D22438580456589D05D1A0EAE2CFCD5729
311
7091CD9C3B060A38BFEFAE2EFFD82C449689BC5EDADCD8EBB0B37EC4E536DEA03850732B519BC9D89B6CAADB80BDA06C43A2E890C4EA090B88AC642DD0BDF08397F595117DA8FED0CA8D4C280E18BA5A3AB6B1CDA0D4D2A55B5B0D38983B72EA2087CC8DD2644C57A078F34230AA446182C4281FFC0B504B03041400060800
311
00BB6C9440000000000000000000000000350000006662782F42453036373031372D464643462D344445322D423732462D4431383736394238333744462F76657274696365732E62696E504B0304140006080800BB6C9440F270F1330600000004000000360000006662782F42453036373031372D464643462D344445322D
311
423732462D4431383736394238333744462F747269616E676C65732E62696E636660600000504B0304140006080000BB6C9440000000000000000000000000370000006662782F42453036373031372D464643462D344445322D423732462D4431383736394238333744462F617474726962757465732E62696E504B030414
311
0006080800BB6C9440D5987DFC8F00000041010000360000006662782F42453036373031372D464643462D344445322D423732462D4431383736394238333744462F6469726563746F72792E786D6C858F410EC2201045AF4266AF15DDB800BA74E7C21B903225242D6328188F2FA5C4183471359997F9FF81E89FF3C41E18
311
16475E02DF1F80A11FC8386F25A438EECEC07A250251FC3803E6F58C12560C4AD840E95E91C151A72936F496F35732D860FE635F62C8F2DA16B505C545B74125BAA2FA9E05D7CC053D063734D5C7665FD55B6B8D15D5E9BFEAFD8490FFA45E504B0304140006080800BB6C94401F325CB5FC000000A00100003B0000006662
311
782F42453036373031372D464643462D344445322D423732462D4431383736394238333744462F7265736F75726365732F636F72652E786D6C8D50596AC33010BD8A997FD95A62EC045921A6C9097A01214F5291580A5A4A8F5F3976A1FDEBCFCCF016E6F1E4F16B7E549F18A2F56E005653A8D0193F59771B20A72BE9A13A
311
2A19BC4FBF6450393DE3000B0C4ADE82CFCF0D32DE2574A9A0CE4FB8813A464C509947390688E603675DEB9C8A22DEEBA736777DC39AD5852E3A25630A2540B53E5926A880D1E76030CA666595CCD94E9BC64EE5A7BD5A0CA0C6CB59B4DD8993336F47B2635D4FC6F6D213DEEED99B1027B1EF47D92C6625939D7F329A803A
311
E1048A53C609DD114EDF993888EED0EE08ED0F94CA6691FF31E5E7F44F53B62E09BEC55D6D11142B415E8492CDD25759AF32CB5EBA55DF504B010214000A0000080000BB6C94403DEE336E79000000790000001B00000000000000000000000000000000006175746F6465736B2D64657369676E2D7061636B6167652E786D
311
6C504B01021400140006080800BB6C9440D486FD9CA0000000F40000001300000000000000000000000000B20000005B436F6E74656E745F54797065735D2E786D6C504B01021400140006080800BB6C94400C99722DEA0000007C010000080000000000000000000000000083010000636F72652E786D6C504B0102140014
311
0006080800BB6C944055019EA25F0000007C000000070000000000000000000000000093020000636E782E786D6C504B01021400140006080800BB6C9440F3DC47AF66010000020300000C00000000000000000000000000170300006662782F636F72652E786D6C504B01021400140006080800BB6C94401023E55C7D0000
311
009D0000000B00000000000000000000000000A70400006662782F636E782E786D6C504B01021400140006080800BB6C9440C58C4B232C0100001502000031000000000000000000000000004D0500006662782F42453036373031372D464643462D344445322D423732462D4431383736394238333744462F636F72652E78
311
6D6C504B01021400140006080800BB6C944010C599224D010000330300003000000000000000000000000000C80600006662782F42453036373031372D464643462D344445322D423732462D4431383736394238333744462F636E782E786D6C504B01021400140006080800BB6C9440625942B6A505000080100000340000
311
0000000000000000000000630800006662782F42453036373031372D464643462D344445322D423732462D4431383736394238333744462F6F626A656374732E786D6C504B01021400140006080000BB6C944000000000000000000000000035000000000000000000000000005A0E00006662782F42453036373031372D46
311
4643462D344445322D423732462D4431383736394238333744462F76657274696365732E62696E504B01021400140006080800BB6C9440F270F13306000000040000003600000000000000000000000000AD0E00006662782F42453036373031372D464643462D344445322D423732462D4431383736394238333744462F74
311
7269616E676C65732E62696E504B01021400140006080000BB6C94400000000000000000000000003700000000000000000000000000070F00006662782F42453036373031372D464643462D344445322D423732462D4431383736394238333744462F617474726962757465732E62696E504B01021400140006080800BB6C
311
9440D5987DFC8F0000004101000036000000000000000000000000005C0F00006662782F42453036373031372D464643462D344445322D423732462D4431383736394238333744462F6469726563746F72792E786D6C504B01021400140006080800BB6C94401F325CB5FC000000A00100003B000000000000000000000000
311
003F1000006662782F42453036373031372D464643462D344445322D423732462D4431383736394238333744462F7265736F75726365732F636F72652E786D6C504B0506000000000E000E0080040000941100000000
310
504B03040A0000080000BB6C94403DEE336E79000000790000001B0000006175746F6465736B2D64657369676E2D7061636B6167652E786D6C3C3F786D6C2076657273696F6E3D22312E302220656E636F64696E673D227574662D3822203F3E3C666F726D6174733E3C666F726D61743E687474703A2F2F736368656D612E
310
6175746F6465736B2E636F6D2F64657369676E2D7061636B6167652F323030393C2F666F726D61743E3C2F666F726D6174733E504B0304140006080800BB6C9440D486FD9CA0000000F4000000130000005B436F6E74656E745F54797065735D2E786D6C7D8EC10E82300C865F65E91D8A1E8C310C0EEA1BF002731658846E
310
D98AC1B77784ABF1D8FE5FBFBF75BBCE937A534CCEB38643598122B6FEE978D0B0485F9C41B54DDD7D022595594E1A469170414C76A4D9A4D207E29CF43ECE46F218070CC6BECC4078ACAA135ACF422C856C0E68EA1BF5669944DDD7BCDE7B1F8E415D77AECB980613C2E4AC91FC167A2B244592486606FC29C8FD7F045B9A
310
EF7053A7E60B504B0304140006080800BB6C9440E35DB4E0E90000007C01000008000000636F72652E786D6C8D90D16E842010457F85CC3B0A68576B908D69F50BFA0304584B760523D0F4F38BBB6ED2BEF5692677EE99995C7EFE5E6EE8CB6CC17AD7032D0820E394D7D6CD3DA478C12DA0B3E09BF7F1970D90938BE96197
310
41F079F3693D24E55D342E66D5796D0E518660222075CB4D0F417D9A451632C5EC08D76295EA2A6753D06797E194AC468F2356E77DF662CD068255AFECAD19086E093BE1BA1E1B3CBC4F0C57D3D8D2136D9A711A78B9C38247BB3CEFABCDC86874E6096598D498910F5A7555D3BDD498B41D21BCDCED7FA0B4EA7F42C9BA58
310
B1E3DD071640D0FCC87D2078B96791CB3DA85CF7DCC40F504B0304140006080800BB6C944055019EA25F0000007C00000007000000636E782E786D6C4DCB3B0E80201045D1AD90E915ED2CF8AC45050C11660C8261F98AB1B07AC9C97D42D718D865D3E909258CFD00CCE24AC6E326A164D74DC0B4128928FF326038472BA1
310
3128B1252AC747C6BAB984FC68F0B87FE8960A5C09FE86CFB69FBA01504B0304140006080800BB6C94405A60FC1A66010000020300000C0000006662782F636F72652E786D6C8D525B6E833010BC8AE57F63F3684823E3286A9313F4020E38D40AD8C8D828C7EFF28868AA28AA908C35B3B33B3BC0F7B7B6418372BDB6A6C0
310
71C43052A6B49536758183BF902D467BC19DB5FE57194646B6AAC0238C05AF9D0DDD0295D678653CA0C6566A0165DF2B8F51D9C0A5C07DF9AD5A19C9E0A1A2BF469D2CAFB256511C010D7582F7DE8101340F194F2C2EE71BA7332E7808BA5A585DC1347DD1CA6191A4EFC9477E6064CB920DC9B2634E0E9FA784A4A7E336DE
310
C4797E3C1D381DC5827BDDDEDD954E49AF2AD0B338212C2309FB8AD35D9AEFDE32C2B63BC6381DCB1F44A1ABFE290ADAF83459ECCEB21E8B188C4CC49F6D21228F7A39801F2A381D4384D794F063D0100884ECE5B9B9EF71056850A5B72E03A6B261A506D9040553199A1E4E67163A4F0D60B3A77D92177D5EF7800F284D0D
310
D6A487EB39F8713A9FA72E5174CA91C1DF90B1AE95CD6A6EB6B89EEBA0A7F2D236D6FD474D9755E912261DFF5EF103504B0304140006080800BB6C9440F8920DC67E0000009D0000000B0000006662782F636E782E786D6C4DCCD10AC2201886E15B91FFDCE69899813A96B5FB18CD0DC9F9876974F96DB1838E3E78F87855
310
FB590279BBF4F21835D40706C4C53B8E3ECE1A4A9EA804D21A9510F3DF0D481C16A76163306A4E589E3B8D6E1A4AC8AB061F1F3B8AA3B4BCAF2D15F2D4512ECE9CCA0B6B28BBC9C65E3BC67A61A132AAFA95D6DDC2E60B504B0304140006080800BB6C94400C81B9882B01000015020000310000006662782F363538433446
310
31432D363837412D343639342D384230332D3045383343444130304636432F636F72652E786D6C8D51CB6E833010FC15CBA7F46058C07168641CA5B4F982FE00310EB5126CE44795CFAF29446A6FB978ADD999D9D12E3FDCC71BFA56CE6B6B1A5C64809132D2F6DA0C0D8EE1426A8C0E823B6BC31F1A46A61B558367180B3E
310
381BA71592D6046542428DEDD50A76DEAB8091BCA54F83BDFC52639775312486BF665327AFDDA0B2224BEDC413DC079702A065C8FC62C1B6754B4F454B58BD3B12CA5E29A9DFA022F05157EDFB11E0C45A9E2F42C163D4FD2AD77D8AA32F5AB9674D66B1E0418F8FF8D2A92EA81E8B128A920025257C16D5BEDAEDB79440BD
310
07E0F94CFF278A53FFA4286A13AA728DBBC83C1605CF9786E0BD8DE7DB238CBA4FD60534CFDB78255FB0800C604729D082F17CE1A60D24534657531FAC4B1BDE5CCF895EADCE8C0A9ECF474AE5F782A9CE07153F504B0304140006080800BB6C9440766256355401000033030000300000006662782F36353843344631432D
310
363837412D343639342D384230332D3045383343444130304636432F636E782E786D6CBD93CD6EC32010845F0571F7BF9B5A1126520F7D821E7A25B04968305880ABE6EDBB2424CD25874A552FC89A1D66569F30DB7C4D867C820FDAD99136654D0958E994B6FB912E71570C946C38F3CEC53B1B25564C30D22453CEF6DE2D
310
739614ECC46222AA46DB63163D04B7780901E57493182785C100B0C582224C5B500A14B919F16B071E5741717B22F100E4F5E59DB8ED07C81858955238AB520767E9CC4D77264AA411218C34C8034CA2144B740AC2B154228AB229AF5D0F76FA4922E9C2B572F19AA4F291A693F2BC51891C598543CE42F4482F9BE26906CA
310
C53C1B2D4544C8D5D978F170B6681B577DF66A04EFD1DDB5AB61C0B0F38CB3A827C80EE941445094B775D316755FB4F55BD3ADBBE7F5535FD4C3BAAE5995EC9C6D9D33F912C680773391CE46B091F2865569FC085FF611A53DB276FEF40B900820B75EE8DC32FE924FB3EAFAFE1FF954E7F78DB83CFE05FC1B504B03041400
310
06080800BB6C94402400821E61070000991B0000340000006662782F36353843344631432D363837412D343639342D384230332D3045383343444130304636432F6F626A656374732E786D6CED595B73A33614FE2B0C7D691F8C4D6C67E30EA193D89B1DCF4EDA9D7577A70F9E616490891A211849E4D25FDFA30B18884970
310
9BBEF5C106847474CE77AE3A04BF3C65D479C05C909C5DBABE37711DCCE23C212CBD744BB91F5DB8CE2F61C0F35C36A6B90E4319BE74D5B01B0629CFCBC20E25788F4A2A3BA337D77F3822C60CBB4E4C911097AE88EF70863C54CA3CC1E2DE4B90445EBA7FF27CCF4C6C934D392AEE3A440BC43193C0298C33A0E218A6FCF6
310
E3C41D87C158BD0F03F56F674D07CD9AF5CF1A6BA9DB5C12262462F10B963A64A683589AFAB3D5C7B3F962349FCDA6A3D9F9993FBABEB95E8DFC0FD3C9F27CB95C5C7D5C007BBB3CA756A604179825A0BF6737F483B17A538B6E1138C6759C3386630D2440A5C5EA122458C0560DF826ED475F49D478AD256C3CCFD47BCB42
310
6378DAA6D2376B18102DBA2088DDAE92B8BA36E5CB777F82E0628851728125702B2407ED5A783878851B4E82B1190D83DD4117443819929813441D4A761C71500A4C5553C2C02CB06494737020E52809B4E6CCEBB66D8167BEED3AC7B8DC97942ACF7043ED5811B81F96427346FEC2FCC07D1319E009A42D099317964BF95C
310
60375C04633D1806EA323DB32F0D90CE9EA2546844CCDB8EA04BE5FAEB951B7EBED93D6D543838BE79C1F30273A98C4EE951F305866CAF0A25BBAD3F48736A01086340B52B0FA07C05E47F85E8716005F4C6C9D3EC6966E74A8E98D8E73C03DD3813673481BF89E3EB7F75DFB80BC6F5E2B6F6FAF0043755505DFC7B3CDB32
310
68AC2CFF0D38C3E0010C3EE753FB6A13230AF67C4B1800A48CC4A1390C4168DFEF9EDC700D8113023DAC4234F4416460F7016E83B12573D04AE55ED6EB18206AF7980E5112C0A62D12D8E8D1D327C81E9CC407353545EC8377FE2EE67AB5DA7CDE947C8F627C6B7D7A85F784110959F338432DCC5B12DDE3E7C79C2720E84B
310
BC374DBC33BB9500B415E60AF8B402413D1C766E6D10C3BA3457E1267863071042E5EA06FD5B22624C2962382FAB7DEBE8A60CB5F6785B33B8E19981787AD631618E1F88AA2AC0690E335A8C42DE8F392914886EF8C94856074DAF47BA6FEB5FC122EBF93DB3D60C422F43F4771DB48EE0D0B2EC0A690B442DF0EE10CEE39C
310
E63CDA3D4726D2B9504B001B6D6FF9DE220AB1DE284951010FD27E578594D4481B2564BF2F05C4D5232C7E5F2F9BE630F1A6FEDC69FE779C7106D1167C1771EB779D3D2292A114477B94F46DD7DCADA62D34C91ED21CEF29C8451E887C8E908C26094E4F81E624E28B77A59ED25C08C2B0807C7514FC261A130F0289D166C5
310
B2D26A076822A20C4B444F414091E90157A71D5DE3C6503ABCCD636DBDAF69AC49F43FB2088EA096CC5944A014851CF226E3BE378718D246D7A0DCC117ACADA2ADC5A0259410F173F488497A274F41DD90EFC13D86234929A3BC403198F500B22F7C4529B5C3FB0EC5F72A7F447149DFCB4004A6FB88505A6611FC088393C7
310
10D7AE03D3AB2834889BD8277106451992251FB2C9F97CF2621F533374436063A33DA110B6A30C153DA8B702A2AE479C1A7C4BBD47A9BB322B2294E5251B6428DEB4EB4D967C57AD8AEC407E55A908656345D8120C03C2649D55AB980DA6AE032BB8910E54CF91405941CD29EC8DC4E3D7DEA429F76EC0AD9FBEEF0619147E
310
3DDA6B46D4590583E5B15518884724E33B37DCE8EBE81AEAEF042787545FD59ACD0A10105391BCE4C4AAE8DB1ACA1B5BA3B9E12D9262FBC964DDEAFA6DED41F72318C31AA85DEA856B0574869944AA32B95537F42B8210DCA261C6D72AA79E42E52A4974D588E80DE95367AB8C686D9A11AFB8C32CCFE0C7B684C5B44CF016
310
25E23EBA9534DA10C5BA95D2CB4885F1AB02FEF669D38107460688F4451578F8B1B3D68E2E55B9749488BC2BB31D430482604BB4D4E8C62B586A355269B9BEAA3305D45D606056C5B3FF4F16CD76C4FF278BD41AC6BF3B59D07C87E821DA34B279ACCCFAA453409D9E1495F73805E8AE434DB54E2226975BF1AD2F451013AB
310
203FB818AB628621D8C7F13F4EDA7D49D06CD7E1FFB4A4EDBF28384E4A2AADC9AA4975A4705D3753D8F27C35FBB85A4C47378B8BD5687636BF182D66D3EBD162BAF03F5C2FE78B9BF9A18AD07E1A06752CD3A90B9E4D4CAB86D593C5009AB222A72481C37CE2A41842BE8423FD80EE39CFB080DCD9EC7527B6273F60F58369
310
734AB4A3B8E2E40E417F980AC8EA805119CBF6B8F3037426259CB32F5DE81979F7F067ADD27520F15CBAD0299024C6C2DB419749F5F33471C8B83AF55B62800F62A9CA886651FD5CAF52D8B4A27F3D654816B072B55A1850B715D0FC6A3528346F96A7F824C12B761C24E176574A28D68C2C87815A18BDCD41FD46364AD8BD
310
DDFA095CF775B17C4FCF692132E88BC1AB4660A88E24E2A96E772BC62C4B57AB2F6368B339EBDF9C829629E87238A511C760CCA5AAA7C08AC02A2CCD024930D5E5CFDB2F3C872F3C99A38B22E7C7A78BF39FB6CB3CCB726686B65770284BE03B91B3B983AF3EC9166A07AC7AEB627B36F1CFB6BAA76DDBECD10E09ECA9A208
310
06AA5A4209D23139B0CB17FD29DBBD1C2B5574A6AF578E0DA2D00B3076F4A2C56BBE7139E043EA6B8AF218EDE795B4AFB6B5C77A2AD804878674F837504B0304140006080000BB6C9440000000000000000000000000350000006662782F36353843344631432D363837412D343639342D384230332D304538334344413030
310
4636432F76657274696365732E62696E504B0304140006080800BB6C9440F270F1330600000004000000360000006662782F36353843344631432D363837412D343639342D384230332D3045383343444130304636432F747269616E676C65732E62696E636660600000504B0304140006080000BB6C944000000000000000
310
0000000000370000006662782F36353843344631432D363837412D343639342D384230332D3045383343444130304636432F617474726962757465732E62696E504B0304140006080800BB6C9440D5987DFC8F00000041010000360000006662782F36353843344631432D363837412D343639342D384230332D3045383343
310
444130304636432F6469726563746F72792E786D6C858F410EC2201045AF4266AF15DDB800BA74E7C21B903225242D6328188F2FA5C4183471359997F9FF81E89FF3C41E1816475E02DF1F80A11FC8386F25A438EECEC07A250251FC3803E6F58C12560C4AD840E95E91C151A72936F496F35732D860FE635F62C8F2DA16B5
310
05C545B74125BAA2FA9E05D7CC053D063734D5C7665FD55B6B8D15D5E9BFEAFD8490FFA45E504B0304140006080800BB6C9440EA735D76FC000000A00100003B0000006662782F36353843344631432D363837412D343639342D384230332D3045383343444130304636432F7265736F75726365732F636F72652E786D6C8D
310
504B6E833010BD8AE5BDC1363410641C452D9CA017B0CC845A0936F2A7EAF16B0295DA5D3733A3F7D13C3D71F95A1EE8137C30CEF698151423B0DA4DC6CE3D4EF1465A8C2E5278E7E22F1946562DD0E30DC652CCDEA5F580B4B3116CCCA875131CA00A012246FA918F1E07FD018B2A548A5911EEC5AAF45DCD50B022D35927
310
45883E0740FB936D62E921B8E4350451EEAC142999E9D09829FF3437031E4B5E9DF96B731E494BF989D4F5D090EBDBC849350E2D3BB1A619C6AB2837B314D12C3F19B5071561CA7ECA38A135E1F49D555DD5742F35A16D47A92837F91F535AA77F9A92B1B1E247DCDD16B06439C89390A2DCFACAEB5966DE5BB7F21B504B01
310
0214000A0000080000BB6C94403DEE336E79000000790000001B00000000000000000000000000000000006175746F6465736B2D64657369676E2D7061636B6167652E786D6C504B01021400140006080800BB6C9440D486FD9CA0000000F40000001300000000000000000000000000B20000005B436F6E74656E745F5479
310
7065735D2E786D6C504B01021400140006080800BB6C9440E35DB4E0E90000007C010000080000000000000000000000000083010000636F72652E786D6C504B01021400140006080800BB6C944055019EA25F0000007C000000070000000000000000000000000092020000636E782E786D6C504B01021400140006080800
310
BB6C94405A60FC1A66010000020300000C00000000000000000000000000160300006662782F636F72652E786D6C504B01021400140006080800BB6C9440F8920DC67E0000009D0000000B00000000000000000000000000A60400006662782F636E782E786D6C504B01021400140006080800BB6C94400C81B9882B010000
310
1502000031000000000000000000000000004D0500006662782F36353843344631432D363837412D343639342D384230332D3045383343444130304636432F636F72652E786D6C504B01021400140006080800BB6C94407662563554010000330300003000000000000000000000000000C70600006662782F363538433446
310
31432D363837412D343639342D384230332D3045383343444130304636432F636E782E786D6C504B01021400140006080800BB6C94402400821E61070000991B00003400000000000000000000000000690800006662782F36353843344631432D363837412D343639342D384230332D3045383343444130304636432F6F62
310
6A656374732E786D6C504B01021400140006080000BB6C944000000000000000000000000035000000000000000000000000001C1000006662782F36353843344631432D363837412D343639342D384230332D3045383343444130304636432F76657274696365732E62696E504B01021400140006080800BB6C9440F270F1
310
33060000000400000036000000000000000000000000006F1000006662782F36353843344631432D363837412D343639342D384230332D3045383343444130304636432F747269616E676C65732E62696E504B01021400140006080000BB6C94400000000000000000000000003700000000000000000000000000C9100000
310
6662782F36353843344631432D363837412D343639342D384230332D3045383343444130304636432F617474726962757465732E62696E504B01021400140006080800BB6C9440D5987DFC8F0000004101000036000000000000000000000000001E1100006662782F36353843344631432D363837412D343639342D384230
310
332D3045383343444130304636432F6469726563746F72792E786D6C504B01021400140006080800BB6C9440EA735D76FC000000A00100003B00000000000000000000000000011200006662782F36353843344631432D363837412D343639342D384230332D3045383343444130304636432F7265736F75726365732F636F
310
72652E786D6C504B0506000000000E000E0080040000561300000000
  0
XRECORD
  5
27
102
{ACAD_REACTORS
330
22
102
}
330
22
100
AcDbXrecord
280
     1
270
     1
271
     1
  0
XRECORD
  5
26
102
{ACAD_REACTORS
330
22
102
}
330
22
100
AcDbXrecord
280
     1
270
     1
271
     1
  0
XRECORD
  5
28
102
{ACAD_REACTORS
330
22
102
}
330
22
100
AcDbXrecord
280
     1
270
     1
271
     1
  0
XRECORD
  5
25
102
{ACAD_REACTORS
330
22
102
}
330
22
100
AcDbXrecord
280
     1
270
     1
271
     1
  0
XRECORD
  5
259
102
{ACAD_REACTORS
330
258
102
}
330
258
100
AcDbXrecord
280
     1
102
ACAD_ROUNDTRIP_2012_MLEADER_STYLE
298
     1
  0
CELLSTYLEMAP
  5
257
102
{ACAD_REACTORS
330
203
102
}
330
203
100
AcDbCellStyleMap
 90
        3
300
CELLSTYLE
  1
TABLEFORMAT_BEGIN
 90
        5
170
     1
 91
        0
 92
    32768
 62
   257
 93
        1
300
CONTENTFORMAT
  1
CONTENTFORMAT_BEGIN
 90
        0
 91
        0
 92
      512
 93
        0
300

 40
0.0
140
1.0
 94
        5
 62
     0
340
55
144
0.25
309
CONTENTFORMAT_END
171
     0
 94
        0
309
TABLEFORMAT_END
  1
CELLSTYLE_BEGIN
 90
        1
 91
        1
300
_TITLE
309
CELLSTYLE_END
300
CELLSTYLE
  1
TABLEFORMAT_BEGIN
 90
        5
170
     1
 91
        0
 92
        0
 62
   257
 93
        1
300
CONTENTFORMAT
  1
CONTENTFORMAT_BEGIN
 90
        0
 91
        0
 92
      512
 93
        0
300

 40
0.0
140
1.0
 94
        5
 62
     0
340
55
144
0.18
309
CONTENTFORMAT_END
171
     0
 94
        0
309
TABLEFORMAT_END
  1
CELLSTYLE_BEGIN
 90
        2
 91
        1
300
_HEADER
309
CELLSTYLE_END
300
CELLSTYLE
  1
TABLEFORMAT_BEGIN
 90
        5
170
     1
 91
        0
 92
        0
 62
   257
 93
        1
300
CONTENTFORMAT
  1
CONTENTFORMAT_BEGIN
 90
        0
 91
        0
 92
      512
 93
        0
300

 40
0.0
140
1.0
 94
        2
 62
     0
340
55
144
0.18
309
CONTENTFORMAT_END
171
     0
 94
        0
309
TABLEFORMAT_END
  1
CELLSTYLE_BEGIN
 90
        3
 91
        2
300
_DATA
309
CELLSTYLE_END
  0
XRECORD
  5
28F
102
{ACAD_REACTORS
330
203
102
}
330
203
100
AcDbXrecord
280
     1
102
ACAD_ROUNDTRIP_PRE2007_TABLESTYLE
 90
      512
 91
        0
  1

 92
      512
 93
        0
  2

 94
      512
 95
        0
  3

  0
XRECORD
  5
26A
102
{ACAD_REACTORS
330
269
102
}
330
269
100
AcDbXrecord
280
     1
102
RTVSPropertyOp0
 70
     1
102
RTVSPropertyOp1
 70
     1
102
RTVSPropertyOp2
 70
     1
102
RTVSPropertyOp3
 70
     1
102
RTVSPropertyOp4
 70
     1
102
RTVSPropertyOp5
 70
     1
102
RTVSPropertyOp6
 70
     1
102
RTVSPropertyOp7
 70
     1
102
RTVSPropertyOp8
 70
     1
102
RTVSPropertyOp9
 70
     1
102
RTVSPropertyOp10
 70
     1
102
RTVSPropertyOp11
 70
     1
102
RTVSPropertyOp12
 70
     1
102
RTVSPropertyOp13
 70
     1
102
RTVSPropertyOp14
 70
     1
102
RTVSPropertyOp15
 70
     1
102
RTVSPropertyOp16
 70
     1
102
RTVSPropertyOp17
 70
     1
102
RTVSPropertyOp18
 70
     1
102
RTVSPropertyOp19
 70
     1
102
RTVSPropertyOp20
 70
     1
102
RTVSPropertyOp21
 70
     1
102
RTVSPropertyOp22
 70
     1
102
RTVSPropertyOp23
 70
     1
102
RTVSPropertyOp24
 70
     1
102
RTVSPropertyOp25
 70
     1
102
RTVSPropertyOp26
 70
     1
102
RTVSPropertyOp27
 70
     1
102
RTVSPropertyOp28
 70
     1
102
RTVSPropertyOp29
 70
     1
102
RTVSPropertyOp30
 70
     1
102
RTVSPropertyOp31
 70
     1
102
RTVSPropertyOp32
 70
     1
  0
XRECORD
  5
268
102
{ACAD_REACTORS
330
267
102
}
330
267
100
AcDbXrecord
280
     1
102
RTVSPropertyOp0
 70
     1
102
RTVSPropertyOp1
 70
     1
102
RTVSPropertyOp2
 70
     1
102
RTVSPropertyOp3
 70
     1
102
RTVSPropertyOp4
 70
     1
102
RTVSPropertyOp5
 70
     1
102
RTVSPropertyOp6
 70
     1
102
RTVSPropertyOp7
 70
     1
102
RTVSPropertyOp8
 70
     1
102
RTVSPropertyOp9
 70
     1
102
RTVSPropertyOp10
 70
     1
102
RTVSPropertyOp11
 70
     1
102
RTVSPropertyOp12
 70
     1
102
RTVSPropertyOp13
 70
     1
102
RTVSPropertyOp14
 70
     1
102
RTVSPropertyOp15
 70
     1
102
RTVSPropertyOp16
 70
     1
102
RTVSPropertyOp17
 70
     1
102
RTVSPropertyOp18
 70
     1
102
RTVSPropertyOp19
 70
     1
102
RTVSPropertyOp20
 70
     1
102
RTVSPropertyOp21
 70
     1
102
RTVSPropertyOp22
 70
     1
102
RTVSPropertyOp23
 70
     1
102
RTVSPropertyOp24
 70
     1
102
RTVSPropertyOp25
 70
     1
102
RTVSPropertyOp26
 70
     1
102
RTVSPropertyOp27
 70
     1
102
RTVSPropertyOp28
 70
     1
102
RTVSPropertyOp29
 70
     1
102
RTVSPropertyOp30
 70
     1
102
RTVSPropertyOp31
 70
     1
102
RTVSPropertyOp32
 70
     1
  0
XRECORD
  5
276
102
{ACAD_REACTORS
330
275
102
}
330
275
100
AcDbXrecord
280
     1
102
RTVSPropertyOp0
 70
     1
102
RTVSPropertyOp1
 70
     1
102
RTVSPropertyOp2
 70
     1
102
RTVSPropertyOp3
 70
     1
102
RTVSPropertyOp4
 70
     1
102
RTVSPropertyOp5
 70
     1
102
RTVSPropertyOp6
 70
     1
102
RTVSPropertyOp7
 70
     1
102
RTVSPropertyOp8
 70
     1
102
RTVSPropertyOp9
 70
     1
102
RTVSPropertyOp10
 70
     1
102
RTVSPropertyOp11
 70
     1
102
RTVSPropertyOp12
 70
     1
102
RTVSPropertyOp13
 70
     1
102
RTVSPropertyOp14
 70
     1
102
RTVSPropertyOp15
 70
     1
102
RTVSPropertyOp16
 70
     1
102
RTVSPropertyOp17
 70
     1
102
RTVSPropertyOp18
 70
     1
102
RTVSPropertyOp19
 70
     1
102
RTVSPropertyOp20
 70
     1
102
RTVSPropertyOp21
 70
     1
102
RTVSPropertyOp22
 70
     1
102
RTVSPropertyOp23
 70
     1
102
RTVSPropertyOp24
 70
     1
102
RTVSPropertyOp25
 70
     1
102
RTVSPropertyOp26
 70
     1
102
RTVSPropertyOp27
 70
     1
102
RTVSPropertyOp28
 70
     1
102
RTVSPropertyOp29
 70
     1
102
RTVSPropertyOp30
 70
     1
102
RTVSPropertyOp31
 70
     1
102
RTVSPropertyOp32
 70
     1
  0
XRECORD
  5
27E
102
{ACAD_REACTORS
330
27D
102
}
330
27D
100
AcDbXrecord
280
     1
102
RTVSPropertyOp0
 70
     1
102
RTVSPropertyOp1
 70
     1
102
RTVSPropertyOp2
 70
     1
102
RTVSPropertyOp3
 70
     1
102
RTVSPropertyOp4
 70
     1
102
RTVSPropertyOp5
 70
     1
102
RTVSPropertyOp6
 70
     1
102
RTVSPropertyOp7
 70
     1
102
RTVSPropertyOp8
 70
     1
102
RTVSPropertyOp9
 70
     1
102
RTVSPropertyOp10
 70
     1
102
RTVSPropertyOp11
 70
     1
102
RTVSPropertyOp12
 70
     1
102
RTVSPropertyOp13
 70
     1
102
RTVSPropertyOp14
 70
     1
102
RTVSPropertyOp15
 70
     1
102
RTVSPropertyOp16
 70
     1
102
RTVSPropertyOp17
 70
     1
102
RTVSPropertyOp18
 70
     1
102
RTVSPropertyOp19
 70
     1
102
RTVSPropertyOp20
 70
     1
102
RTVSPropertyOp21
 70
     1
102
RTVSPropertyOp22
 70
     1
102
RTVSPropertyOp23
 70
     1
102
RTVSPropertyOp24
 70
     1
102
RTVSPropertyOp25
 70
     1
102
RTVSPropertyOp26
 70
     1
102
RTVSPropertyOp27
 70
     1
102
RTVSPropertyOp28
 70
     1
102
RTVSPropertyOp29
 70
     1
102
RTVSPropertyOp30
 70
     1
102
RTVSPropertyOp31
 70
     1
102
RTVSPropertyOp32
 70
     1
  0
XRECORD
  5
270
102
{ACAD_REACTORS
330
26F
102
}
330
26F
100
AcDbXrecord
280
     1
102
RTVSPropertyOp0
 70
     1
102
RTVSPropertyOp1
 70
     1
102
RTVSPropertyOp2
 70
     1
102
RTVSPropertyOp3
 70
     1
102
RTVSPropertyOp4
 70
     1
102
RTVSPropertyOp5
 70
     1
102
RTVSPropertyOp6
 70
     1
102
RTVSPropertyOp7
 70
     1
102
RTVSPropertyOp8
 70
     1
102
RTVSPropertyOp9
 70
     1
102
RTVSPropertyOp10
 70
     1
102
RTVSPropertyOp11
 70
     1
102
RTVSPropertyOp12
 70
     1
102
RTVSPropertyOp13
 70
     1
102
RTVSPropertyOp14
 70
     1
102
RTVSPropertyOp15
 70
     1
102
RTVSPropertyOp16
 70
     1
102
RTVSPropertyOp17
 70
     1
102
RTVSPropertyOp18
 70
     1
102
RTVSPropertyOp19
 70
     1
102
RTVSPropertyOp20
 70
     1
102
RTVSPropertyOp21
 70
     1
102
RTVSPropertyOp22
 70
     1
102
RTVSPropertyOp23
 70
     1
102
RTVSPropertyOp24
 70
     1
102
RTVSPropertyOp25
 70
     1
102
RTVSPropertyOp26
 70
     1
102
RTVSPropertyOp27
 70
     1
102
RTVSPropertyOp28
 70
     1
102
RTVSPropertyOp29
 70
     1
102
RTVSPropertyOp30
 70
     1
102
RTVSPropertyOp31
 70
     1
102
RTVSPropertyOp32
 70
     1
  0
XRECORD
  5
274
102
{ACAD_REACTORS
330
273
102
}
330
273
100
AcDbXrecord
280
     1
102
RTVSPropertyOp0
 70
     1
102
RTVSPropertyOp1
 70
     1
102
RTVSPropertyOp2
 70
     1
102
RTVSPropertyOp3
 70
     1
102
RTVSPropertyOp4
 70
     1
102
RTVSPropertyOp5
 70
     1
102
RTVSPropertyOp6
 70
     1
102
RTVSPropertyOp7
 70
     1
102
RTVSPropertyOp8
 70
     1
102
RTVSPropertyOp9
 70
     1
102
RTVSPropertyOp10
 70
     1
102
RTVSPropertyOp11
 70
     1
102
RTVSPropertyOp12
 70
     1
102
RTVSPropertyOp13
 70
     1
102
RTVSPropertyOp14
 70
     1
102
RTVSPropertyOp15
 70
     1
102
RTVSPropertyOp16
 70
     1
102
RTVSPropertyOp17
 70
     1
102
RTVSPropertyOp18
 70
     1
102
RTVSPropertyOp19
 70
     1
102
RTVSPropertyOp20
 70
     1
102
RTVSPropertyOp21
 70
     1
102
RTVSPropertyOp22
 70
     1
102
RTVSPropertyOp23
 70
     1
102
RTVSPropertyOp24
 70
     1
102
RTVSPropertyOp25
 70
     1
102
RTVSPropertyOp26
 70
     1
102
RTVSPropertyOp27
 70
     1
102
RTVSPropertyOp28
 70
     1
102
RTVSPropertyOp29
 70
     1
102
RTVSPropertyOp30
 70
     1
102
RTVSPropertyOp31
 70
     1
102
RTVSPropertyOp32
 70
     1
  0
XRECORD
  5
28E
102
{ACAD_REACTORS
330
28D
102
}
330
28D
100
AcDbXrecord
280
     1
102
RTVSPropertyOp0
 70
     0
102
RTVSPropertyOp1
 70
     0
102
RTVSPropertyOp2
 70
     0
102
RTVSPropertyOp3
 70
     0
102
RTVSPropertyOp4
 70
     0
102
RTVSPropertyOp5
 70
     0
102
RTVSPropertyOp6
 70
     0
102
RTVSPropertyOp7
 70
     0
102
RTVSPropertyOp8
 70
     0
102
RTVSPropertyOp9
 70
     0
102
RTVSPropertyOp10
 70
     0
102
RTVSPropertyOp11
 70
     0
102
RTVSPropertyOp12
 70
     0
102
RTVSPropertyOp13
 70
     0
102
RTVSPropertyOp14
 70
     2
102
RTVSPropertyOp15
 70
     0
102
RTVSPropertyOp16
 70
     0
102
RTVSPropertyOp17
 70
     0
102
RTVSPropertyOp18
 70
     0
102
RTVSPropertyOp19
 70
     0
102
RTVSPropertyOp20
 70
     0
102
RTVSPropertyOp21
 70
     0
102
RTVSPropertyOp22
 70
     0
102
RTVSPropertyOp23
 70
     0
102
RTVSPropertyOp24
 70
     0
102
RTVSPropertyOp25
 70
     0
102
RTVSPropertyOp26
 70
     0
102
RTVSPropertyOp27
 70
     0
102
RTVSPropertyOp28
 70
     1
102
RTVSPropertyOp29
 70
     1
102
RTVSPropertyOp30
 70
     1
102
RTVSPropertyOp31
 70
     1
102
RTVSPropertyOp32
 70
     1
  0
XRECORD
  5
27C
102
{ACAD_REACTORS
330
27B
102
}
330
27B
100
AcDbXrecord
280
     1
102
RTVSPropertyOp0
 70
     1
102
RTVSPropertyOp1
 70
     1
102
RTVSPropertyOp2
 70
     1
102
RTVSPropertyOp3
 70
     1
102
RTVSPropertyOp4
 70
     1
102
RTVSPropertyOp5
 70
     1
102
RTVSPropertyOp6
 70
     1
102
RTVSPropertyOp7
 70
     1
102
RTVSPropertyOp8
 70
     1
102
RTVSPropertyOp9
 70
     1
102
RTVSPropertyOp10
 70
     1
102
RTVSPropertyOp11
 70
     1
102
RTVSPropertyOp12
 70
     1
102
RTVSPropertyOp13
 70
     1
102
RTVSPropertyOp14
 70
     1
102
RTVSPropertyOp15
 70
     1
102
RTVSPropertyOp16
 70
     1
102
RTVSPropertyOp17
 70
     1
102
RTVSPropertyOp18
 70
     1
102
RTVSPropertyOp19
 70
     1
102
RTVSPropertyOp20
 70
     1
102
RTVSPropertyOp21
 70
     1
102
RTVSPropertyOp22
 70
     1
102
RTVSPropertyOp23
 70
     1
102
RTVSPropertyOp24
 70
     1
102
RTVSPropertyOp25
 70
     1
102
RTVSPropertyOp26
 70
     1
102
RTVSPropertyOp27
 70
     1
102
RTVSPropertyOp28
 70
     1
102
RTVSPropertyOp29
 70
     1
102
RTVSPropertyOp30
 70
     1
102
RTVSPropertyOp31
 70
     1
102
RTVSPropertyOp32
 70
     1
  0
XRECORD
  5
260
102
{ACAD_REACTORS
330
25F
102
}
330
25F
100
AcDbXrecord
280
     1
102
RTVSPropertyOp0
 70
     1
102
RTVSPropertyOp1
 70
     1
102
RTVSPropertyOp2
 70
     1
102
RTVSPropertyOp3
 70
     1
102
RTVSPropertyOp4
 70
     1
102
RTVSPropertyOp5
 70
     1
102
RTVSPropertyOp6
 70
     1
102
RTVSPropertyOp7
 70
     1
102
RTVSPropertyOp8
 70
     1
102
RTVSPropertyOp9
 70
     1
102
RTVSPropertyOp10
 70
     1
102
RTVSPropertyOp11
 70
     1
102
RTVSPropertyOp12
 70
     1
102
RTVSPropertyOp13
 70
     1
102
RTVSPropertyOp14
 70
     1
102
RTVSPropertyOp15
 70
     1
102
RTVSPropertyOp16
 70
     1
102
RTVSPropertyOp17
 70
     1
102
RTVSPropertyOp18
 70
     1
102
RTVSPropertyOp19
 70
     1
102
RTVSPropertyOp20
 70
     1
102
RTVSPropertyOp21
 70
     1
102
RTVSPropertyOp22
 70
     1
102
RTVSPropertyOp23
 70
     1
102
RTVSPropertyOp24
 70
     1
102
RTVSPropertyOp25
 70
     1
102
RTVSPropertyOp26
 70
     1
102
RTVSPropertyOp27
 70
     1
102
RTVSPropertyOp28
 70
     1
102
RTVSPropertyOp29
 70
     1
102
RTVSPropertyOp30
 70
     1
102
RTVSPropertyOp31
 70
     1
102
RTVSPropertyOp32
 70
     1
  0
XRECORD
  5
262
102
{ACAD_REACTORS
330
261
102
}
330
261
100
AcDbXrecord
280
     1
102
RTVSPropertyOp0
 70
     1
102
RTVSPropertyOp1
 70
     1
102
RTVSPropertyOp2
 70
     1
102
RTVSPropertyOp3
 70
     1
102
RTVSPropertyOp4
 70
     1
102
RTVSPropertyOp5
 70
     1
102
RTVSPropertyOp6
 70
     1
102
RTVSPropertyOp7
 70
     1
102
RTVSPropertyOp8
 70
     1
102
RTVSPropertyOp9
 70
     1
102
RTVSPropertyOp10
 70
     1
102
RTVSPropertyOp11
 70
     1
102
RTVSPropertyOp12
 70
     1
102
RTVSPropertyOp13
 70
     1
102
RTVSPropertyOp14
 70
     1
102
RTVSPropertyOp15
 70
     1
102
RTVSPropertyOp16
 70
     1
102
RTVSPropertyOp17
 70
     1
102
RTVSPropertyOp18
 70
     1
102
RTVSPropertyOp19
 70
     1
102
RTVSPropertyOp20
 70
     1
102
RTVSPropertyOp21
 70
     1
102
RTVSPropertyOp22
 70
     1
102
RTVSPropertyOp23
 70
     1
102
RTVSPropertyOp24
 70
     1
102
RTVSPropertyOp25
 70
     1
102
RTVSPropertyOp26
 70
     1
102
RTVSPropertyOp27
 70
     1
102
RTVSPropertyOp28
 70
     1
102
RTVSPropertyOp29
 70
     1
102
RTVSPropertyOp30
 70
     1
102
RTVSPropertyOp31
 70
     1
102
RTVSPropertyOp32
 70
     1
  0
XRECORD
  5
264
102
{ACAD_REACTORS
330
263
102
}
330
263
100
AcDbXrecord
280
     1
102
RTVSPropertyOp0
 70
     1
102
RTVSPropertyOp1
 70
     1
102
RTVSPropertyOp2
 70
     1
102
RTVSPropertyOp3
 70
     1
102
RTVSPropertyOp4
 70
     1
102
RTVSPropertyOp5
 70
     1
102
RTVSPropertyOp6
 70
     1
102
RTVSPropertyOp7
 70
     1
102
RTVSPropertyOp8
 70
     1
102
RTVSPropertyOp9
 70
     1
102
RTVSPropertyOp10
 70
     1
102
RTVSPropertyOp11
 70
     1
102
RTVSPropertyOp12
 70
     1
102
RTVSPropertyOp13
 70
     1
102
RTVSPropertyOp14
 70
     1
102
RTVSPropertyOp15
 70
     1
102
RTVSPropertyOp16
 70
     1
102
RTVSPropertyOp17
 70
     1
102
RTVSPropertyOp18
 70
     1
102
RTVSPropertyOp19
 70
     1
102
RTVSPropertyOp20
 70
     1
102
RTVSPropertyOp21
 70
     1
102
RTVSPropertyOp22
 70
     1
102
RTVSPropertyOp23
 70
     1
102
RTVSPropertyOp24
 70
     1
102
RTVSPropertyOp25
 70
     1
102
RTVSPropertyOp26
 70
     1
102
RTVSPropertyOp27
 70
     1
102
RTVSPropertyOp28
 70
     1
102
RTVSPropertyOp29
 70
     1
102
RTVSPropertyOp30
 70
     1
102
RTVSPropertyOp31
 70
     1
102
RTVSPropertyOp32
 70
     1
  0
XRECORD
  5
266
102
{ACAD_REACTORS
330
265
102
}
330
265
100
AcDbXrecord
280
     1
102
RTVSPropertyOp0
 70
     1
102
RTVSPropertyOp1
 70
     1
102
RTVSPropertyOp2
 70
     1
102
RTVSPropertyOp3
 70
     1
102
RTVSPropertyOp4
 70
     1
102
RTVSPropertyOp5
 70
     1
102
RTVSPropertyOp6
 70
     1
102
RTVSPropertyOp7
 70
     1
102
RTVSPropertyOp8
 70
     1
102
RTVSPropertyOp9
 70
     1
102
RTVSPropertyOp10
 70
     1
102
RTVSPropertyOp11
 70
     1
102
RTVSPropertyOp12
 70
     1
102
RTVSPropertyOp13
 70
     1
102
RTVSPropertyOp14
 70
     1
102
RTVSPropertyOp15
 70
     1
102
RTVSPropertyOp16
 70
     1
102
RTVSPropertyOp17
 70
     1
102
RTVSPropertyOp18
 70
     1
102
RTVSPropertyOp19
 70
     1
102
RTVSPropertyOp20
 70
     1
102
RTVSPropertyOp21
 70
     1
102
RTVSPropertyOp22
 70
     1
102
RTVSPropertyOp23
 70
     1
102
RTVSPropertyOp24
 70
     1
102
RTVSPropertyOp25
 70
     1
102
RTVSPropertyOp26
 70
     1
102
RTVSPropertyOp27
 70
     1
102
RTVSPropertyOp28
 70
     1
102
RTVSPropertyOp29
 70
     1
102
RTVSPropertyOp30
 70
     1
102
RTVSPropertyOp31
 70
     1
102
RTVSPropertyOp32
 70
     1
  0
XRECORD
  5
26E
102
{ACAD_REACTORS
330
26D
102
}
330
26D
100
AcDbXrecord
280
     1
102
RTVSPropertyOp0
 70
     1
102
RTVSPropertyOp1
 70
     1
102
RTVSPropertyOp2
 70
     1
102
RTVSPropertyOp3
 70
     1
102
RTVSPropertyOp4
 70
     1
102
RTVSPropertyOp5
 70
     1
102
RTVSPropertyOp6
 70
     1
102
RTVSPropertyOp7
 70
     1
102
RTVSPropertyOp8
 70
     1
102
RTVSPropertyOp9
 70
     1
102
RTVSPropertyOp10
 70
     1
102
RTVSPropertyOp11
 70
     1
102
RTVSPropertyOp12
 70
     1
102
RTVSPropertyOp13
 70
     1
102
RTVSPropertyOp14
 70
     1
102
RTVSPropertyOp15
 70
     1
102
RTVSPropertyOp16
 70
     1
102
RTVSPropertyOp17
 70
     1
102
RTVSPropertyOp18
 70
     1
102
RTVSPropertyOp19
 70
     1
102
RTVSPropertyOp20
 70
     1
102
RTVSPropertyOp21
 70
     1
102
RTVSPropertyOp22
 70
     1
102
RTVSPropertyOp23
 70
     1
102
RTVSPropertyOp24
 70
     1
102
RTVSPropertyOp25
 70
     1
102
RTVSPropertyOp26
 70
     1
102
RTVSPropertyOp27
 70
     1
102
RTVSPropertyOp28
 70
     1
102
RTVSPropertyOp29
 70
     1
102
RTVSPropertyOp30
 70
     1
102
RTVSPropertyOp31
 70
     1
102
RTVSPropertyOp32
 70
     1
  0
XRECORD
  5
28A
102
{ACAD_REACTORS
330
289
102
}
330
289
100
AcDbXrecord
280
     1
102
RTVSPropertyOp0
 70
     0
102
RTVSPropertyOp1
 70
     0
102
RTVSPropertyOp2
 70
     0
102
RTVSPropertyOp3
 70
     0
102
RTVSPropertyOp4
 70
     0
102
RTVSPropertyOp5
 70
     0
102
RTVSPropertyOp6
 70
     0
102
RTVSPropertyOp7
 70
     0
102
RTVSPropertyOp8
 70
     0
102
RTVSPropertyOp9
 70
     0
102
RTVSPropertyOp10
 70
     0
102
RTVSPropertyOp11
 70
     0
102
RTVSPropertyOp12
 70
     0
102
RTVSPropertyOp13
 70
     0
102
RTVSPropertyOp14
 70
     2
102
RTVSPropertyOp15
 70
     0
102
RTVSPropertyOp16
 70
     0
102
RTVSPropertyOp17
 70
     0
102
RTVSPropertyOp18
 70
     0
102
RTVSPropertyOp19
 70
     0
102
RTVSPropertyOp20
 70
     0
102
RTVSPropertyOp21
 70
     0
102
RTVSPropertyOp22
 70
     0
102
RTVSPropertyOp23
 70
     0
102
RTVSPropertyOp24
 70
     0
102
RTVSPropertyOp25
 70
     0
102
RTVSPropertyOp26
 70
     0
102
RTVSPropertyOp27
 70
     0
102
RTVSPropertyOp28
 70
     1
102
RTVSPropertyOp29
 70
     1
102
RTVSPropertyOp30
 70
     1
102
RTVSPropertyOp31
 70
     1
102
RTVSPropertyOp32
 70
     1
  0
XRECORD
  5
27A
102
{ACAD_REACTORS
330
279
102
}
330
279
100
AcDbXrecord
280
     1
102
RTVSPropertyOp0
 70
     1
102
RTVSPropertyOp1
 70
     1
102
RTVSPropertyOp2
 70
     1
102
RTVSPropertyOp3
 70
     1
102
RTVSPropertyOp4
 70
     1
102
RTVSPropertyOp5
 70
     1
102
RTVSPropertyOp6
 70
     1
102
RTVSPropertyOp7
 70
     1
102
RTVSPropertyOp8
 70
     1
102
RTVSPropertyOp9
 70
     1
102
RTVSPropertyOp10
 70
     1
102
RTVSPropertyOp11
 70
     1
102
RTVSPropertyOp12
 70
     1
102
RTVSPropertyOp13
 70
     1
102
RTVSPropertyOp14
 70
     1
102
RTVSPropertyOp15
 70
     1
102
RTVSPropertyOp16
 70
     1
102
RTVSPropertyOp17
 70
     1
102
RTVSPropertyOp18
 70
     1
102
RTVSPropertyOp19
 70
     1
102
RTVSPropertyOp20
 70
     1
102
RTVSPropertyOp21
 70
     1
102
RTVSPropertyOp22
 70
     1
102
RTVSPropertyOp23
 70
     1
102
RTVSPropertyOp24
 70
     1
102
RTVSPropertyOp25
 70
     1
102
RTVSPropertyOp26
 70
     1
102
RTVSPropertyOp27
 70
     1
102
RTVSPropertyOp28
 70
     1
102
RTVSPropertyOp29
 70
     1
102
RTVSPropertyOp30
 70
     1
102
RTVSPropertyOp31
 70
     1
102
RTVSPropertyOp32
 70
     1
  0
XRECORD
  5
28C
102
{ACAD_REACTORS
330
28B
102
}
330
28B
100
AcDbXrecord
280
     1
102
RTVSPropertyOp0
 70
     0
102
RTVSPropertyOp1
 70
     0
102
RTVSPropertyOp2
 70
     0
102
RTVSPropertyOp3
 70
     0
102
RTVSPropertyOp4
 70
     0
102
RTVSPropertyOp5
 70
     0
102
RTVSPropertyOp6
 70
     0
102
RTVSPropertyOp7
 70
     0
102
RTVSPropertyOp8
 70
     0
102
RTVSPropertyOp9
 70
     0
102
RTVSPropertyOp10
 70
     0
102
RTVSPropertyOp11
 70
     0
102
RTVSPropertyOp12
 70
     0
102
RTVSPropertyOp13
 70
     0
102
RTVSPropertyOp14
 70
     2
102
RTVSPropertyOp15
 70
     0
102
RTVSPropertyOp16
 70
     0
102
RTVSPropertyOp17
 70
     0
102
RTVSPropertyOp18
 70
     0
102
RTVSPropertyOp19
 70
     0
102
RTVSPropertyOp20
 70
     0
102
RTVSPropertyOp21
 70
     0
102
RTVSPropertyOp22
 70
     0
102
RTVSPropertyOp23
 70
     0
102
RTVSPropertyOp24
 70
     0
102
RTVSPropertyOp25
 70
     0
102
RTVSPropertyOp26
 70
     0
102
RTVSPropertyOp27
 70
     0
102
RTVSPropertyOp28
 70
     1
102
RTVSPropertyOp29
 70
     1
102
RTVSPropertyOp30
 70
     1
102
RTVSPropertyOp31
 70
     1
102
RTVSPropertyOp32
 70
     1
  0
XRECORD
  5
272
102
{ACAD_REACTORS
330
271
102
}
330
271
100
AcDbXrecord
280
     1
102
RTVSPropertyOp0
 70
     1
102
RTVSPropertyOp1
 70
     1
102
RTVSPropertyOp2
 70
     1
102
RTVSPropertyOp3
 70
     1
102
RTVSPropertyOp4
 70
     1
102
RTVSPropertyOp5
 70
     1
102
RTVSPropertyOp6
 70
     1
102
RTVSPropertyOp7
 70
     1
102
RTVSPropertyOp8
 70
     1
102
RTVSPropertyOp9
 70
     1
102
RTVSPropertyOp10
 70
     1
102
RTVSPropertyOp11
 70
     1
102
RTVSPropertyOp12
 70
     1
102
RTVSPropertyOp13
 70
     1
102
RTVSPropertyOp14
 70
     1
102
RTVSPropertyOp15
 70
     1
102
RTVSPropertyOp16
 70
     1
102
RTVSPropertyOp17
 70
     1
102
RTVSPropertyOp18
 70
     1
102
RTVSPropertyOp19
 70
     1
102
RTVSPropertyOp20
 70
     1
102
RTVSPropertyOp21
 70
     1
102
RTVSPropertyOp22
 70
     1
102
RTVSPropertyOp23
 70
     1
102
RTVSPropertyOp24
 70
     1
102
RTVSPropertyOp25
 70
     1
102
RTVSPropertyOp26
 70
     1
102
RTVSPropertyOp27
 70
     1
102
RTVSPropertyOp28
 70
     1
102
RTVSPropertyOp29
 70
     1
102
RTVSPropertyOp30
 70
     1
102
RTVSPropertyOp31
 70
     1
102
RTVSPropertyOp32
 70
     1
  0
XRECORD
  5
288
102
{ACAD_REACTORS
330
287
102
}
330
287
100
AcDbXrecord
280
     1
102
RTVSPropertyOp0
 70
     1
102
RTVSPropertyOp1
 70
     1
102
RTVSPropertyOp2
 70
     1
102
RTVSPropertyOp3
 70
     1
102
RTVSPropertyOp4
 70
     1
102
RTVSPropertyOp5
 70
     1
102
RTVSPropertyOp6
 70
     1
102
RTVSPropertyOp7
 70
     1
102
RTVSPropertyOp8
 70
     1
102
RTVSPropertyOp9
 70
     1
102
RTVSPropertyOp10
 70
     1
102
RTVSPropertyOp11
 70
     1
102
RTVSPropertyOp12
 70
     1
102
RTVSPropertyOp13
 70
     1
102
RTVSPropertyOp14
 70
     1
102
RTVSPropertyOp15
 70
     1
102
RTVSPropertyOp16
 70
     1
102
RTVSPropertyOp17
 70
     1
102
RTVSPropertyOp18
 70
     1
102
RTVSPropertyOp19
 70
     1
102
RTVSPropertyOp20
 70
     1
102
RTVSPropertyOp21
 70
     1
102
RTVSPropertyOp22
 70
     1
102
RTVSPropertyOp23
 70
     1
102
RTVSPropertyOp24
 70
     1
102
RTVSPropertyOp25
 70
     1
102
RTVSPropertyOp26
 70
     1
102
RTVSPropertyOp27
 70
     1
102
RTVSPropertyOp28
 70
     1
102
RTVSPropertyOp29
 70
     1
102
RTVSPropertyOp30
 70
     1
102
RTVSPropertyOp31
 70
     1
102
RTVSPropertyOp32
 70
     1
  0
XRECORD
  5
286
102
{ACAD_REACTORS
330
285
102
}
330
285
100
AcDbXrecord
280
     1
102
RTVSPropertyOp0
 70
     1
102
RTVSPropertyOp1
 70
     1
102
RTVSPropertyOp2
 70
     1
102
RTVSPropertyOp3
 70
     1
102
RTVSPropertyOp4
 70
     1
102
RTVSPropertyOp5
 70
     1
102
RTVSPropertyOp6
 70
     1
102
RTVSPropertyOp7
 70
     1
102
RTVSPropertyOp8
 70
     1
102
RTVSPropertyOp9
 70
     1
102
RTVSPropertyOp10
 70
     1
102
RTVSPropertyOp11
 70
     1
102
RTVSPropertyOp12
 70
     1
102
RTVSPropertyOp13
 70
     1
102
RTVSPropertyOp14
 70
     1
102
RTVSPropertyOp15
 70
     1
102
RTVSPropertyOp16
 70
     1
102
RTVSPropertyOp17
 70
     1
102
RTVSPropertyOp18
 70
     1
102
RTVSPropertyOp19
 70
     1
102
RTVSPropertyOp20
 70
     1
102
RTVSPropertyOp21
 70
     1
102
RTVSPropertyOp22
 70
     1
102
RTVSPropertyOp23
 70
     1
102
RTVSPropertyOp24
 70
     1
102
RTVSPropertyOp25
 70
     1
102
RTVSPropertyOp26
 70
     1
102
RTVSPropertyOp27
 70
     1
102
RTVSPropertyOp28
 70
     1
102
RTVSPropertyOp29
 70
     1
102
RTVSPropertyOp30
 70
     1
102
RTVSPropertyOp31
 70
     1
102
RTVSPropertyOp32
 70
     1
  0
XRECORD
  5
280
102
{ACAD_REACTORS
330
27F
102
}
330
27F
100
AcDbXrecord
280
     1
102
RTVSPropertyOp0
 70
     1
102
RTVSPropertyOp1
 70
     1
102
RTVSPropertyOp2
 70
     1
102
RTVSPropertyOp3
 70
     1
102
RTVSPropertyOp4
 70
     1
102
RTVSPropertyOp5
 70
     1
102
RTVSPropertyOp6
 70
     1
102
RTVSPropertyOp7
 70
     1
102
RTVSPropertyOp8
 70
     1
102
RTVSPropertyOp9
 70
     1
102
RTVSPropertyOp10
 70
     1
102
RTVSPropertyOp11
 70
     1
102
RTVSPropertyOp12
 70
     1
102
RTVSPropertyOp13
 70
     1
102
RTVSPropertyOp14
 70
     1
102
RTVSPropertyOp15
 70
     1
102
RTVSPropertyOp16
 70
     1
102
RTVSPropertyOp17
 70
     1
102
RTVSPropertyOp18
 70
     1
102
RTVSPropertyOp19
 70
     1
102
RTVSPropertyOp20
 70
     1
102
RTVSPropertyOp21
 70
     1
102
RTVSPropertyOp22
 70
     1
102
RTVSPropertyOp23
 70
     1
102
RTVSPropertyOp24
 70
     1
102
RTVSPropertyOp25
 70
     1
102
RTVSPropertyOp26
 70
     1
102
RTVSPropertyOp27
 70
     1
102
RTVSPropertyOp28
 70
     1
102
RTVSPropertyOp29
 70
     1
102
RTVSPropertyOp30
 70
     1
102
RTVSPropertyOp31
 70
     1
102
RTVSPropertyOp32
 70
     1
  0
XRECORD
  5
282
102
{ACAD_REACTORS
330
281
102
}
330
281
100
AcDbXrecord
280
     1
102
RTVSPropertyOp0
 70
     1
102
RTVSPropertyOp1
 70
     1
102
RTVSPropertyOp2
 70
     1
102
RTVSPropertyOp3
 70
     1
102
RTVSPropertyOp4
 70
     1
102
RTVSPropertyOp5
 70
     1
102
RTVSPropertyOp6
 70
     1
102
RTVSPropertyOp7
 70
     1
102
RTVSPropertyOp8
 70
     1
102
RTVSPropertyOp9
 70
     1
102
RTVSPropertyOp10
 70
     1
102
RTVSPropertyOp11
 70
     1
102
RTVSPropertyOp12
 70
     1
102
RTVSPropertyOp13
 70
     1
102
RTVSPropertyOp14
 70
     1
102
RTVSPropertyOp15
 70
     1
102
RTVSPropertyOp16
 70
     1
102
RTVSPropertyOp17
 70
     1
102
RTVSPropertyOp18
 70
     1
102
RTVSPropertyOp19
 70
     1
102
RTVSPropertyOp20
 70
     1
102
RTVSPropertyOp21
 70
     1
102
RTVSPropertyOp22
 70
     1
102
RTVSPropertyOp23
 70
     1
102
RTVSPropertyOp24
 70
     1
102
RTVSPropertyOp25
 70
     1
102
RTVSPropertyOp26
 70
     1
102
RTVSPropertyOp27
 70
     1
102
RTVSPropertyOp28
 70
     1
102
RTVSPropertyOp29
 70
     1
102
RTVSPropertyOp30
 70
     1
102
RTVSPropertyOp31
 70
     1
102
RTVSPropertyOp32
 70
     1
  0
XRECORD
  5
278
102
{ACAD_REACTORS
330
277
102
}
330
277
100
AcDbXrecord
280
     1
102
RTVSPropertyOp0
 70
     1
102
RTVSPropertyOp1
 70
     1
102
RTVSPropertyOp2
 70
     1
102
RTVSPropertyOp3
 70
     1
102
RTVSPropertyOp4
 70
     1
102
RTVSPropertyOp5
 70
     1
102
RTVSPropertyOp6
 70
     1
102
RTVSPropertyOp7
 70
     1
102
RTVSPropertyOp8
 70
     1
102
RTVSPropertyOp9
 70
     1
102
RTVSPropertyOp10
 70
     1
102
RTVSPropertyOp11
 70
     1
102
RTVSPropertyOp12
 70
     1
102
RTVSPropertyOp13
 70
     1
102
RTVSPropertyOp14
 70
     1
102
RTVSPropertyOp15
 70
     1
102
RTVSPropertyOp16
 70
     1
102
RTVSPropertyOp17
 70
     1
102
RTVSPropertyOp18
 70
     1
102
RTVSPropertyOp19
 70
     1
102
RTVSPropertyOp20
 70
     1
102
RTVSPropertyOp21
 70
     1
102
RTVSPropertyOp22
 70
     1
102
RTVSPropertyOp23
 70
     1
102
RTVSPropertyOp24
 70
     1
102
RTVSPropertyOp25
 70
     1
102
RTVSPropertyOp26
 70
     1
102
RTVSPropertyOp27
 70
     1
102
RTVSPropertyOp28
 70
     1
102
RTVSPropertyOp29
 70
     1
102
RTVSPropertyOp30
 70
     1
102
RTVSPropertyOp31
 70
     1
102
RTVSPropertyOp32
 70
     1
  0
XRECORD
  5
26C
102
{ACAD_REACTORS
330
26B
102
}
330
26B
100
AcDbXrecord
280
     1
102
RTVSPropertyOp0
 70
     1
102
RTVSPropertyOp1
 70
     1
102
RTVSPropertyOp2
 70
     1
102
RTVSPropertyOp3
 70
     1
102
RTVSPropertyOp4
 70
     1
102
RTVSPropertyOp5
 70
     1
102
RTVSPropertyOp6
 70
     1
102
RTVSPropertyOp7
 70
     1
102
RTVSPropertyOp8
 70
     1
102
RTVSPropertyOp9
 70
     1
102
RTVSPropertyOp10
 70
     1
102
RTVSPropertyOp11
 70
     1
102
RTVSPropertyOp12
 70
     1
102
RTVSPropertyOp13
 70
     1
102
RTVSPropertyOp14
 70
     1
102
RTVSPropertyOp15
 70
     1
102
RTVSPropertyOp16
 70
     1
102
RTVSPropertyOp17
 70
     1
102
RTVSPropertyOp18
 70
     1
102
RTVSPropertyOp19
 70
     1
102
RTVSPropertyOp20
 70
     1
102
RTVSPropertyOp21
 70
     1
102
RTVSPropertyOp22
 70
     1
102
RTVSPropertyOp23
 70
     1
102
RTVSPropertyOp24
 70
     1
102
RTVSPropertyOp25
 70
     1
102
RTVSPropertyOp26
 70
     1
102
RTVSPropertyOp27
 70
     1
102
RTVSPropertyOp28
 70
     1
102
RTVSPropertyOp29
 70
     1
102
RTVSPropertyOp30
 70
     1
102
RTVSPropertyOp31
 70
     1
102
RTVSPropertyOp32
 70
     1
  0
XRECORD
  5
284
102
{ACAD_REACTORS
330
283
102
}
330
283
100
AcDbXrecord
280
     1
102
RTVSPropertyOp0
 70
     1
102
RTVSPropertyOp1
 70
     1
102
RTVSPropertyOp2
 70
     1
102
RTVSPropertyOp3
 70
     1
102
RTVSPropertyOp4
 70
     1
102
RTVSPropertyOp5
 70
     1
102
RTVSPropertyOp6
 70
     1
102
RTVSPropertyOp7
 70
     1
102
RTVSPropertyOp8
 70
     1
102
RTVSPropertyOp9
 70
     1
102
RTVSPropertyOp10
 70
     1
102
RTVSPropertyOp11
 70
     1
102
RTVSPropertyOp12
 70
     1
102
RTVSPropertyOp13
 70
     1
102
RTVSPropertyOp14
 70
     1
102
RTVSPropertyOp15
 70
     1
102
RTVSPropertyOp16
 70
     1
102
RTVSPropertyOp17
 70
     1
102
RTVSPropertyOp18
 70
     1
102
RTVSPropertyOp19
 70
     1
102
RTVSPropertyOp20
 70
     1
102
RTVSPropertyOp21
 70
     1
102
RTVSPropertyOp22
 70
     1
102
RTVSPropertyOp23
 70
     1
102
RTVSPropertyOp24
 70
     1
102
RTVSPropertyOp25
 70
     1
102
RTVSPropertyOp26
 70
     1
102
RTVSPropertyOp27
 70
     1
102
RTVSPropertyOp28
 70
     1
102
RTVSPropertyOp29
 70
     1
102
RTVSPropertyOp30
 70
     1
102
RTVSPropertyOp31
 70
     1
102
RTVSPropertyOp32
 70
     1
  0
ENDSEC
  0
EOF
