  0
SECTION
  2
HEADER
  9
$ACADVER
  1
AC1015
  9
$ACADMAINTVER
 70
    20
  9
$DWGCODEPAGE
  3
ANSI_1252
  9
$INSBASE
 10
0.0
 20
0.0
 30
0.0
  9
$EXTMIN
 10
0.4999999999999984
 20
0.4999999999999984
 30
0.0
  9
$EXTMAX
 10
21.5
 20
16.49999999999999
 30
0.0
  9
$LIMMIN
 10
0.0
 20
0.0
  9
$LIMMAX
 10
22.0
 20
17.0
  9
$ORTHOMODE
 70
     0
  9
$REGENMODE
 70
     1
  9
$FILLMODE
 70
     1
  9
$QTEXTMODE
 70
     0
  9
$MIRRTEXT
 70
     0
  9
$LTSCALE
 40
1.0
  9
$ATTMODE
 70
     1
  9
$TEXTSIZE
 40
0.2
  9
$TRACEWID
 40
0.05
  9
$TEXTSTYLE
  7
Standard
  9
$CLAYER
  8
0
  9
$CELTYPE
  6
ByLayer
  9
$CECOLOR
 62
   256
  9
$CELTSCALE
 40
1.0
  9
$DISPSILH
 70
     0
  9
$DIMSCALE
 40
1.0
  9
$DIMASZ
 40
0.0708661417322835
  9
$DIMEXO
 40
0.0625
  9
$DIMDLI
 40
0.38
  9
$DIMRND
 40
0.0
  9
$DIMDLE
 40
0.0
  9
$DIMEXE
 40
0.18
  9
$DIMTP
 40
0.0
  9
$DIMTM
 40
0.0
  9
$DIMTXT
 40
0.0708661417322835
  9
$DIMCEN
 40
0.09
  9
$DIMTSZ
 40
0.0
  9
$DIMTOL
 70
     0
  9
$DIMLIM
 70
     0
  9
$DIMTIH
 70
     1
  9
$DIMTOH
 70
     1
  9
$DIMSE1
 70
     0
  9
$DIMSE2
 70
     0
  9
$DIMTAD
 70
     0
  9
$DIMZIN
 70
     0
  9
$DIMBLK
  1

  9
$DIMASO
 70
     1
  9
$DIMSHO
 70
     1
  9
$DIMPOST
  1

  9
$DIMAPOST
  1

  9
$DIMALT
 70
     0
  9
$DIMALTD
 70
     2
  9
$DIMALTF
 40
25.4
  9
$DIMLFAC
 40
1.0
  9
$DIMTOFL
 70
     0
  9
$DIMTVP
 40
0.0
  9
$DIMTIX
 70
     0
  9
$DIMSOXD
 70
     0
  9
$DIMSAH
 70
     0
  9
$DIMBLK1
  1

  9
$DIMBLK2
  1

  9
$DIMSTYLE
  2
Standard
  9
$DIMCLRD
 70
     0
  9
$DIMCLRE
 70
     0
  9
$DIMCLRT
 70
     0
  9
$DIMTFAC
 40
1.0
  9
$DIMGAP
 40
0.09
  9
$DIMJUST
 70
     0
  9
$DIMSD1
 70
     0
  9
$DIMSD2
 70
     0
  9
$DIMTOLJ
 70
     1
  9
$DIMTZIN
 70
     0
  9
$DIMALTZ
 70
     0
  9
$DIMALTTZ
 70
     0
  9
$DIMUPT
 70
     0
  9
$DIMDEC
 70
     4
  9
$DIMTDEC
 70
     4
  9
$DIMALTU
 70
     2
  9
$DIMALTTD
 70
     2
  9
$DIMTXSTY
  7
Standard
  9
$DIMAUNIT
 70
     0
  9
$DIMADEC
 70
     0
  9
$DIMALTRND
 40
0.0
  9
$DIMAZIN
 70
     0
  9
$DIMDSEP
 70
    46
  9
$DIMATFIT
 70
     3
  9
$DIMFRAC
 70
     0
  9
$DIMLDRBLK
  1

  9
$DIMLUNIT
 70
     2
  9
$DIMLWD
 70
    -2
  9
$DIMLWE
 70
    -2
  9
$DIMTMOVE
 70
     0
  9
$LUNITS
 70
     2
  9
$LUPREC
 70
     4
  9
$SKETCHINC
 40
0.1
  9
$FILLETRAD
 40
0.0
  9
$AUNITS
 70
     0
  9
$AUPREC
 70
     0
  9
$MENU
  1
.
  9
$ELEVATION
 40
0.0
  9
$PELEVATION
 40
0.0
  9
$THICKNESS
 40
0.0
  9
$LIMCHECK
 70
     0
  9
$CHAMFERA
 40
0.0
  9
$CHAMFERB
 40
0.0
  9
$CHAMFERC
 40
0.0
  9
$CHAMFERD
 40
0.0
  9
$SKPOLY
 70
     0
  9
$TDCREATE
 40
2456038.588575289
  9
$TDUCREATE
 40
2456038.880241956
  9
$TDUPDATE
 40
2456038.589807917
  9
$TDUUPDATE
 40
2456038.881474583
  9
$TDINDWG
 40
0.0004091551
  9
$TDUSRTIMER
 40
0.0004091551
  9
$USRTIMER
 70
     1
  9
$ANGBASE
 50
0.0
  9
$ANGDIR
 70
     0
  9
$PDMODE
 70
     0
  9
$PDSIZE
 40
0.0
  9
$PLINEWID
 40
0.0
  9
$SPLFRAME
 70
     0
  9
$SPLINETYPE
 70
     6
  9
$SPLINESEGS
 70
     8
  9
$HANDSEED
  5
2C7
  9
$SURFTAB1
 70
     6
  9
$SURFTAB2
 70
     6
  9
$SURFTYPE
 70
     6
  9
$SURFU
 70
     6
  9
$SURFV
 70
     6
  9
$UCSBASE
  2

  9
$UCSNAME
  2

  9
$UCSORG
 10
0.0
 20
0.0
 30
0.0
  9
$UCSXDIR
 10
1.0
 20
0.0
 30
0.0
  9
$UCSYDIR
 10
0.0
 20
1.0
 30
0.0
  9
$UCSORTHOREF
  2

  9
$UCSORTHOVIEW
 70
     0
  9
$UCSORGTOP
 10
0.0
 20
0.0
 30
0.0
  9
$UCSORGBOTTOM
 10
0.0
 20
0.0
 30
0.0
  9
$UCSORGLEFT
 10
0.0
 20
0.0
 30
0.0
  9
$UCSORGRIGHT
 10
0.0
 20
0.0
 30
0.0
  9
$UCSORGFRONT
 10
0.0
 20
0.0
 30
0.0
  9
$UCSORGBACK
 10
0.0
 20
0.0
 30
0.0
  9
$PUCSBASE
  2

  9
$PUCSNAME
  2

  9
$PUCSORG
 10
0.0
 20
0.0
 30
0.0
  9
$PUCSXDIR
 10
1.0
 20
0.0
 30
0.0
  9
$PUCSYDIR
 10
0.0
 20
1.0
 30
0.0
  9
$PUCSORTHOREF
  2

  9
$PUCSORTHOVIEW
 70
     0
  9
$PUCSORGTOP
 10
0.0
 20
0.0
 30
0.0
  9
$PUCSORGBOTTOM
 10
0.0
 20
0.0
 30
0.0
  9
$PUCSORGLEFT
 10
0.0
 20
0.0
 30
0.0
  9
$PUCSORGRIGHT
 10
0.0
 20
0.0
 30
0.0
  9
$PUCSORGFRONT
 10
0.0
 20
0.0
 30
0.0
  9
$PUCSORGBACK
 10
0.0
 20
0.0
 30
0.0
  9
$USERI1
 70
     0
  9
$USERI2
 70
     0
  9
$USERI3
 70
     0
  9
$USERI4
 70
     0
  9
$USERI5
 70
     0
  9
$USERR1
 40
0.0
  9
$USERR2
 40
0.0
  9
$USERR3
 40
0.0
  9
$USERR4
 40
0.0
  9
$USERR5
 40
0.0
  9
$WORLDVIEW
 70
     1
  9
$SHADEDGE
 70
     3
  9
$SHADEDIF
 70
    70
  9
$TILEMODE
 70
     1
  9
$MAXACTVP
 70
    64
  9
$PINSBASE
 10
0.0
 20
0.0
 30
0.0
  9
$PLIMCHECK
 70
     0
  9
$PEXTMIN
 10
0.0
 20
0.0
 30
0.0
  9
$PEXTMAX
 10
22.0
 20
17.0
 30
0.0
  9
$PLIMMIN
 10
0.0
 20
0.0
  9
$PLIMMAX
 10
22.0
 20
17.0
  9
$UNITMODE
 70
     0
  9
$VISRETAIN
 70
     1
  9
$PLINEGEN
 70
     0
  9
$PSLTSCALE
 70
     1
  9
$TREEDEPTH
 70
  3020
  9
$CMLSTYLE
  2
Standard
  9
$CMLJUST
 70
     0
  9
$CMLSCALE
 40
1.0
  9
$PROXYGRAPHICS
 70
     1
  9
$MEASUREMENT
 70
     0
  9
$CELWEIGHT
370
    -1
  9
$ENDCAPS
280
     0
  9
$JOINSTYLE
280
     0
  9
$LWDISPLAY
290
     0
  9
$INSUNITS
 70
     1
  9
$HYPERLINKBASE
  1

  9
$STYLESHEET
  1

  9
$XEDIT
290
     1
  9
$CEPSNTYPE
380
     0
  9
$PSTYLEMODE
290
     1
  9
$FINGERPRINTGUID
  2
{8D557E84-341A-4C55-A0F0-DAA707188695}
  9
$VERSIONGUID
  2
{474FC9DF-AE06-485F-B16D-5BB10A7E64B5}
  9
$EXTNAMES
290
     1
  9
$PSVPSCALE
 40
0.0
  9
$OLESTARTUP
290
     0
  0
ENDSEC
  0
SECTION
  2
CLASSES
  0
CLASS
  1
ACDBDICTIONARYWDFLT
  2
AcDbDictionaryWithDefault
  3
ObjectDBX Classes
 90
        0
280
     0
281
     0
  0
CLASS
  1
MATERIAL
  2
AcDbMaterial
  3
ObjectDBX Classes
 90
     1153
280
     0
281
     0
  0
CLASS
  1
VISUALSTYLE
  2
AcDbVisualStyle
  3
ObjectDBX Classes
 90
     4095
280
     0
281
     0
  0
CLASS
  1
SCALE
  2
AcDbScale
  3
ObjectDBX Classes
 90
     1153
280
     0
281
     0
  0
CLASS
  1
TABLESTYLE
  2
AcDbTableStyle
  3
ObjectDBX Classes
 90
     4095
280
     0
281
     0
  0
CLASS
  1
MLEADERSTYLE
  2
AcDbMLeaderStyle
  3
ACDB_MLEADERSTYLE_CLASS
 90
     4095
280
     0
281
     0
  0
CLASS
  1
DICTIONARYVAR
  2
AcDbDictionaryVar
  3
ObjectDBX Classes
 90
        0
280
     0
281
     0
  0
CLASS
  1
CELLSTYLEMAP
  2
AcDbCellStyleMap
  3
ObjectDBX Classes
 90
     1152
280
     0
281
     0
  0
CLASS
  1
ACDBPLACEHOLDER
  2
AcDbPlaceHolder
  3
ObjectDBX Classes
 90
        0
280
     0
281
     0
  0
CLASS
  1
LAYOUT
  2
AcDbLayout
  3
ObjectDBX Classes
 90
        0
280
     0
281
     0
  0
ENDSEC
  0
SECTION
  2
TABLES
  0
TABLE
  2
VPORT
  5
8
102
{ACAD_XDICTIONARY
360
23A
102
}
330
0
100
AcDbSymbolTable
 70
     1
  0
VPORT
  5
57
330
8
100
AcDbSymbolTableRecord
100
AcDbViewportTableRecord
  2
*Active
 70
     0
 10
0.0
 20
0.0
 11
1.0
 21
1.0
 12
17.8754889178618
 22
8.5
 13
0.0
 23
0.0
 14
1.0
 24
1.0
 15
0.0
 25
0.0
 16
0.0
 26
0.0
 36
1.0
 17
0.0
 27
0.0
 37
0.0
 40
17.00339092234971
 41
2.102998696219035
 42
50.0
 43
0.0
 44
0.0
 50
0.0
 51
0.0
 71
     0
 72
   100
 73
     1
 74
     1
 75
     0
 76
     0
 77
     0
 78
     0
281
     0
 65
     1
110
0.0
120
0.0
130
0.0
111
1.0
121
0.0
131
0.0
112
0.0
122
1.0
132
0.0
 79
     0
146
0.0
1001
ACAD_NAV_VCDISPLAY
1070
     3
  0
ENDTAB
  0
TABLE
  2
LTYPE
  5
5
330
0
100
AcDbSymbolTable
 70
    59
  0
LTYPE
  5
5B
330
5
100
AcDbSymbolTableRecord
100
AcDbLinetypeTableRecord
  2
ByBlock
 70
     0
  3

 72
    65
 73
     0
 40
0.0
  0
LTYPE
  5
5C
330
5
100
AcDbSymbolTableRecord
100
AcDbLinetypeTableRecord
  2
ByLayer
 70
     0
  3

 72
    65
 73
     0
 40
0.0
  0
LTYPE
  5
5D
330
5
100
AcDbSymbolTableRecord
100
AcDbLinetypeTableRecord
  2
Continuous
 70
     0
  3
Solid line
 72
    65
 73
     0
 40
0.0
  0
LTYPE
  5
7C
330
5
100
AcDbSymbolTableRecord
100
AcDbLinetypeTableRecord
  2
BY_STANDARD
 70
     0
  3
By Standard ____________    ____    ____   _
 72
    65
 73
     6
 40
1.240299999999999
 49
0.6614
 74
     0
 49
-0.0827
 74
     0
 49
0.1654
 74
     0
 49
-0.0827
 74
     0
 49
0.1654
 74
     0
 49
-0.0827
 74
     0
  0
LTYPE
  5
7D
330
5
100
AcDbSymbolTableRecord
100
AcDbLinetypeTableRecord
  2
CHAIN
 70
     0
  3
Chain ____ _ ____ _ ____ _ ____ _ ____ _ ____
 72
    65
 73
     4
 40
0.7087
 49
0.4724000000000001
 74
     0
 49
-0.0591
 74
     0
 49
0.1181
 74
     0
 49
-0.0591
 74
     0
  0
LTYPE
  5
7E
330
5
100
AcDbSymbolTableRecord
100
AcDbLinetypeTableRecord
  2
DASH_DOT
 70
     0
  3
Dash dot __ . __ . __ . __ . __ . __ . __ . __
 72
    65
 73
     4
 40
0.37
 49
0.24
 74
     0
 49
-0.06
 74
     0
 49
0.01
 74
     0
 49
-0.06
 74
     0
  0
LTYPE
  5
7F
330
5
100
AcDbSymbolTableRecord
100
AcDbLinetypeTableRecord
  2
DOUBLE_DASH_DOT
 70
     0
  3
Double-Dash Dot __ __ . __ __ . __ __ . __ _
 72
    65
 73
     6
 40
0.4398
 49
0.24
 74
     0
 49
-0.06
 74
     0
 49
0.0098
 74
     0
 49
-0.06
 74
     0
 49
0.01
 74
     0
 49
-0.06
 74
     0
  0
LTYPE
  5
80
330
5
100
AcDbSymbolTableRecord
100
AcDbLinetypeTableRecord
  2
DASH_TRIPLE_DOT
 70
     0
  3
Dash Triple-Dot _ . . . _ . . . _ . . . _
 72
    65
 73
     8
 40
0.51
 49
0.24
 74
     0
 49
-0.06
 74
     0
 49
0.01
 74
     0
 49
-0.06
 74
     0
 49
0.01
 74
     0
 49
-0.06
 74
     0
 49
0.01
 74
     0
 49
-0.06
 74
     0
  0
LTYPE
  5
81
330
5
100
AcDbSymbolTableRecord
100
AcDbLinetypeTableRecord
  2
DASHED
 70
     0
  3
Dashed __ __ __ __ __ __ __ __ __ __ __ __ __ _
 72
    65
 73
     2
 40
0.2067
 49
0.1654
 74
     0
 49
-0.0413
 74
     0
  0
LTYPE
  5
82
330
5
100
AcDbSymbolTableRecord
100
AcDbLinetypeTableRecord
  2
DASH_DOUBLE_DOT
 70
     0
  3
Dash Double-Dot __ . . __ . . __ . . __ . .
 72
    65
 73
     6
 40
0.4398
 49
0.24
 74
     0
 49
-0.06
 74
     0
 49
0.0098
 74
     0
 49
-0.06
 74
     0
 49
0.01
 74
     0
 49
-0.06
 74
     0
  0
LTYPE
  5
83
330
5
100
AcDbSymbolTableRecord
100
AcDbLinetypeTableRecord
  2
DASHED_SPACE
 70
     0
  3
Dashed Space __ __ __ __ __ __ __ __ __ __ __ _
 72
    65
 73
     2
 40
0.2067
 49
0.1654
 74
     0
 49
-0.0413
 74
     0
  0
LTYPE
  5
84
330
5
100
AcDbSymbolTableRecord
100
AcDbLinetypeTableRecord
  2
DOTTED
 70
     0
  3
Dotted . . . . . . . . . . . . . . . . . . . . 
 72
    65
 73
     2
 40
0.0482
 49
0.0069
 74
     0
 49
-0.0413
 74
     0
  0
LTYPE
  5
85
330
5
100
AcDbSymbolTableRecord
100
AcDbLinetypeTableRecord
  2
DOUBLE_DASH_CHAIN
 70
     0
  3
Double-Dash Chain ______  __  __  ______  __  _
 72
    65
 73
     6
 40
1.240299999999999
 49
0.6614
 74
     0
 49
-0.0827
 74
     0
 49
0.1654
 74
     0
 49
-0.0827
 74
     0
 49
0.1654
 74
     0
 49
-0.0827
 74
     0
  0
LTYPE
  5
87
330
5
100
AcDbSymbolTableRecord
100
AcDbLinetypeTableRecord
  2
DOUBLE_DASH_DOUBLE_DOT
 70
     0
  3
Double-Dash Double-dot _ _ . . _ _ . . _
 72
    65
 73
     8
 40
0.7400000000000001
 49
0.24
 74
     0
 49
-0.06
 74
     0
 49
0.24
 74
     0
 49
-0.06
 74
     0
 49
0.01
 74
     0
 49
-0.06
 74
     0
 49
0.01
 74
     0
 49
-0.06
 74
     0
  0
LTYPE
  5
88
330
5
100
AcDbSymbolTableRecord
100
AcDbLinetypeTableRecord
  2
DOUBLE_DASH_TRIPLE_DOT
 70
     0
  3
Double Dash Triple Dot __ __ . . . __ __ . .
 72
    65
 73
    10
 40
0.8100000000000001
 49
0.24
 74
     0
 49
-0.06
 74
     0
 49
0.24
 74
     0
 49
-0.06
 74
     0
 49
0.01
 74
     0
 49
-0.06
 74
     0
 49
0.01
 74
     0
 49
-0.06
 74
     0
 49
0.01
 74
     0
 49
-0.06
 74
     0
  0
LTYPE
  5
89
330
5
100
AcDbSymbolTableRecord
100
AcDbLinetypeTableRecord
  2
LONG_DASH_DOTTED
 70
     0
  3
Long Dash Dotted ____ . ____ . ____ . ____ . _
 72
    65
 73
     4
 40
0.3543
 49
0.2362
 74
     0
 49
-0.0295
 74
     0
 49
0.0591
 74
     0
 49
-0.0295
 74
     0
  0
LTYPE
  5
8A
330
5
100
AcDbSymbolTableRecord
100
AcDbLinetypeTableRecord
  2
LONG_DASH_DOUBLE_DOT
 70
     0
  3
Long Dash Double Dot ________  .  .  ________  
 72
    65
 73
     6
 40
0.6799999999999999
 49
0.48
 74
     0
 49
-0.06
 74
     0
 49
0.01
 74
     0
 49
-0.06
 74
     0
 49
0.01
 74
     0
 49
-0.06
 74
     0
  0
LTYPE
  5
8B
330
5
100
AcDbSymbolTableRecord
100
AcDbLinetypeTableRecord
  2
LONG_DASH_TRIPLE_DOT
 70
     0
  3
Long Dash Triple Dot ____ ... ____ ... ____
 72
    65
 73
     8
 40
0.3689
 49
0.2362
 74
     0
 49
-0.0295
 74
     0
 49
0.0049
 74
     0
 49
-0.0295
 74
     0
 49
0.0049
 74
     0
 49
-0.0295
 74
     0
 49
0.0049
 74
     0
 49
-0.0295
 74
     0
  0
LTYPE
  5
8C
330
5
100
AcDbSymbolTableRecord
100
AcDbLinetypeTableRecord
  2
BORDER
 70
     0
  3
Border __ __ . __ __ . __ __ . __ __ . __ __ .
 72
    65
 73
     6
 40
1.75
 49
0.5
 74
     0
 49
-0.25
 74
     0
 49
0.5
 74
     0
 49
-0.25
 74
     0
 49
0.0
 74
     0
 49
-0.25
 74
     0
  0
LTYPE
  5
8D
330
5
100
AcDbSymbolTableRecord
100
AcDbLinetypeTableRecord
  2
BORDER2
 70
     0
  3
Border (.5x) __.__.__.__.__.__.__.__.__.__.__.
 72
    65
 73
     6
 40
0.875
 49
0.25
 74
     0
 49
-0.125
 74
     0
 49
0.25
 74
     0
 49
-0.125
 74
     0
 49
0.0
 74
     0
 49
-0.125
 74
     0
  0
LTYPE
  5
8E
330
5
100
AcDbSymbolTableRecord
100
AcDbLinetypeTableRecord
  2
BORDERX2
 70
     0
  3
Border (2x) ____  ____  .  ____  ____  .  ___
 72
    65
 73
     6
 40
3.5
 49
1.0
 74
     0
 49
-0.5
 74
     0
 49
1.0
 74
     0
 49
-0.5
 74
     0
 49
0.0
 74
     0
 49
-0.5
 74
     0
  0
LTYPE
  5
8F
330
5
100
AcDbSymbolTableRecord
100
AcDbLinetypeTableRecord
  2
CENTER
 70
     0
  3
Center ____ _ ____ _ ____ _ ____ _ ____ _ ____
 72
    65
 73
     4
 40
2.0
 49
1.25
 74
     0
 49
-0.25
 74
     0
 49
0.25
 74
     0
 49
-0.25
 74
     0
  0
LTYPE
  5
90
330
5
100
AcDbSymbolTableRecord
100
AcDbLinetypeTableRecord
  2
CENTER2
 70
     0
  3
Center (.5x) ___ _ ___ _ ___ _ ___ _ ___ _ ___
 72
    65
 73
     4
 40
1.125
 49
0.75
 74
     0
 49
-0.125
 74
     0
 49
0.125
 74
     0
 49
-0.125
 74
     0
  0
LTYPE
  5
91
330
5
100
AcDbSymbolTableRecord
100
AcDbLinetypeTableRecord
  2
CENTERX2
 70
     0
  3
Center (2x) ________  __  ________  __  _____
 72
    65
 73
     4
 40
4.0
 49
2.5
 74
     0
 49
-0.5
 74
     0
 49
0.5
 74
     0
 49
-0.5
 74
     0
  0
LTYPE
  5
92
330
5
100
AcDbSymbolTableRecord
100
AcDbLinetypeTableRecord
  2
DASHDOT2
 70
     0
  3
Dash dot (.5x) _._._._._._._._._._._._._._._.
 72
    65
 73
     4
 40
0.5
 49
0.25
 74
     0
 49
-0.125
 74
     0
 49
0.0
 74
     0
 49
-0.125
 74
     0
  0
LTYPE
  5
93
330
5
100
AcDbSymbolTableRecord
100
AcDbLinetypeTableRecord
  2
DASHDOTX2
 70
     0
  3
Dash dot (2x) ____  .  ____  .  ____  .  ___
 72
    65
 73
     4
 40
2.0
 49
1.0
 74
     0
 49
-0.5
 74
     0
 49
0.0
 74
     0
 49
-0.5
 74
     0
  0
LTYPE
  5
95
330
5
100
AcDbSymbolTableRecord
100
AcDbLinetypeTableRecord
  2
DASHED2
 70
     0
  3
Dashed (.5x) _ _ _ _ _ _ _ _ _ _ _ _ _ _ _ _ _
 72
    65
 73
     2
 40
0.375
 49
0.25
 74
     0
 49
-0.125
 74
     0
  0
LTYPE
  5
96
330
5
100
AcDbSymbolTableRecord
100
AcDbLinetypeTableRecord
  2
DASHEDX2
 70
     0
  3
Dashed (2x) ____  ____  ____  ____  ____  ___
 72
    65
 73
     2
 40
1.5
 49
1.0
 74
     0
 49
-0.5
 74
     0
  0
LTYPE
  5
97
330
5
100
AcDbSymbolTableRecord
100
AcDbLinetypeTableRecord
  2
DIVIDE
 70
     0
  3
Divide ____ . . ____ . . ____ . . ____ . . ____
 72
    65
 73
     6
 40
1.25
 49
0.5
 74
     0
 49
-0.25
 74
     0
 49
0.0
 74
     0
 49
-0.25
 74
     0
 49
0.0
 74
     0
 49
-0.25
 74
     0
  0
LTYPE
  5
98
330
5
100
AcDbSymbolTableRecord
100
AcDbLinetypeTableRecord
  2
DIVIDE2
 70
     0
  3
Divide (.5x) __..__..__..__..__..__..__..__.._
 72
    65
 73
     6
 40
0.625
 49
0.25
 74
     0
 49
-0.125
 74
     0
 49
0.0
 74
     0
 49
-0.125
 74
     0
 49
0.0
 74
     0
 49
-0.125
 74
     0
  0
LTYPE
  5
99
330
5
100
AcDbSymbolTableRecord
100
AcDbLinetypeTableRecord
  2
DIVIDEX2
 70
     0
  3
Divide (2x) ________  .  .  ________  .  .  _
 72
    65
 73
     6
 40
2.5
 49
1.0
 74
     0
 49
-0.5
 74
     0
 49
0.0
 74
     0
 49
-0.5
 74
     0
 49
0.0
 74
     0
 49
-0.5
 74
     0
  0
LTYPE
  5
9A
330
5
100
AcDbSymbolTableRecord
100
AcDbLinetypeTableRecord
  2
DOT
 70
     0
  3
Dot . . . . . . . . . . . . . . . . . . . . . .
 72
    65
 73
     2
 40
0.25
 49
0.0
 74
     0
 49
-0.25
 74
     0
  0
LTYPE
  5
9B
330
5
100
AcDbSymbolTableRecord
100
AcDbLinetypeTableRecord
  2
DOT2
 70
     0
  3
Dot (.5x) .....................................
 72
    65
 73
     2
 40
0.125
 49
0.0
 74
     0
 49
-0.125
 74
     0
  0
LTYPE
  5
9C
330
5
100
AcDbSymbolTableRecord
100
AcDbLinetypeTableRecord
  2
DOTX2
 70
     0
  3
Dot (2x) .  .  .  .  .  .  .  .  .  .  .  .  . 
 72
    65
 73
     2
 40
0.5
 49
0.0
 74
     0
 49
-0.5
 74
     0
  0
LTYPE
  5
9D
330
5
100
AcDbSymbolTableRecord
100
AcDbLinetypeTableRecord
  2
HIDDEN
 70
     0
  3
Hidden __ __ __ __ __ __ __ __ __ __ __ __ __ _
 72
    65
 73
     2
 40
0.375
 49
0.25
 74
     0
 49
-0.125
 74
     0
  0
LTYPE
  5
9E
330
5
100
AcDbSymbolTableRecord
100
AcDbLinetypeTableRecord
  2
HIDDEN2
 70
     0
  3
Hidden (.5x) _ _ _ _ _ _ _ _ _ _ _ _ _ _ _ _ _
 72
    65
 73
     2
 40
0.1875
 49
0.125
 74
     0
 49
-0.0625
 74
     0
  0
LTYPE
  5
9F
330
5
100
AcDbSymbolTableRecord
100
AcDbLinetypeTableRecord
  2
HIDDENX2
 70
     0
  3
Hidden (2x) ____ ____ ____ ____ ____ ____ ____
 72
    65
 73
     2
 40
0.75
 49
0.5
 74
     0
 49
-0.25
 74
     0
  0
LTYPE
  5
A0
330
5
100
AcDbSymbolTableRecord
100
AcDbLinetypeTableRecord
  2
PHANTOM
 70
     0
  3
Phantom ______  __  __  ______  __  __  ______
 72
    65
 73
     6
 40
2.5
 49
1.25
 74
     0
 49
-0.25
 74
     0
 49
0.25
 74
     0
 49
-0.25
 74
     0
 49
0.25
 74
     0
 49
-0.25
 74
     0
  0
LTYPE
  5
A1
330
5
100
AcDbSymbolTableRecord
100
AcDbLinetypeTableRecord
  2
PHANTOM2
 70
     0
  3
Phantom (.5x) ___ _ _ ___ _ _ ___ _ _ ___ _ _
 72
    65
 73
     6
 40
1.25
 49
0.625
 74
     0
 49
-0.125
 74
     0
 49
0.125
 74
     0
 49
-0.125
 74
     0
 49
0.125
 74
     0
 49
-0.125
 74
     0
  0
LTYPE
  5
A2
330
5
100
AcDbSymbolTableRecord
100
AcDbLinetypeTableRecord
  2
PHANTOMX2
 70
     0
  3
Phantom (2x) ____________    ____    ____   _
 72
    65
 73
     6
 40
5.0
 49
2.5
 74
     0
 49
-0.5
 74
     0
 49
0.5
 74
     0
 49
-0.5
 74
     0
 49
0.5
 74
     0
 49
-0.5
 74
     0
  0
LTYPE
  5
A3
330
5
100
AcDbSymbolTableRecord
100
AcDbLinetypeTableRecord
  2
ACAD_ISO02W100
 70
     0
  3
ISO dash __ __ __ __ __ __ __ __ __ __ __ __ __
 72
    65
 73
     2
 40
0.59
 49
0.47
 74
     0
 49
-0.12
 74
     0
  0
LTYPE
  5
A4
330
5
100
AcDbSymbolTableRecord
100
AcDbLinetypeTableRecord
  2
ACAD_ISO03W100
 70
     0
  3
ISO dash space __    __    __    __    __    __
 72
    65
 73
     2
 40
1.179999999999999
 49
0.47
 74
     0
 49
-0.71
 74
     0
  0
LTYPE
  5
A5
330
5
100
AcDbSymbolTableRecord
100
AcDbLinetypeTableRecord
  2
ACAD_ISO04W100
 70
     0
  3
ISO long-dash dot ____ . ____ . ____ . ____ . _
 72
    65
 73
     4
 40
1.179999999999999
 49
0.9399999999999998
 74
     0
 49
-0.12
 74
     0
 49
0.0
 74
     0
 49
-0.12
 74
     0
  0
LTYPE
  5
A6
330
5
100
AcDbSymbolTableRecord
100
AcDbLinetypeTableRecord
  2
ACAD_ISO05W100
 70
     0
  3
ISO long-dash double-dot ____ .. ____ .. ____ .
 72
    65
 73
     6
 40
1.299999999999999
 49
0.9399999999999998
 74
     0
 49
-0.12
 74
     0
 49
0.0
 74
     0
 49
-0.12
 74
     0
 49
0.0
 74
     0
 49
-0.12
 74
     0
  0
LTYPE
  5
A7
330
5
100
AcDbSymbolTableRecord
100
AcDbLinetypeTableRecord
  2
ACAD_ISO06W100
 70
     0
  3
ISO long-dash triple-dot ____ ... ____ ... ____
 72
    65
 73
     8
 40
1.419999999999999
 49
0.9399999999999998
 74
     0
 49
-0.12
 74
     0
 49
0.0
 74
     0
 49
-0.12
 74
     0
 49
0.0
 74
     0
 49
-0.12
 74
     0
 49
0.0
 74
     0
 49
-0.12
 74
     0
  0
LTYPE
  5
A8
330
5
100
AcDbSymbolTableRecord
100
AcDbLinetypeTableRecord
  2
ACAD_ISO07W100
 70
     0
  3
ISO dot . . . . . . . . . . . . . . . . . . . .
 72
    65
 73
     2
 40
0.12
 49
0.0
 74
     0
 49
-0.12
 74
     0
  0
LTYPE
  5
A9
330
5
100
AcDbSymbolTableRecord
100
AcDbLinetypeTableRecord
  2
ACAD_ISO08W100
 70
     0
  3
ISO long-dash short-dash ____ __ ____ __ ____ _
 72
    65
 73
     4
 40
0.95
 49
0.47
 74
     0
 49
-0.12
 74
     0
 49
0.24
 74
     0
 49
-0.12
 74
     0
  0
LTYPE
  5
AA
330
5
100
AcDbSymbolTableRecord
100
AcDbLinetypeTableRecord
  2
ACAD_ISO09W100
 70
     0
  3
ISO long-dash double-short-dash ____ __ __ ____
 72
    65
 73
     6
 40
1.31
 49
0.47
 74
     0
 49
-0.12
 74
     0
 49
0.24
 74
     0
 49
-0.12
 74
     0
 49
0.24
 74
     0
 49
-0.12
 74
     0
  0
LTYPE
  5
AB
330
5
100
AcDbSymbolTableRecord
100
AcDbLinetypeTableRecord
  2
ACAD_ISO10W100
 70
     0
  3
ISO dash dot __ . __ . __ . __ . __ . __ . __ .
 72
    65
 73
     4
 40
0.71
 49
0.47
 74
     0
 49
-0.12
 74
     0
 49
0.0
 74
     0
 49
-0.12
 74
     0
  0
LTYPE
  5
AC
330
5
100
AcDbSymbolTableRecord
100
AcDbLinetypeTableRecord
  2
ACAD_ISO11W100
 70
     0
  3
ISO double-dash dot __ __ . __ __ . __ __ . __ 
 72
    65
 73
     6
 40
1.299999999999999
 49
0.47
 74
     0
 49
-0.12
 74
     0
 49
0.47
 74
     0
 49
-0.12
 74
     0
 49
0.0
 74
     0
 49
-0.12
 74
     0
  0
LTYPE
  5
AD
330
5
100
AcDbSymbolTableRecord
100
AcDbLinetypeTableRecord
  2
ACAD_ISO12W100
 70
     0
  3
ISO dash double-dot __ . . __ . . __ . . __ . .
 72
    65
 73
     6
 40
0.8299999999999998
 49
0.47
 74
     0
 49
-0.12
 74
     0
 49
0.0
 74
     0
 49
-0.12
 74
     0
 49
0.0
 74
     0
 49
-0.12
 74
     0
  0
LTYPE
  5
AE
330
5
100
AcDbSymbolTableRecord
100
AcDbLinetypeTableRecord
  2
ACAD_ISO13W100
 70
     0
  3
ISO double-dash double-dot __ __ . . __ __ . . 
 72
    65
 73
     8
 40
1.419999999999999
 49
0.47
 74
     0
 49
-0.12
 74
     0
 49
0.47
 74
     0
 49
-0.12
 74
     0
 49
0.0
 74
     0
 49
-0.12
 74
     0
 49
0.0
 74
     0
 49
-0.12
 74
     0
  0
LTYPE
  5
AF
330
5
100
AcDbSymbolTableRecord
100
AcDbLinetypeTableRecord
  2
ACAD_ISO14W100
 70
     0
  3
ISO dash triple-dot __ . . . __ . . . __ . . . 
 72
    65
 73
     8
 40
0.95
 49
0.47
 74
     0
 49
-0.12
 74
     0
 49
0.0
 74
     0
 49
-0.12
 74
     0
 49
0.0
 74
     0
 49
-0.12
 74
     0
 49
0.0
 74
     0
 49
-0.12
 74
     0
  0
LTYPE
  5
B0
330
5
100
AcDbSymbolTableRecord
100
AcDbLinetypeTableRecord
  2
ACAD_ISO15W100
 70
     0
  3
ISO double-dash triple-dot __ __ . . . __ __ . 
 72
    65
 73
    10
 40
1.539999999999999
 49
0.47
 74
     0
 49
-0.12
 74
     0
 49
0.47
 74
     0
 49
-0.12
 74
     0
 49
0.0
 74
     0
 49
-0.12
 74
     0
 49
0.0
 74
     0
 49
-0.12
 74
     0
 49
0.0
 74
     0
 49
-0.12
 74
     0
  0
LTYPE
  5
B3
330
5
100
AcDbSymbolTableRecord
100
AcDbLinetypeTableRecord
  2
FENCELINE1
 70
     0
  3
Fenceline circle ----0-----0----0-----0----0---
 72
    65
 73
     4
 40
1.45
 49
0.25
 74
     0
 49
-0.1
 74
     4
 75
   133
340
B2
 46
0.1
 50
0.0
 44
-0.1
 45
0.0
 49
-0.1
 74
     0
 49
1.0
 74
     0
  0
LTYPE
  5
B4
330
5
100
AcDbSymbolTableRecord
100
AcDbLinetypeTableRecord
  2
FENCELINE2
 70
     0
  3
Fenceline square ----[]-----[]----[]-----[]----
 72
    65
 73
     4
 40
1.45
 49
0.25
 74
     0
 49
-0.1
 74
     4
 75
   132
340
B2
 46
0.1
 50
0.0
 44
-0.1
 45
0.0
 49
-0.1
 74
     0
 49
1.0
 74
     0
  0
LTYPE
  5
B5
330
5
100
AcDbSymbolTableRecord
100
AcDbLinetypeTableRecord
  2
TRACKS
 70
     0
  3
Tracks -|-|-|-|-|-|-|-|-|-|-|-|-|-|-|-|-|-|-|-|
 72
    65
 73
     2
 40
0.3
 49
0.15
 74
     4
 75
   130
340
B2
 46
0.25
 50
0.0
 44
0.0
 45
0.0
 49
0.15
 74
     0
  0
LTYPE
  5
B6
330
5
100
AcDbSymbolTableRecord
100
AcDbLinetypeTableRecord
  2
BATTING
 70
     0
  3
Batting SSSSSSSSSSSSSSSSSSSSSSSSSSSSSSSSSSSSSSS
 72
    65
 73
     4
 40
0.4001000000000001
 49
0.0001
 74
     0
 49
-0.1
 74
     4
 75
   134
340
B2
 46
0.1
 50
0.0
 44
-0.1
 45
0.0
 49
-0.2
 74
     4
 75
   134
340
B2
 46
0.1
 50
180.0
 44
0.1
 45
0.0
 49
-0.1
 74
     0
  0
LTYPE
  5
B7
330
5
100
AcDbSymbolTableRecord
100
AcDbLinetypeTableRecord
  2
HOT_WATER_SUPPLY
 70
     0
  3
Hot water supply ---- HW ---- HW ---- HW ----
 72
    65
 73
     3
 40
0.9
 49
0.5
 74
     0
 49
-0.2
 74
     2
 75
     0
340
55
 46
0.1
 50
0.0
 44
-0.1
 45
-0.05
  9
HW
 49
-0.2
 74
     0
  0
LTYPE
  5
B8
330
5
100
AcDbSymbolTableRecord
100
AcDbLinetypeTableRecord
  2
GAS_LINE
 70
     0
  3
Gas line ----GAS----GAS----GAS----GAS----GAS---
 72
    65
 73
     3
 40
0.95
 49
0.5
 74
     0
 49
-0.2
 74
     2
 75
     0
340
55
 46
0.1
 50
0.0
 44
-0.1
 45
-0.05
  9
GAS
 49
-0.25
 74
     0
  0
LTYPE
  5
B9
330
5
100
AcDbSymbolTableRecord
100
AcDbLinetypeTableRecord
  2
ZIGZAG
 70
     0
  3
Zig zag /\/\/\/\/\/\/\/\/\/\/\/\/\/\/\/\/\/\/\/
 72
    65
 73
     4
 40
0.8001000000000001
 49
0.0001
 74
     0
 49
-0.2
 74
     4
 75
   131
340
B2
 46
0.2
 50
0.0
 44
-0.2
 45
0.0
 49
-0.4
 74
     4
 75
   131
340
B2
 46
0.2
 50
180.0
 44
0.2
 45
0.0
 49
-0.2
 74
     0
  0
ENDTAB
  0
TABLE
  2
LAYER
  5
2
330
0
100
AcDbSymbolTable
 70
     4
  0
LAYER
  5
54
330
2
100
AcDbSymbolTableRecord
100
AcDbLayerTableRecord
  2
0
 70
     0
 62
     7
  6
Continuous
370
    -3
390
F
  0
LAYER
  5
BF
330
2
100
AcDbSymbolTableRecord
100
AcDbLayerTableRecord
  2
Border (ANSI)
 70
     0
 62
     7
  6
Continuous
370
    25
390
F
  0
LAYER
  5
D1
330
2
100
AcDbSymbolTableRecord
100
AcDbLayerTableRecord
  2
Visible (ANSI)
 70
     0
 62
     7
  6
Continuous
370
    18
390
F
  0
LAYER
  5
D2
330
2
100
AcDbSymbolTableRecord
100
AcDbLayerTableRecord
  2
Visible Narrow (ANSI)
 70
     0
 62
     7
  6
Continuous
370
     9
390
F
  0
ENDTAB
  0
TABLE
  2
STYLE
  5
3
330
0
100
AcDbSymbolTable
 70
     5
  0
STYLE
  5
55
330
3
100
AcDbSymbolTableRecord
100
AcDbTextStyleTableRecord
  2
Standard
 70
     0
 40
0.0
 41
0.899999976158142
 50
0.0
 71
     0
 42
0.2
  3
txt
  4

  0
STYLE
  5
5A
330
3
100
AcDbSymbolTableRecord
100
AcDbTextStyleTableRecord
  2
Annotative
 70
     0
 40
0.0
 41
1.0
 50
0.0
 71
     0
 42
0.2
  3
txt
  4

1001
AcadAnnotative
1000
AnnotativeData
1002
{
1070
     1
1070
     1
1002
}
  0
STYLE
  5
B2
330
3
100
AcDbSymbolTableRecord
100
AcDbTextStyleTableRecord
  2

 70
     1
 40
0.0
 41
1.0
 50
0.0
 71
     0
 42
0.2
  3
ltypeshp.shx
  4

  0
STYLE
  5
D6
330
3
100
AcDbSymbolTableRecord
100
AcDbTextStyleTableRecord
  2
Label Text (ANSI)
 70
     0
 40
0.0
 41
0.899999976158142
 50
0.0
 71
     0
 42
0.2
  3
Txt.shx
  4

  0
STYLE
  5
D7
330
3
100
AcDbSymbolTableRecord
100
AcDbTextStyleTableRecord
  2
Note Text (ANSI)
 70
     0
 40
0.0
 41
0.899999976158142
 50
0.0
 71
     0
 42
0.2
  3
Txt.shx
  4

  0
ENDTAB
  0
TABLE
  2
VIEW
  5
6
330
0
100
AcDbSymbolTable
 70
     0
  0
ENDTAB
  0
TABLE
  2
UCS
  5
7
330
0
100
AcDbSymbolTable
 70
     0
  0
ENDTAB
  0
TABLE
  2
APPID
  5
9
330
0
100
AcDbSymbolTable
 70
     4
  0
APPID
  5
56
330
9
100
AcDbSymbolTableRecord
100
AcDbRegAppTableRecord
  2
ACAD
 70
     0
  0
APPID
  5
5E
330
9
100
AcDbSymbolTableRecord
100
AcDbRegAppTableRecord
  2
AcadAnnotative
 70
     0
  0
APPID
  5
270
330
9
100
AcDbSymbolTableRecord
100
AcDbRegAppTableRecord
  2
ACAD_MLEADERVER
 70
     0
  0
APPID
  5
287
330
9
100
AcDbSymbolTableRecord
100
AcDbRegAppTableRecord
  2
ACAD_NAV_VCDISPLAY
 70
     0
  0
ENDTAB
  0
TABLE
  2
DIMSTYLE
  5
A
330
0
100
AcDbSymbolTable
 70
    21
100
AcDbDimStyleTable
 71
     0
  0
DIMSTYLE
105
58
330
A
100
AcDbSymbolTableRecord
100
AcDbDimStyleTableRecord
  2
Standard
 70
     0
340
55
  0
DIMSTYLE
105
59
330
A
100
AcDbSymbolTableRecord
100
AcDbDimStyleTableRecord
  2
Annotative
 70
     0
340
55
1001
AcadAnnotative
1000
AnnotativeData
1002
{
1070
     1
1070
     1
1002
}
  0
DIMSTYLE
105
D8
330
A
100
AcDbSymbolTableRecord
100
AcDbDimStyleTableRecord
  2
Architectural (ANSI)
 70
     0
 41
0.0984251946210861
 43
0.2362204724409449
 44
0.125
 45
0.00000001
 46
0.3937007874015748
 78
     3
 79
     3
140
0.0799999982118607
146
1.500000119209289
147
0.031496062992126
171
     1
176
   256
177
   256
178
     5
272
     2
274
     1
276
     2
277
     4
284
    12
285
     4
286
    12
340
D7
371
    -1
372
    -1
  0
DIMSTYLE
105
D9
330
A
100
AcDbSymbolTableRecord
100
AcDbDimStyleTableRecord
  2
Architectural (ANSI)$7
 70
     0
 41
0.0984251946210861
 43
0.2362204724409449
 44
0.125
 45
0.00000001
 46
0.3937007874015748
 78
     3
 79
     3
140
0.0799999982118607
146
1.500000119209289
147
0.031496062992126
171
     1
176
     5
177
   256
178
     5
272
     2
274
     1
276
     2
277
     4
284
    12
285
     4
286
    12
340
D7
371
    -1
372
    -1
  0
DIMSTYLE
105
DA
330
A
100
AcDbSymbolTableRecord
100
AcDbDimStyleTableRecord
  2
Default - Fraction (ANSI)
 70
     0
 41
0.0984251946210861
 43
0.2362204724409449
 44
0.125
 45
0.00000001
 46
0.3937007874015748
 79
     3
140
0.0799999982118607
146
1.500000119209289
147
0.031496062992126
171
     1
176
   256
177
   256
178
     5
272
     2
274
     1
276
     2
277
     5
284
    12
285
     4
286
    12
340
D7
371
    -1
372
    -1
  0
DIMSTYLE
105
DB
330
A
100
AcDbSymbolTableRecord
100
AcDbDimStyleTableRecord
  2
Default - Fraction (ANSI)$7
 70
     0
 41
0.0984251946210861
 43
0.2362204724409449
 44
0.125
 45
0.00000001
 46
0.3937007874015748
 79
     3
140
0.0799999982118607
146
1.500000119209289
147
0.031496062992126
171
     1
176
     5
177
   256
178
     5
272
     2
274
     1
276
     2
277
     5
284
    12
285
     4
286
    12
340
D7
371
    -1
372
    -1
  0
DIMSTYLE
105
DC
330
A
100
AcDbSymbolTableRecord
100
AcDbDimStyleTableRecord
  2
Default - mm (ANSI)
 70
     0
 41
0.0984251946210861
 42
0.063
 43
0.2362204724409449
 44
0.125
 45
0.00000001
 46
0.3937007874015748
 73
     0
 78
     4
 79
     1
140
0.0799999982118607
143
1.0
144
25.4
146
1.500000119209289
147
0.031496062992126
171
     1
176
   256
177
   256
178
     5
179
     1
271
     2
272
     2
274
     1
284
     4
285
     4
340
D7
371
    -1
372
    -1
  0
DIMSTYLE
105
DD
330
A
100
AcDbSymbolTableRecord
100
AcDbDimStyleTableRecord
  2
Default - mm (ANSI)$7
 70
     0
 41
0.0984251946210861
 42
0.063
 43
0.2362204724409449
 44
0.125
 45
0.00000001
 46
0.3937007874015748
 73
     0
 78
     4
 79
     1
140
0.0799999982118607
143
1.0
144
25.4
146
1.500000119209289
147
0.031496062992126
171
     1
176
     5
177
   256
178
     5
179
     1
271
     2
272
     2
274
     1
284
     4
285
     4
340
D7
371
    -1
372
    -1
  0
DIMSTYLE
105
DE
330
A
100
AcDbSymbolTableRecord
100
AcDbDimStyleTableRecord
  2
Default - mm [in] (ANSI)
 70
     0
  4
 in
 41
0.0984251946210861
 42
0.063
 43
0.25
 44
0.125
 45
0.00000001
 46
0.3937007874015748
 73
     0
 78
     4
 79
     1
140
0.0799999982118607
143
0.03937
144
25.4
146
1.500000119209289
147
0.031496062992126
170
     1
171
     3
176
   256
177
   256
178
     5
179
     1
271
     2
272
     2
274
     3
284
     4
285
     4
286
     4
340
D7
371
    -1
372
    -1
  0
DIMSTYLE
105
DF
330
A
100
AcDbSymbolTableRecord
100
AcDbDimStyleTableRecord
  2
Default - mm [in] (ANSI)$7
 70
     0
  4
 in
 41
0.0984251946210861
 42
0.063
 43
0.25
 44
0.125
 45
0.00000001
 46
0.3937007874015748
 73
     0
 78
     4
 79
     1
140
0.0799999982118607
143
0.03937
144
25.4
146
1.500000119209289
147
0.031496062992126
170
     1
171
     3
176
     5
177
   256
178
     5
179
     1
271
     2
272
     2
274
     3
284
     4
285
     4
286
     4
340
D7
371
    -1
372
    -1
  0
DIMSTYLE
105
E0
330
A
100
AcDbSymbolTableRecord
100
AcDbDimStyleTableRecord
  2
Default (ANSI)
 70
     0
 41
0.0984251946210861
 43
0.2362204724409449
 44
0.125
 45
0.00000001
 46
0.3937007874015748
 78
     4
 79
     1
140
0.0799999982118607
146
1.500000119209289
147
0.031496062992126
171
     1
176
   256
177
   256
178
     5
271
     2
272
     2
274
     1
284
     4
285
     4
340
D7
371
    -1
372
    -1
  0
DIMSTYLE
105
E1
330
A
100
AcDbSymbolTableRecord
100
AcDbDimStyleTableRecord
  2
Default (ANSI)$7
 70
     0
 41
0.0984251946210861
 43
0.2362204724409449
 44
0.125
 45
0.00000001
 46
0.3937007874015748
 78
     4
 79
     1
140
0.0799999982118607
146
1.500000119209289
147
0.031496062992126
171
     1
176
     5
177
   256
178
     5
271
     2
272
     2
274
     1
284
     4
285
     4
340
D7
371
    -1
372
    -1
  0
DIMSTYLE
105
E2
330
A
100
AcDbSymbolTableRecord
100
AcDbDimStyleTableRecord
  2
SST-STANDARD DIMEN
 70
     0
 41
0.0984251946210861
 43
0.2362204724409449
 44
0.062
 45
0.00000001
 46
0.3937007874015748
140
0.0799999982118607
147
0.031496062992126
171
     1
176
     5
177
     5
178
     5
271
     3
272
     3
274
     1
286
    12
340
D7
371
     9
372
     9
  0
DIMSTYLE
105
E3
330
A
100
AcDbSymbolTableRecord
100
AcDbDimStyleTableRecord
  2
SST-STANDARD DIMEN$7
 70
     0
 41
0.0984251946210861
 43
0.2362204724409449
 44
0.062
 45
0.00000001
 46
0.3937007874015748
140
0.0799999982118607
147
0.031496062992126
171
     1
176
     5
177
     5
178
     5
271
     3
272
     3
274
     1
286
    12
340
D7
371
    -1
372
     9
  0
DIMSTYLE
105
E4
330
A
100
AcDbSymbolTableRecord
100
AcDbDimStyleTableRecord
  2
SST-STANDARD DIMENSION-METRIC
 70
     0
 41
0.0984251946210861
 43
0.2362204724409449
 44
0.062
 45
0.00000001
 46
0.3937007874015748
140
0.0799999982118607
143
0.03937
144
25.4
147
0.031496062992126
171
     3
176
     5
177
     5
178
     5
271
     1
272
     1
274
     3
286
    12
340
D7
371
    25
372
    25
  0
DIMSTYLE
105
E5
330
A
100
AcDbSymbolTableRecord
100
AcDbDimStyleTableRecord
  2
SST-STANDARD DIMENSION-METRIC$7
 70
     0
 41
0.0984251946210861
 43
0.2362204724409449
 44
0.062
 45
0.00000001
 46
0.3937007874015748
140
0.0799999982118607
143
0.03937
144
25.4
147
0.031496062992126
171
     3
176
     5
177
     5
178
     5
271
     1
272
     1
274
     3
286
    12
340
D7
371
    -1
372
    25
  0
DIMSTYLE
105
E6
330
A
100
AcDbSymbolTableRecord
100
AcDbDimStyleTableRecord
  2
SST-STANDARD DIMENSIONS-FRACTION
 70
     0
 41
0.0984251946210861
 43
0.2362204724409449
 44
0.062
 45
0.00000001
 46
0.3937007874015748
 78
     1
140
0.0799999982118607
147
0.031496062992126
171
     1
176
     5
177
     5
178
     5
271
     5
272
     3
274
     1
276
     2
277
     5
286
    12
340
D7
371
     9
372
     9
  0
DIMSTYLE
105
E7
330
A
100
AcDbSymbolTableRecord
100
AcDbDimStyleTableRecord
  2
SST-STANDARD DIMENSIONS-FRACTION$7
 70
     0
 41
0.0984251946210861
 43
0.2362204724409449
 44
0.062
 45
0.00000001
 46
0.3937007874015748
 78
     1
140
0.0799999982118607
147
0.031496062992126
171
     1
176
     5
177
     5
178
     5
271
     5
272
     3
274
     1
276
     2
277
     5
286
    12
340
D7
371
    -1
372
     9
  0
DIMSTYLE
105
E8
330
A
100
AcDbSymbolTableRecord
100
AcDbDimStyleTableRecord
  2
Alternate (ANSI)
 70
     0
 41
0.0979999974370003
340
55
342
E9
  0
DIMSTYLE
105
FB
330
A
100
AcDbSymbolTableRecord
100
AcDbDimStyleTableRecord
  2
Datum (ANSI)
 70
     0
 41
0.0979999974370003
340
55
342
E9
  0
DIMSTYLE
105
10A
330
A
100
AcDbSymbolTableRecord
100
AcDbDimStyleTableRecord
  2
Large (ANSI)
 70
     0
 41
0.1959999948740005
340
55
342
E9
  0
ENDTAB
  0
TABLE
  2
BLOCK_RECORD
  5
1
330
0
100
AcDbSymbolTable
 70
     5
  0
BLOCK_RECORD
  5
6C
330
1
100
AcDbSymbolTableRecord
100
AcDbBlockTableRecord
  2
*Model_Space
340
6F
  0
BLOCK_RECORD
  5
68
330
1
100
AcDbSymbolTableRecord
100
AcDbBlockTableRecord
  2
*Paper_Space
340
6B
  0
BLOCK_RECORD
  5
70
330
1
100
AcDbSymbolTableRecord
100
AcDbBlockTableRecord
  2
*Paper_Space0
340
73
  0
BLOCK_RECORD
  5
E9
330
1
100
AcDbSymbolTableRecord
100
AcDbBlockTableRecord
  2
_Closed
340
0
  0
BLOCK_RECORD
  5
F0
330
1
100
AcDbSymbolTableRecord
100
AcDbBlockTableRecord
  2
DatumFilled45
340
0
  0
BLOCK_RECORD
  5
FC
330
1
100
AcDbSymbolTableRecord
100
AcDbBlockTableRecord
  2
Filled-1
340
0
  0
BLOCK_RECORD
  5
10B
330
1
100
AcDbSymbolTableRecord
100
AcDbBlockTableRecord
  2
Borders SST-LAND
340
0
102
{BLKREFS
331
112
102
}
  0
ENDTAB
  0
ENDSEC
  0
SECTION
  2
BLOCKS
  0
BLOCK
  5
6D
330
6C
100
AcDbEntity
  8
0
100
AcDbBlockBegin
  2
*Model_Space
 70
     0
 10
0.0
 20
0.0
 30
0.0
  3
*Model_Space
  1

  0
ENDBLK
  5
6E
330
6C
100
AcDbEntity
  8
0
100
AcDbBlockEnd
  0
BLOCK
  5
69
330
68
100
AcDbEntity
 67
     1
  8
0
100
AcDbBlockBegin
  2
*Paper_Space
 70
     0
 10
0.0
 20
0.0
 30
0.0
  3
*Paper_Space
  1

  0
ENDBLK
  5
6A
330
68
100
AcDbEntity
 67
     1
  8
0
100
AcDbBlockEnd
  0
BLOCK
  5
71
330
70
100
AcDbEntity
 67
     1
  8
0
100
AcDbBlockBegin
  2
*Paper_Space0
 70
     0
 10
0.0
 20
0.0
 30
0.0
  3
*Paper_Space0
  1

  0
ENDBLK
  5
72
330
70
100
AcDbEntity
 67
     1
  8
0
100
AcDbBlockEnd
  0
BLOCK
  5
EE
330
E9
100
AcDbEntity
  8
0
100
AcDbBlockBegin
  2
_Closed
 70
     0
 10
0.0
 20
0.0
 30
0.0
  3
_Closed
  1

  0
LINE
  5
EA
330
E9
100
AcDbEntity
  8
0
  6
ByBlock
 62
     0
370
    -2
100
AcDbLine
 10
-1.0
 20
0.1666666666666666
 30
0.0
 11
0.0
 21
0.0
 31
0.0
  0
LINE
  5
EB
330
E9
100
AcDbEntity
  8
0
  6
ByBlock
 62
     0
370
    -2
100
AcDbLine
 10
0.0
 20
0.0
 30
0.0
 11
-1.0
 21
-0.1666666666666666
 31
0.0
  0
LINE
  5
EC
330
E9
100
AcDbEntity
  8
0
  6
ByBlock
 62
     0
370
    -2
100
AcDbLine
 10
-1.0
 20
0.1666666666666666
 30
0.0
 11
-1.0
 21
-0.1666666666666666
 31
0.0
  0
LINE
  5
ED
330
E9
100
AcDbEntity
  8
0
  6
ByBlock
 62
     0
370
    -2
100
AcDbLine
 10
0.0
 20
0.0
 30
0.0
 11
-1.0
 21
0.0
 31
0.0
  0
ENDBLK
  5
EF
330
E9
100
AcDbEntity
  8
0
100
AcDbBlockEnd
  0
BLOCK
  5
F1
330
F0
100
AcDbEntity
  8
0
100
AcDbBlockBegin
  2
DatumFilled45
 70
     0
 10
0.0
 20
0.0
 30
0.0
  3
DatumFilled45
  1

  0
POLYLINE
  5
F3
330
F0
100
AcDbEntity
  8
0
 62
     0
100
AcDb2dPolyline
 66
     1
 10
0.0
 20
0.0
 30
0.0
 70
   128
  0
VERTEX
  5
F4
330
F3
100
AcDbEntity
  8
0
 62
     0
100
AcDbVertex
100
AcDb2dVertex
 10
0.0
 20
0.9999999999999998
 30
0.0
  0
VERTEX
  5
F5
330
F3
100
AcDbEntity
  8
0
 62
     0
100
AcDbVertex
100
AcDb2dVertex
 10
0.0
 20
-0.9999999999999998
 30
0.0
  0
VERTEX
  5
F7
330
F3
100
AcDbEntity
  8
0
 62
     0
100
AcDbVertex
100
AcDb2dVertex
 10
-0.9999999999999998
 20
0.0
 30
0.0
  0
VERTEX
  5
F8
330
F3
100
AcDbEntity
  8
0
 62
     0
100
AcDbVertex
100
AcDb2dVertex
 10
0.0
 20
0.9999999999999998
 30
0.0
  0
SEQEND
  5
F6
330
F3
100
AcDbEntity
  8
0
 62
     0
  0
SOLID
  5
FA
330
F0
100
AcDbEntity
  8
0
 62
     0
100
AcDbTrace
 10
0.0
 20
0.9999999999999998
 30
0.0
 11
0.0
 21
-0.9999999999999998
 31
0.0
 12
-0.9999999999999998
 22
0.0
 32
0.0
 13
0.0
 23
0.9999999999999998
 33
0.0
  0
ENDBLK
  5
F2
330
F0
100
AcDbEntity
  8
0
100
AcDbBlockEnd
  0
BLOCK
  5
FD
330
FC
100
AcDbEntity
  8
0
100
AcDbBlockBegin
  2
Filled-1
 70
     0
 10
0.0
 20
0.0
 30
0.0
  3
Filled-1
  1

  0
LINE
  5
FF
330
FC
100
AcDbEntity
  8
0
 62
     0
100
AcDbLine
 10
-0.9999999999999998
 20
0.0
 30
0.0
 11
0.0
 21
0.0
 31
0.0
  0
POLYLINE
  5
100
330
FC
100
AcDbEntity
  8
0
 62
     0
100
AcDb2dPolyline
 66
     1
 10
0.0
 20
0.0
 30
0.0
 70
   128
  0
VERTEX
  5
101
330
100
100
AcDbEntity
  8
0
 62
     0
100
AcDbVertex
100
AcDb2dVertex
 10
-0.9999999999999998
 20
-0.0994897959183674
 30
0.0
  0
VERTEX
  5
102
330
100
100
AcDbEntity
  8
0
 62
     0
100
AcDbVertex
100
AcDb2dVertex
 10
0.0
 20
0.0
 30
0.0
  0
VERTEX
  5
104
330
100
100
AcDbEntity
  8
0
 62
     0
100
AcDbVertex
100
AcDb2dVertex
 10
-0.9999999999999998
 20
0.0994897959183674
 30
0.0
  0
VERTEX
  5
105
330
100
100
AcDbEntity
  8
0
 62
     0
100
AcDbVertex
100
AcDb2dVertex
 10
-0.9999999999999998
 20
-0.0994897959183674
 30
0.0
  0
SEQEND
  5
103
330
100
100
AcDbEntity
  8
0
 62
     0
  0
SOLID
  5
106
330
FC
100
AcDbEntity
  8
0
 62
     0
100
AcDbTrace
 10
-0.9999999999999998
 20
-0.0994897959183674
 30
0.0
 11
0.0
 21
0.0
 31
0.0
 12
-0.9999999999999998
 22
0.0994897959183674
 32
0.0
 13
-0.9999999999999998
 23
-0.0994897959183674
 33
0.0
  0
LINE
  5
107
330
FC
100
AcDbEntity
  8
0
 62
     0
100
AcDbLine
 10
-0.9999999999999998
 20
-0.0994897959183674
 30
0.0
 11
0.0
 21
0.0
 31
0.0
  0
LINE
  5
108
330
FC
100
AcDbEntity
  8
0
 62
     0
100
AcDbLine
 10
0.0
 20
0.0
 30
0.0
 11
-0.9999999999999998
 21
0.0994897959183674
 31
0.0
  0
LINE
  5
109
330
FC
100
AcDbEntity
  8
0
 62
     0
100
AcDbLine
 10
-0.9999999999999998
 20
0.0994897959183674
 30
0.0
 11
-0.9999999999999998
 21
-0.0994897959183674
 31
0.0
  0
ENDBLK
  5
FE
330
FC
100
AcDbEntity
  8
0
100
AcDbBlockEnd
  0
BLOCK
  5
10C
330
10B
100
AcDbEntity
  8
0
100
AcDbBlockBegin
  2
Borders SST-LAND
 70
     0
 10
0.0
 20
0.0
 30
0.0
  3
Borders SST-LAND
  1

  0
LINE
  5
10E
330
10B
100
AcDbEntity
  8
Border (ANSI)
 62
     7
370
    50
100
AcDbLine
 10
0.4999999999999999
 20
16.49999999999999
 30
0.0
 11
0.500000000000005
 21
0.4999999999999984
 31
0.0
  0
LINE
  5
10F
330
10B
100
AcDbEntity
  8
Border (ANSI)
 62
     7
370
    50
100
AcDbLine
 10
21.5
 20
16.49999999999999
 30
0.0
 11
0.4999999999999984
 21
16.49999999999999
 31
0.0
  0
LINE
  5
110
330
10B
100
AcDbEntity
  8
Border (ANSI)
 62
     7
370
    50
100
AcDbLine
 10
21.5
 20
0.4999999999999999
 30
0.0
 11
21.5
 21
16.49999999999999
 31
0.0
  0
LINE
  5
111
330
10B
100
AcDbEntity
  8
Border (ANSI)
 62
     7
370
    50
100
AcDbLine
 10
0.500000000000005
 20
0.4999999999999999
 30
0.0
 11
21.5
 21
0.4999999999999999
 31
0.0
  0
ENDBLK
  5
10D
330
10B
100
AcDbEntity
  8
0
100
AcDbBlockEnd
  0
ENDSEC
  0
SECTION
  2
ENTITIES
  0
INSERT
  5
112
330
6C
100
AcDbEntity
  8
0
100
AcDbBlockReference
  2
Borders SST-LAND
 10
0.0
 20
0.0
 30
0.0
  0
SPLINE
  5
113
330
6C
100
AcDbEntity
  8
Visible (ANSI)
100
AcDbSpline
210
0.0
220
0.0
230
1.0
 70
     8
 71
     3
 72
    10
 73
     6
 74
     0
 42
0.0000000001
 43
0.0000000001
 40
0.3060993977342995
 40
0.3060993977342995
 40
0.3060993977342995
 40
0.3060993977342995
 40
0.3333273999955239
 40
0.3333273999955239
 40
0.3940483701708973
 40
0.3940483701708973
 40
0.3940483701708973
 40
0.3940483701708973
 10
9.929033801065774
 20
12.29052575933889
 30
0.0
 10
9.93239420742225
 20
12.29052575933889
 30
0.0
 10
9.935577456244466
 20
12.29071448302156
 30
0.0
 10
9.944907164903884
 20
12.29184590131882
 30
0.0
 10
9.950910392059938
 20
12.29362275830475
 30
0.0
 10
9.955219875347857
 20
12.29625053868319
 30
0.0
  0
LINE
  5
114
330
6C
100
AcDbEntity
  8
Visible Narrow (ANSI)
100
AcDbLine
 10
9.955219875347903
 20
12.29625053868321
 30
0.0
 11
9.810432196077757
 21
12.45540154866659
 31
0.0
  0
LINE
  5
115
330
6C
100
AcDbEntity
  8
Visible Narrow (ANSI)
100
AcDbLine
 10
9.810432196077757
 20
12.45540154866659
 30
0.0
 11
9.745611452479028
 21
12.39643085765304
 31
0.0
  0
LINE
  5
116
330
6C
100
AcDbEntity
  8
Visible Narrow (ANSI)
100
AcDbLine
 10
9.74561145247903
 20
12.39643085765304
 30
0.0
 11
9.841958647569928
 21
12.29052575933889
 31
0.0
  0
LINE
  5
117
330
6C
100
AcDbEntity
  8
Visible Narrow (ANSI)
100
AcDbLine
 10
9.810432196077726
 20
12.65189997001092
 30
0.0
 11
9.745611452478968
 21
12.7108706610244
 31
0.0
  0
SPLINE
  5
118
330
6C
100
AcDbEntity
  8
Visible Narrow (ANSI)
100
AcDbSpline
210
0.0
220
0.0
230
1.0
 70
     8
 71
     3
 72
    16
 73
    12
 74
     0
 42
0.0000000001
 43
0.0000000001
 40
-0.8744419443592947
 40
-0.8744419443592947
 40
-0.8744419443592947
 40
-0.8744419443592947
 40
-0.7184483258594419
 40
-0.7184483258594419
 40
-0.5069786961272288
 40
-0.5069786961272288
 40
-0.314768747747086
 40
-0.314768747747086
 40
-0.1210649029796484
 40
-0.1210649029796484
 40
0.0
 40
0.0
 40
0.0
 40
0.0
 10
9.745611452478968
 20
12.71087066102441
 30
0.0
 10
9.73183529574695
 20
12.69572787215835
 30
0.0
 10
9.719725074204511
 20
12.67874361704786
 30
0.0
 10
9.696967051823975
 20
12.635954677693
 30
0.0
 10
9.688268316583656
 20
12.60896281975273
 30
0.0
 10
9.681681250780314
 20
12.5561443905482
 30
0.0
 10
9.682867137811856
 20
12.53044421108935
 30
0.0
 10
9.693829284466678
 20
12.48054567569893
 30
0.0
 10
9.703533231393103
 20
12.45670864035638
 30
0.0
 10
9.725204166946788
 20
12.42105812637706
 30
0.0
 10
9.734919931285782
 20
12.40818300676368
 30
0.0
 10
9.745611452478977
 20
12.39643085765309
 30
0.0
  0
SPLINE
  5
119
330
6C
100
AcDbEntity
  8
Visible Narrow (ANSI)
100
AcDbSpline
210
0.0
220
0.0
230
1.0
 70
     8
 71
     3
 72
    16
 73
    12
 74
     0
 42
0.0000000001
 43
0.0000000001
 40
0.0
 40
0.0
 40
0.0
 40
0.0
 40
0.1210649029796484
 40
0.1210649029796484
 40
0.314768747747086
 40
0.314768747747086
 40
0.5069786961272288
 40
0.5069786961272288
 40
0.7184483258594419
 40
0.7184483258594419
 40
0.8744419443592947
 40
0.8744419443592947
 40
0.8744419443592947
 40
0.8744419443592947
 10
9.810432196077734
 20
12.45540154866658
 30
0.0
 10
9.802076260808687
 20
12.46201913300473
 30
0.0
 10
9.794363602114209
 20
12.46953394594681
 30
0.0
 10
9.776985331807383
 20
12.49106086826
 30
0.0
 10
9.769018058135054
 20
12.50612994398967
 30
0.0
 10
9.759993210165058
 20
12.53839172080888
 30
0.0
 10
9.75900386717878
 20
12.55532446511027
 30
0.0
 10
9.764444379939025
 20
12.58975560852047
 30
0.0
 10
9.771637036864136
 20
12.60709327635541
 30
0.0
 10
9.790001272503122
 20
12.63336008814763
 30
0.0
 10
9.799665470573573
 20
12.6433731310904
 30
0.0
 10
9.810432196077726
 20
12.65189997001092
 30
0.0
  0
LINE
  5
11A
330
6C
100
AcDbEntity
  8
Visible Narrow (ANSI)
100
AcDbLine
 10
9.841958647570013
 20
12.81677575933889
 30
0.0
 11
9.745611452478968
 21
12.71087066102441
 31
0.0
  0
LINE
  5
11B
330
6C
100
AcDbEntity
  8
Visible Narrow (ANSI)
100
AcDbLine
 10
9.810432196077726
 20
12.65189997001092
 30
0.0
 11
9.955219875347889
 21
12.81105097999458
 31
0.0
  0
SPLINE
  5
11C
330
6C
100
AcDbEntity
  8
Visible (ANSI)
100
AcDbSpline
210
0.0
220
0.0
230
1.0
 70
     8
 71
     3
 72
    12
 73
     8
 74
     0
 42
0.0000000001
 43
0.0000000001
 40
2.646039954443491
 40
2.646039954443491
 40
2.646039954443491
 40
2.646039954443491
 40
2.650787710715309
 40
2.650787710715309
 40
2.72245992358417
 40
2.72245992358417
 40
2.734803955068902
 40
2.734803955068902
 40
2.734803955068902
 40
2.734803955068902
 10
9.955219875347889
 20
12.81105097999458
 30
0.0
 10
9.954886091738631
 20
12.81125451020004
 30
0.0
 10
9.954542777378234
 20
12.81145339441793
 30
0.0
 10
9.94886718738831
 20
12.81457616041532
 30
0.0
 10
9.941247279055536
 20
12.81628408242541
 30
0.0
 10
9.93184456960696
 20
12.81674316166747
 30
0.0
 10
9.930446327683574
 20
12.81677575933889
 30
0.0
 10
9.929033801065781
 20
12.81677575933889
 30
0.0
  0
LINE
  5
11D
330
6C
100
AcDbEntity
  8
Visible Narrow (ANSI)
100
AcDbLine
 10
9.935250839177909
 20
12.65189997001092
 30
0.0
 11
9.810432196077726
 21
12.65189997001092
 31
0.0
  0
LINE
  5
11E
330
6C
100
AcDbEntity
  8
Visible (ANSI)
100
AcDbLine
 10
9.935250839177909
 20
12.65189997001092
 30
0.0
 11
9.960667347263584
 21
12.70777575933889
 31
0.0
  0
ELLIPSE
  5
11F
330
6C
100
AcDbEntity
  8
Visible (ANSI)
100
AcDbEllipse
 10
9.88359270811425
 20
12.70777575933889
 30
0.0
 11
0.0740519643486462
 21
0.1016568816578542
 31
0.0
210
0.0
220
0.0
230
1.0
 40
0.5311185938607067
 41
5.081545742835125
 42
6.326804968371629
  0
LINE
  5
120
330
6C
100
AcDbEntity
  8
Visible Narrow (ANSI)
100
AcDbLine
 10
9.935250839177909
 20
12.45540154866659
 30
0.0
 11
9.810432196077757
 21
12.45540154866659
 31
0.0
  0
ELLIPSE
  5
121
330
6C
100
AcDbEntity
  8
Visible (ANSI)
100
AcDbEllipse
 10
9.98924873867941
 20
12.55365075933875
 30
0.0
 11
-0.0000000000000001
 21
-0.146
 31
0.0
210
0.0
220
0.0
230
1.0
 40
0.4999999999999999
 41
3.974213014087625
 42
5.450564946681755
  0
ELLIPSE
  5
122
330
6C
100
AcDbEntity
  8
Visible (ANSI)
100
AcDbEllipse
 10
9.88359270811417
 20
12.39952575933889
 30
0.0
 11
0.0740519643487298
 21
-0.1016568816578477
 31
0.0
210
0.0
220
0.0
230
0.9999999999999998
 40
0.5311185938603357
 41
6.239565645987694
 42
7.484824871523882
  0
LINE
  5
123
330
6C
100
AcDbEntity
  8
Visible (ANSI)
100
AcDbLine
 10
9.960667347263504
 20
12.39952575933889
 30
0.0
 11
9.935250839177909
 21
12.45540154866659
 31
0.0
  0
LINE
  5
124
330
6C
100
AcDbEntity
  8
Visible (ANSI)
100
AcDbLine
 10
9.954482967767511
 20
12.49039441822101
 30
0.0
 11
9.995816862661756
 21
12.39952575933889
 31
0.0
  0
ELLIPSE
  5
125
330
6C
100
AcDbEntity
  8
Visible (ANSI)
100
AcDbEllipse
 10
9.918742223512424
 20
12.39952575933889
 30
0.0
 11
0.0740519643487298
 21
-0.1016568816578477
 31
0.0
210
0.0
220
0.0
230
0.9999999999999998
 40
0.5311185938603358
 41
0.3460492502436923
 42
1.201639564344295
  0
ELLIPSE
  5
126
330
6C
100
AcDbEntity
  8
Visible (ANSI)
100
AcDbEllipse
 10
9.918742223512479
 20
12.70777575933889
 30
0.0
 11
0.0740519643486463
 21
0.1016568816578541
 31
0.0
210
0.0
220
0.0
230
1.0
 40
0.5311185938607065
 41
5.081545742835125
 42
5.937136056935454
  0
LINE
  5
127
330
6C
100
AcDbEntity
  8
Visible (ANSI)
100
AcDbLine
 10
9.995816862661813
 20
12.70777575933889
 30
0.0
 11
9.954482967767486
 21
12.61690710045645
 31
0.0
  0
ELLIPSE
  5
128
330
6C
100
AcDbEntity
  8
Visible (ANSI)
100
AcDbEllipse
 10
9.950099460380668
 20
12.39952575933889
 30
0.0
 11
0.1541492782986673
 21
-0.0000000000000001
 31
0.0
210
0.0
220
0.0
230
1.0
 40
0.7071067811865479
 41
4.712388980384689
 42
4.791285825611289
  0
LINE
  5
129
330
6C
100
AcDbEntity
  8
Visible Narrow (ANSI)
100
AcDbLine
 10
9.995816862661756
 20
12.39952575933889
 30
0.0
 11
9.960667347263504
 21
12.39952575933889
 31
0.0
  0
ELLIPSE
  5
12A
330
6C
100
AcDbEntity
  8
Visible (ANSI)
100
AcDbEllipse
 10
9.98924873867941
 20
12.55365075933875
 30
0.0
 11
0.0
 21
-0.094
 31
0.0
210
0.0
220
0.0
230
1.0
 40
0.4999999999999999
 41
3.974213014087608
 42
5.45056494668255
  0
LINE
  5
12B
330
6C
100
AcDbEntity
  8
Visible Narrow (ANSI)
100
AcDbLine
 10
9.960667347263584
 20
12.70777575933889
 30
0.0
 11
9.995816862661813
 21
12.70777575933889
 31
0.0
  0
ELLIPSE
  5
12C
330
6C
100
AcDbEntity
  8
Visible (ANSI)
100
AcDbEllipse
 10
9.950099460380668
 20
12.70777575933889
 30
0.0
 11
0.1541492782986673
 21
-0.0000000000000001
 31
0.0
210
0.0
220
0.0
230
1.0
 40
0.7071067811865479
 41
1.491899481568305
 42
1.570796326794896
  0
LINE
  5
12D
330
6C
100
AcDbEntity
  8
Visible (ANSI)
100
AcDbLine
 10
9.841958647569928
 20
12.29052575933889
 30
0.0
 11
9.929033801065774
 21
12.29052575933889
 31
0.0
  0
LINE
  5
12E
330
6C
100
AcDbEntity
  8
Visible (ANSI)
100
AcDbLine
 10
9.929033801065781
 20
12.81677575933889
 30
0.0
 11
9.841958647570013
 21
12.81677575933889
 31
0.0
  0
LINE
  5
12F
330
6C
100
AcDbEntity
  8
Visible (ANSI)
100
AcDbLine
 10
9.929033801065774
 20
12.29052575933889
 30
0.0
 11
9.950099460380668
 21
12.29052575933889
 31
0.0
  0
ELLIPSE
  5
130
330
6C
100
AcDbEntity
  8
Visible (ANSI)
100
AcDbEllipse
 10
9.956174099530077
 20
12.39952575933888
 30
0.0
 11
0.0000000000000015
 21
-0.1089999999999929
 31
0.0
210
0.0
220
0.0
230
1.0
 40
0.7071067811865519
 41
0.0788968452265674
 42
0.715206012694304
  0
ELLIPSE
  5
131
330
6C
100
AcDbEntity
  8
Visible (ANSI)
100
AcDbEllipse
 10
9.95617409953008
 20
12.7077757593389
 30
0.0
 11
0.0
 21
0.108999999999987
 31
0.0
210
0.0
220
0.0
230
0.9999999999999998
 40
0.7071067811865478
 41
5.567979294484884
 42
6.204288461953011
  0
LINE
  5
132
330
6C
100
AcDbEntity
  8
Visible (ANSI)
100
AcDbLine
 10
9.929033801065781
 20
12.81677575933889
 30
0.0
 11
9.950099460380668
 21
12.81677575933889
 31
0.0
  0
LINE
  5
133
330
6C
100
AcDbEntity
  8
Visible (ANSI)
100
AcDbLine
 10
9.841958647569889
 20
9.790525759338891
 30
0.0
 11
9.929033801065786
 21
9.790525759338891
 31
0.0
  0
LINE
  5
134
330
6C
100
AcDbEntity
  8
Visible (ANSI)
100
AcDbLine
 10
9.929033801065795
 20
10.31677575933889
 30
0.0
 11
9.841958647569974
 21
10.31677575933889
 31
0.0
  0
LINE
  5
135
330
6C
100
AcDbEntity
  8
Visible (ANSI)
100
AcDbLine
 10
9.929033801065786
 20
9.790525759338891
 30
0.0
 11
9.950099460380711
 21
9.790525759338891
 31
0.0
  0
ELLIPSE
  5
136
330
6C
100
AcDbEntity
  8
Visible (ANSI)
100
AcDbEllipse
 10
9.956174099530077
 20
9.899525759338883
 30
0.0
 11
-0.0000000000000004
 21
-0.108999999999996
 31
0.0
210
0.0
220
0.0
230
1.0
 40
0.7071067811865499
 41
0.0788968452260444
 42
0.7152060126943383
  0
ELLIPSE
  5
137
330
6C
100
AcDbEntity
  8
Visible (ANSI)
100
AcDbEllipse
 10
9.956174099530077
 20
10.20777575933889
 30
0.0
 11
0.0
 21
0.109000000000001
 31
0.0
210
0.0
220
0.0
230
1.0
 40
0.7071067811865478
 41
5.567979294484949
 42
6.204288461953532
  0
LINE
  5
138
330
6C
100
AcDbEntity
  8
Visible (ANSI)
100
AcDbLine
 10
9.929033801065795
 20
10.31677575933889
 30
0.0
 11
9.950099460380711
 21
10.31677575933889
 31
0.0
  0
LINE
  5
139
330
6C
100
AcDbEntity
  8
Visible (ANSI)
100
AcDbLine
 10
9.841958647569853
 20
7.790525759338891
 30
0.0
 11
9.929033801065795
 21
7.790525759338891
 31
0.0
  0
LINE
  5
13A
330
6C
100
AcDbEntity
  8
Visible (ANSI)
100
AcDbLine
 10
9.929033801065802
 20
8.316775759338892
 30
0.0
 11
9.84195864756994
 21
8.316775759338892
 31
0.0
  0
LINE
  5
13B
330
6C
100
AcDbEntity
  8
Visible (ANSI)
100
AcDbLine
 10
9.929033801065795
 20
7.790525759338891
 30
0.0
 11
9.950099460380744
 21
7.790525759338891
 31
0.0
  0
ELLIPSE
  5
13C
330
6C
100
AcDbEntity
  8
Visible (ANSI)
100
AcDbEllipse
 10
9.95617409953008
 20
7.899525759338883
 30
0.0
 11
-0.0000000000000035
 21
-0.1089999999999936
 31
0.0
210
0.0
220
0.0
230
1.0
 40
0.7071067811865437
 41
0.0788968452256314
 42
0.7152060126943633
  0
ELLIPSE
  5
13D
330
6C
100
AcDbEntity
  8
Visible (ANSI)
100
AcDbEllipse
 10
9.956174099530077
 20
8.207775759338893
 30
0.0
 11
0.0000000000000032
 21
0.1089999999999978
 31
0.0
210
0.0
220
0.0
230
1.0
 40
0.7071067811865538
 41
5.567979294484955
 42
6.204288461953992
  0
LINE
  5
13E
330
6C
100
AcDbEntity
  8
Visible (ANSI)
100
AcDbLine
 10
9.929033801065804
 20
8.316775759338892
 30
0.0
 11
9.950099460380744
 21
8.316775759338892
 31
0.0
  0
ARC
  5
13F
330
6C
100
AcDbEntity
  8
Visible (ANSI)
100
AcDbCircle
 10
9.762007906293941
 20
12.55365075933889
 30
0.0
 40
0.3049999999999997
100
AcDbArc
 50
323.174204874533
 51
36.82579512545979
  0
ARC
  5
140
330
6C
100
AcDbEntity
  8
Visible (ANSI)
100
AcDbCircle
 10
9.76200790629382
 20
10.05365075933889
 30
0.0
 40
0.3049999999999992
100
AcDbArc
 50
323.174204874561
 51
36.82579512543149
  0
ARC
  5
141
330
6C
100
AcDbEntity
  8
Visible (ANSI)
100
AcDbCircle
 10
9.762007906293819
 20
8.053650759338891
 30
0.0
 40
0.3049999999999995
100
AcDbArc
 50
323.174204874561
 51
36.82579512543149
  0
ARC
  5
142
330
6C
100
AcDbEntity
  8
Visible (ANSI)
100
AcDbCircle
 10
9.129507906293818
 20
5.178650759338896
 30
0.0
 40
0.1249999999999949
100
AcDbArc
 50
89.99999999999936
 51
100.4736959986891
  0
LINE
  5
143
330
6C
100
AcDbEntity
  8
Visible (ANSI)
100
AcDbLine
 10
9.483070284731875
 20
5.30365075933888
 30
0.0
 11
9.12950790629382
 21
5.303650759338891
 31
0.0
  0
ARC
  5
144
330
6C
100
AcDbEntity
  8
Visible (ANSI)
100
AcDbCircle
 10
9.483070284731875
 20
5.366150759338891
 30
0.0
 40
0.0625000000000006
100
AcDbArc
 50
270.0
 51
325.0000000000101
  0
LINE
  5
145
330
6C
100
AcDbEntity
  8
Visible (ANSI)
100
AcDbLine
 10
9.890810903525757
 20
5.83949928661083
 30
0.0
 11
9.534267287499952
 21
5.330302232066953
 31
0.0
  0
ARC
  5
146
330
6C
100
AcDbEntity
  8
Visible (ANSI)
100
AcDbCircle
 10
9.94200790629382
 20
5.803650759338888
 30
0.0
 40
0.0625000000000012
100
AcDbArc
 50
90.00000000000127
 51
144.999999999999
  0
LINE
  5
147
330
6C
100
AcDbEntity
  8
Visible (ANSI)
100
AcDbLine
 10
10.12950790629382
 20
5.866150759338889
 30
0.0
 11
9.94200790629382
 21
5.866150759338889
 31
0.0
  0
LINE
  5
148
330
6C
100
AcDbEntity
  8
Visible (ANSI)
100
AcDbLine
 10
10.25400790629377
 20
5.990650759338839
 30
0.0
 11
10.12950790629382
 21
5.866150759338889
 31
0.0
  0
LINE
  5
149
330
6C
100
AcDbEntity
  8
Visible (ANSI)
100
AcDbLine
 10
10.25400790629388
 20
6.352950759338838
 30
0.0
 11
10.25400790629377
 21
5.990650759338839
 31
0.0
  0
ARC
  5
14A
330
6C
100
AcDbEntity
  8
Visible (ANSI)
100
AcDbCircle
 10
9.879507906293758
 20
6.352950759338892
 30
0.0
 40
0.374500000000122
100
AcDbArc
 50
0.0
 51
75.15912500306836
  0
LINE
  5
14B
330
6C
100
AcDbEntity
  8
Visible (ANSI)
100
AcDbLine
 10
9.783200985392136
 20
6.765893778380592
 30
0.0
 11
9.975430624022999
 21
6.714957778916607
 31
0.0
  0
ARC
  5
14C
330
6C
100
AcDbEntity
  8
Visible (ANSI)
100
AcDbCircle
 10
9.879507906293758
 20
7.12935075933889
 30
0.0
 40
0.3760000000000004
100
AcDbArc
 50
180.0
 51
255.1591249993575
  0
LINE
  5
14D
330
6C
100
AcDbEntity
  8
Visible (ANSI)
100
AcDbLine
 10
9.503507906293759
 20
7.22795075933889
 30
0.0
 11
9.503507906293759
 21
7.12935075933889
 31
0.0
  0
ARC
  5
14E
330
6C
100
AcDbEntity
  8
Visible (ANSI)
100
AcDbCircle
 10
9.879507906293758
 20
7.227950759338892
 30
0.0
 40
0.3759999999999994
100
AcDbArc
 50
104.984256112765
 51
180.0
  0
LINE
  5
14F
330
6C
100
AcDbEntity
  8
Visible (ANSI)
100
AcDbLine
 10
9.976206958549784
 20
7.643067915443991
 30
0.0
 11
9.782291746806416
 21
7.591165597051412
 31
0.0
  0
ARC
  5
150
330
6C
100
AcDbEntity
  8
Visible (ANSI)
100
AcDbCircle
 10
9.879507906293939
 20
8.004350759338887
 30
0.0
 40
0.3739999999999974
100
AcDbArc
 50
284.9842561127384
 51
0.0
  0
LINE
  5
151
330
6C
100
AcDbEntity
  8
Visible (ANSI)
100
AcDbLine
 10
10.25350790629376
 20
8.102950759338892
 30
0.0
 11
10.25350790629376
 21
8.00435075933889
 31
0.0
  0
ARC
  5
152
330
6C
100
AcDbEntity
  8
Visible (ANSI)
100
AcDbCircle
 10
9.879507906293941
 20
8.10295075933889
 30
0.0
 40
0.3740000000000012
100
AcDbArc
 50
0.0
 51
75.01574388724375
  0
LINE
  5
153
330
6C
100
AcDbEntity
  8
Visible (ANSI)
100
AcDbLine
 10
9.782291746806532
 20
8.516135921626357
 30
0.0
 11
9.97620695854991
 21
8.464233603233804
 31
0.0
  0
ARC
  5
154
330
6C
100
AcDbEntity
  8
Visible (ANSI)
100
AcDbCircle
 10
9.879507906293817
 20
8.87935075933889
 30
0.0
 40
0.3759999999999985
100
AcDbArc
 50
180.0
 51
255.0157438872439
  0
LINE
  5
155
330
6C
100
AcDbEntity
  8
Visible (ANSI)
100
AcDbLine
 10
9.503507906293993
 20
9.22795075933908
 30
0.0
 11
9.503507906293817
 21
8.879350759339079
 31
0.0
  0
ARC
  5
156
330
6C
100
AcDbEntity
  8
Visible (ANSI)
100
AcDbCircle
 10
9.879507906293993
 20
9.227950759338892
 30
0.0
 40
0.376
100
AcDbArc
 50
104.9842561128043
 51
180.0
  0
LINE
  5
157
330
6C
100
AcDbEntity
  8
Visible (ANSI)
100
AcDbLine
 10
9.976206958549941
 20
9.643067915443968
 30
0.0
 11
9.782291746806384
 21
9.591165597051414
 31
0.0
  0
ARC
  5
158
330
6C
100
AcDbEntity
  8
Visible (ANSI)
100
AcDbCircle
 10
9.879507906293758
 20
10.00435075933889
 30
0.0
 40
0.3740000000000005
100
AcDbArc
 50
284.9842561127872
 51
0.0
  0
LINE
  5
159
330
6C
100
AcDbEntity
  8
Visible (ANSI)
100
AcDbLine
 10
10.25350790629376
 20
10.35295075933889
 30
0.0
 11
10.25350790629376
 21
10.00435075933889
 31
0.0
  0
ARC
  5
15A
330
6C
100
AcDbEntity
  8
Visible (ANSI)
100
AcDbCircle
 10
9.879507906293756
 20
10.35295075933889
 30
0.0
 40
0.3740000000000026
100
AcDbArc
 50
0.0
 51
75.01574388723456
  0
LINE
  5
15B
330
6C
100
AcDbEntity
  8
Visible (ANSI)
100
AcDbLine
 10
9.782291746806418
 20
10.76613592162637
 30
0.0
 11
9.976206958549786
 21
10.71423360323379
 31
0.0
  0
ARC
  5
15C
330
6C
100
AcDbEntity
  8
Visible (ANSI)
100
AcDbCircle
 10
9.879507906293758
 20
11.12935075933889
 30
0.0
 40
0.3759999999999997
100
AcDbArc
 50
180.0
 51
255.0157438872347
  0
LINE
  5
15D
330
6C
100
AcDbEntity
  8
Visible (ANSI)
100
AcDbLine
 10
9.503507906293821
 20
11.60295075933889
 30
0.0
 11
9.503507906293821
 21
11.12935075933889
 31
0.0
  0
ARC
  5
15E
330
6C
100
AcDbEntity
  8
Visible (ANSI)
100
AcDbCircle
 10
9.879507906293758
 20
11.60295075933889
 30
0.0
 40
0.3759999999999979
100
AcDbArc
 50
104.9842561127645
 51
180.0
  0
LINE
  5
15F
330
6C
100
AcDbEntity
  8
Visible (ANSI)
100
AcDbLine
 10
9.976206958549784
 20
12.01806791544399
 30
0.0
 11
9.78229174680642
 21
11.96616559705141
 31
0.0
  0
ARC
  5
160
330
6C
100
AcDbEntity
  8
Visible (ANSI)
100
AcDbCircle
 10
9.87950790629376
 20
12.37935075933889
 30
0.0
 40
0.3739999999999992
100
AcDbArc
 50
284.9842561127649
 51
0.0
  0
LINE
  5
161
330
6C
100
AcDbEntity
  8
Visible (ANSI)
100
AcDbLine
 10
10.25350790629376
 20
12.72795075933889
 30
0.0
 11
10.25350790629376
 21
12.37935075933889
 31
0.0
  0
ARC
  5
162
330
6C
100
AcDbEntity
  8
Visible (ANSI)
100
AcDbCircle
 10
9.879507906293762
 20
12.72795075933889
 30
0.0
 40
0.3739999999999979
100
AcDbArc
 50
0.0
 51
75.01574388722612
  0
LINE
  5
163
330
6C
100
AcDbEntity
  8
Visible (ANSI)
100
AcDbLine
 10
9.782291746806476
 20
13.14113592162637
 30
0.0
 11
9.976206958549846
 21
13.08923360323379
 31
0.0
  0
ARC
  5
164
330
6C
100
AcDbEntity
  8
Visible (ANSI)
100
AcDbCircle
 10
9.879507906293822
 20
13.50435075933889
 30
0.0
 40
0.376000000000002
100
AcDbArc
 50
180.0
 51
255.0157438872345
  0
LINE
  5
165
330
6C
100
AcDbEntity
  8
Visible (ANSI)
100
AcDbLine
 10
9.503507906293819
 20
14.02157092740611
 30
0.0
 11
9.503507906293819
 21
13.50435075933889
 31
0.0
  0
LINE
  5
166
330
6C
100
AcDbEntity
  8
Visible (ANSI)
100
AcDbLine
 10
9.309014672295734
 20
14.21780035062199
 30
0.0
 11
9.503507906293819
 21
14.02157092740611
 31
0.0
  0
ARC
  5
167
330
6C
100
AcDbEntity
  8
Visible (ANSI)
100
AcDbCircle
 10
9.048307906293944
 20
13.94825075933889
 30
0.0
 40
0.374999999999997
100
AcDbArc
 50
45.95540506095415
 51
70.73097916006521
  0
ARC
  5
168
330
6C
100
AcDbEntity
  8
Visible (ANSI)
100
AcDbCircle
 10
9.389507906293864
 20
14.61615075933894
 30
0.0
 40
0.3818663052484282
100
AcDbArc
 50
220.650032440536
 51
235.2890828672238
  0
ARC
  5
169
330
6C
100
AcDbEntity
  8
Visible (ANSI)
100
AcDbCircle
 10
9.762007906293819
 20
11.30365075933889
 30
0.0
 40
0.3050000000047998
100
AcDbArc
 50
291.3648140112048
 51
68.66802317764939
  0
ARC
  5
16A
330
6C
100
AcDbEntity
  8
Visible (ANSI)
100
AcDbCircle
 10
9.762007906293819
 20
8.928650759338889
 30
0.0
 40
0.3050000000048001
100
AcDbArc
 50
291.3648140112105
 51
68.66802317764369
  0
ARC
  5
16B
330
6C
100
AcDbEntity
  8
Visible (ANSI)
100
AcDbCircle
 10
9.879507906293818
 20
13.50435075933889
 30
0.0
 40
0.373999999999999
100
AcDbArc
 50
284.9842561127651
 51
0.0
  0
LINE
  5
16C
330
6C
100
AcDbEntity
  8
Visible (ANSI)
100
AcDbLine
 10
10.25350790629382
 20
13.50435075933889
 30
0.0
 11
10.25350790629382
 21
14.02157092740611
 31
0.0
  0
LINE
  5
16D
330
6C
100
AcDbEntity
  8
Visible (ANSI)
100
AcDbLine
 10
10.25350790629382
 20
14.02157092740611
 30
0.0
 11
10.14578009564292
 21
14.13020401377676
 31
0.0
  0
ARC
  5
16E
330
6C
100
AcDbEntity
  8
Visible (ANSI)
100
AcDbCircle
 10
9.879507906293824
 20
13.8661507593389
 30
0.0
 40
0.3749999999999837
100
AcDbArc
 50
44.76027010391864
 51
89.99999999999978
  0
LINE
  5
16F
330
6C
100
AcDbEntity
  8
Visible (ANSI)
100
AcDbLine
 10
9.879507906293824
 20
14.24115075933888
 30
0.0
 11
9.389523783659097
 21
14.24115075933889
 31
0.0
  0
ARC
  5
170
330
6C
100
AcDbEntity
  8
Visible (ANSI)
100
AcDbCircle
 10
9.38952378365909
 20
14.61615075933889
 30
0.0
 40
0.375000000000003
100
AcDbArc
 50
219.4087130280461
 51
270.0000000000009
  0
LINE
  5
171
330
6C
100
AcDbEntity
  8
Visible (ANSI)
100
AcDbLine
 10
9.876107638497179
 20
6.741275861671886
 30
0.0
 11
9.976206958549905
 21
6.768067915443991
 31
0.0
  0
ARC
  5
172
330
6C
100
AcDbEntity
  8
Visible (ANSI)
100
AcDbCircle
 10
9.879507906293881
 20
7.12935075933889
 30
0.0
 40
0.3739999999999997
100
AcDbArc
 50
284.9842561127648
 51
0.0
  0
LINE
  5
173
330
6C
100
AcDbEntity
  8
Visible (ANSI)
100
AcDbLine
 10
10.25350790629388
 20
7.12935075933889
 30
0.0
 11
10.25350790629388
 21
7.22795075933889
 31
0.0
  0
ARC
  5
174
330
6C
100
AcDbEntity
  8
Visible (ANSI)
100
AcDbCircle
 10
9.879507906293882
 20
7.227950759338892
 30
0.0
 40
0.3739999999999982
100
AcDbArc
 50
0.0
 51
75.01574388723501
  0
LINE
  5
175
330
6C
100
AcDbEntity
  8
Visible (ANSI)
100
AcDbLine
 10
9.976206958549907
 20
7.589233603233791
 30
0.0
 11
9.875640236536209
 21
7.616150759338909
 31
0.0
  0
LINE
  5
176
330
6C
100
AcDbEntity
  8
Visible (ANSI)
100
AcDbLine
 10
9.875640236536209
 20
8.491150759338907
 30
0.0
 11
9.976206958549791
 21
8.518067915443976
 31
0.0
  0
ARC
  5
177
330
6C
100
AcDbEntity
  8
Visible (ANSI)
100
AcDbCircle
 10
9.879507906293818
 20
8.879350759338892
 30
0.0
 40
0.3740000000000021
100
AcDbArc
 50
284.9842561127564
 51
0.0
  0
LINE
  5
178
330
6C
100
AcDbEntity
  8
Visible (ANSI)
100
AcDbLine
 10
10.25350790629525
 20
8.87935075934028
 30
0.0
 11
10.25350790629395
 21
9.227950759340279
 31
0.0
  0
ARC
  5
179
330
6C
100
AcDbEntity
  8
Visible (ANSI)
100
AcDbCircle
 10
9.879507906293646
 20
9.227950759338892
 30
0.0
 40
0.3739999999999989
100
AcDbArc
 50
0.0
 51
75.0157438872095
  0
LINE
  5
17A
330
6C
100
AcDbEntity
  8
Visible (ANSI)
100
AcDbLine
 10
9.976206958549845
 20
9.589233603233791
 30
0.0
 11
9.875640236536225
 21
9.616150759338887
 31
0.0
  0
LINE
  5
17B
330
6C
100
AcDbEntity
  8
Visible (ANSI)
100
AcDbLine
 10
9.875640236536215
 20
10.74115075933887
 30
0.0
 11
9.976206958549907
 21
10.76806791544399
 31
0.0
  0
ARC
  5
17C
330
6C
100
AcDbEntity
  8
Visible (ANSI)
100
AcDbCircle
 10
9.879507906293881
 20
11.12935075933889
 30
0.0
 40
0.3739999999999982
100
AcDbArc
 50
284.984256112765
 51
0.0
  0
LINE
  5
17D
330
6C
100
AcDbEntity
  8
Visible (ANSI)
100
AcDbLine
 10
10.25350790629382
 20
11.12935075933889
 30
0.0
 11
10.25350790629382
 21
11.60295075933889
 31
0.0
  0
ARC
  5
17E
330
6C
100
AcDbEntity
  8
Visible (ANSI)
100
AcDbCircle
 10
9.879507906293879
 20
11.60295075933889
 30
0.0
 40
0.3740000000000003
100
AcDbArc
 50
0.0
 51
75.01574388723511
  0
LINE
  5
17F
330
6C
100
AcDbEntity
  8
Visible (ANSI)
100
AcDbLine
 10
9.976206958549903
 20
11.96423360323379
 30
0.0
 11
9.875640236536213
 21
11.9911507593389
 31
0.0
  0
LINE
  5
180
330
6C
100
AcDbEntity
  8
Visible (ANSI)
100
AcDbLine
 10
9.875640236536208
 20
13.11615075933889
 30
0.0
 11
9.976206958549846
 21
13.14306791544399
 31
0.0
  0
ARC
  5
181
330
6C
100
AcDbEntity
  8
Visible (ANSI)
100
AcDbCircle
 10
9.762007906293819
 20
13.74115075933889
 30
0.0
 40
0.3050000000048001
100
AcDbArc
 50
291.3648140111986
 51
68.66802317765594
  0
LINE
  5
182
330
6C
100
AcDbEntity
  8
Visible (ANSI)
100
AcDbLine
 10
9.060784893493485
 20
14.58490075933888
 30
0.0
 11
9.060784893493485
 21
14.80365075933888
 31
0.0
  0
LINE
  5
183
330
6C
100
AcDbEntity
  8
Visible (ANSI)
100
AcDbLine
 10
9.060784893493485
 20
12.80365075933889
 30
0.0
 11
9.060784893493485
 21
14.58490075933888
 31
0.0
  0
LINE
  5
184
330
6C
100
AcDbEntity
  8
Visible (ANSI)
100
AcDbLine
 10
9.060784893493485
 20
12.42865081160928
 30
0.0
 11
9.060784893493485
 21
12.80365075933889
 31
0.0
  0
LINE
  5
185
330
6C
100
AcDbEntity
  8
Visible (ANSI)
100
AcDbLine
 10
9.060784893493485
 20
5.86615071498017
 30
0.0
 11
9.060784893493485
 21
12.42865081160928
 31
0.0
  0
LINE
  5
186
330
6C
100
AcDbEntity
  8
Visible (ANSI)
100
AcDbLine
 10
9.060784893493485
 20
5.780591133442076
 30
0.0
 11
9.060784893493485
 21
5.866150714980169
 31
0.0
  0
LINE
  5
187
330
6C
100
AcDbEntity
  8
Visible (ANSI)
100
AcDbLine
 10
9.060784893493485
 20
5.728216355379445
 30
0.0
 11
9.060784893493485
 21
5.780591133442076
 31
0.0
  0
LINE
  5
188
330
6C
100
AcDbEntity
  8
Visible (ANSI)
100
AcDbLine
 10
9.060784893493485
 20
5.645208866859015
 30
0.0
 11
9.060784893493485
 21
5.728216355379444
 31
0.0
  0
LINE
  5
189
330
6C
100
AcDbEntity
  8
Visible (ANSI)
100
AcDbLine
 10
9.060784893493485
 20
4.142163146510615
 30
0.0
 11
9.060784893493485
 21
5.645208866859015
 31
0.0
  0
LINE
  5
18A
330
6C
100
AcDbEntity
  8
Visible (ANSI)
100
AcDbLine
 10
9.014784893493484
 20
4.142163146510615
 30
0.0
 11
9.014784893493484
 21
5.645208866859015
 31
0.0
  0
LINE
  5
18B
330
6C
100
AcDbEntity
  8
Visible (ANSI)
100
AcDbLine
 10
9.014784893493484
 20
5.645208866859015
 30
0.0
 11
9.014784893493484
 21
5.728216355379444
 31
0.0
  0
LINE
  5
18C
330
6C
100
AcDbEntity
  8
Visible (ANSI)
100
AcDbLine
 10
9.014784893493484
 20
5.728216355379445
 30
0.0
 11
9.014784893493484
 21
5.780591133442076
 31
0.0
  0
LINE
  5
18D
330
6C
100
AcDbEntity
  8
Visible (ANSI)
100
AcDbLine
 10
9.014784893493484
 20
5.780591133442076
 30
0.0
 11
9.014784893493484
 21
5.866150714980169
 31
0.0
  0
LINE
  5
18E
330
6C
100
AcDbEntity
  8
Visible (ANSI)
100
AcDbLine
 10
9.014784893493484
 20
5.86615071498017
 30
0.0
 11
9.014784893493484
 21
12.42865081160928
 31
0.0
  0
LINE
  5
18F
330
6C
100
AcDbEntity
  8
Visible (ANSI)
100
AcDbLine
 10
9.014784893493484
 20
12.42865081160928
 30
0.0
 11
9.014784893493484
 21
12.80365075933889
 31
0.0
  0
LINE
  5
190
330
6C
100
AcDbEntity
  8
Visible (ANSI)
100
AcDbLine
 10
9.014784893493484
 20
12.80365075933889
 30
0.0
 11
9.014784893493484
 21
14.58490075933888
 31
0.0
  0
LINE
  5
191
330
6C
100
AcDbEntity
  8
Visible (ANSI)
100
AcDbLine
 10
9.014784893493484
 20
14.58490075933888
 30
0.0
 11
9.014784893493484
 21
14.80365075933888
 31
0.0
  0
LINE
  5
192
330
6C
100
AcDbEntity
  8
Visible (ANSI)
100
AcDbLine
 10
9.014784893493484
 20
5.645208866859015
 30
0.0
 11
9.060784893493485
 21
5.645208866859015
 31
0.0
  0
LINE
  5
193
330
6C
100
AcDbEntity
  8
Visible (ANSI)
100
AcDbLine
 10
9.014784893493484
 20
14.80365075933888
 30
0.0
 11
9.060784893493485
 21
14.80365075933888
 31
0.0
  0
LINE
  5
194
330
6C
100
AcDbEntity
  8
Visible (ANSI)
100
AcDbLine
 10
9.014784893493484
 20
14.58490075933888
 30
0.0
 11
9.060784893493485
 21
14.58490075933888
 31
0.0
  0
LINE
  5
195
330
6C
100
AcDbEntity
  8
Visible (ANSI)
100
AcDbLine
 10
9.014784893493484
 20
12.80365075933889
 30
0.0
 11
9.060784893493485
 21
12.80365075933889
 31
0.0
  0
LINE
  5
196
330
6C
100
AcDbEntity
  8
Visible (ANSI)
100
AcDbLine
 10
9.014784893493484
 20
12.42865081160928
 30
0.0
 11
9.060784893493485
 21
12.42865081160928
 31
0.0
  0
LINE
  5
197
330
6C
100
AcDbEntity
  8
Visible (ANSI)
100
AcDbLine
 10
9.014784893493484
 20
5.86615071498017
 30
0.0
 11
9.060784893493485
 21
5.86615071498017
 31
0.0
  0
LINE
  5
198
330
6C
100
AcDbEntity
  8
Visible Narrow (ANSI)
100
AcDbLine
 10
9.014784893493484
 20
5.780591133442076
 30
0.0
 11
9.060784893493485
 21
5.780591133442076
 31
0.0
  0
LINE
  5
199
330
6C
100
AcDbEntity
  8
Visible (ANSI)
100
AcDbLine
 10
9.014784893493484
 20
5.728216355379445
 30
0.0
 11
9.060784893493485
 21
5.728216355379445
 31
0.0
  0
LINE
  5
19A
330
6C
100
AcDbEntity
  8
Visible (ANSI)
100
AcDbLine
 10
10.0876449262558
 20
3.031195466009972
 30
0.0
 11
10.03944997882541
 21
3.079390413440359
 31
0.0
  0
LINE
  5
19B
330
6C
100
AcDbEntity
  8
Visible (ANSI)
100
AcDbLine
 10
10.03944997882541
 20
3.079390413440359
 30
0.0
 11
9.664153054710654
 21
3.454687337555119
 31
0.0
  0
LINE
  5
19C
330
6C
100
AcDbEntity
  8
Visible (ANSI)
100
AcDbLine
 10
9.664153054710654
 20
3.454687337555119
 30
0.0
 11
9.041731069624322
 21
4.077109322641452
 31
0.0
  0
LINE
  5
19D
330
6C
100
AcDbEntity
  8
Visible (ANSI)
100
AcDbLine
 10
10.12017183819038
 20
3.063722377944553
 30
0.0
 11
10.07197689075999
 21
3.11191732537494
 31
0.0
  0
LINE
  5
19E
330
6C
100
AcDbEntity
  8
Visible (ANSI)
100
AcDbLine
 10
10.03944997882541
 20
3.079390413440359
 30
0.0
 11
10.07197689075999
 21
3.11191732537494
 31
0.0
  0
LINE
  5
19F
330
6C
100
AcDbEntity
  8
Visible (ANSI)
100
AcDbLine
 10
10.07197689075999
 20
3.11191732537494
 30
0.0
 11
9.696679966645236
 21
3.4872142494897
 31
0.0
  0
LINE
  5
1A0
330
6C
100
AcDbEntity
  8
Visible (ANSI)
100
AcDbLine
 10
9.664153054710654
 20
3.454687337555119
 30
0.0
 11
9.696679966645236
 21
3.4872142494897
 31
0.0
  0
LINE
  5
1A1
330
6C
100
AcDbEntity
  8
Visible (ANSI)
100
AcDbLine
 10
9.696679966645236
 20
3.4872142494897
 30
0.0
 11
9.074257981558902
 21
4.109636234576034
 31
0.0
  0
ARC
  5
1A2
330
6C
100
AcDbEntity
  8
Visible (ANSI)
100
AcDbCircle
 10
10.06824706205251
 20
3.107480389886273
 30
0.0
 40
0.0855000000000022
100
AcDbArc
 50
352.2686398170669
 51
44.66493505210266
  0
LINE
  5
1A3
330
6C
100
AcDbEntity
  8
Visible (ANSI)
100
AcDbLine
 10
10.37831338560281
 20
3.416839606655388
 30
0.0
 11
10.12905721144387
 21
3.167583432496448
 31
0.0
  0
LINE
  5
1A4
330
6C
100
AcDbEntity
  8
Visible (ANSI)
100
AcDbLine
 10
10.55438297411827
 20
3.416839606655388
 30
0.0
 11
10.37831338560281
 21
3.416839606655388
 31
0.0
  0
LINE
  5
1A5
330
6C
100
AcDbEntity
  8
Visible (ANSI)
100
AcDbLine
 10
10.86374219088738
 20
3.107480389886274
 30
0.0
 11
10.55438297411827
 21
3.416839606655388
 31
0.0
  0
LINE
  5
1A6
330
6C
100
AcDbEntity
  8
Visible (ANSI)
100
AcDbLine
 10
10.86374219088738
 20
2.930703694589637
 30
0.0
 11
10.86374219088738
 21
3.107480389886274
 31
0.0
  0
LINE
  5
1A7
330
6C
100
AcDbEntity
  8
Visible (ANSI)
100
AcDbLine
 10
10.59099326815092
 20
2.657954771853177
 30
0.0
 11
10.86374219088738
 21
2.930703694589637
 31
0.0
  0
ELLIPSE
  5
1A8
330
6C
100
AcDbEntity
  8
Visible (ANSI)
100
AcDbEllipse
 10
9.950099460380711
 20
10.20777575933889
 30
0.0
 11
0.1541492782986673
 21
-0.0000000000000001
 31
0.0
210
0.0
220
0.0
230
1.0
 40
0.7071067811865479
 41
1.491899481568843
 42
1.570796326794896
  0
ELLIPSE
  5
1A9
330
6C
100
AcDbEntity
  8
Visible (ANSI)
100
AcDbEllipse
 10
9.950099460380711
 20
9.899525759338891
 30
0.0
 11
0.1541492782986673
 21
-0.0000000000000001
 31
0.0
210
0.0
220
0.0
230
1.0
 40
0.7071067811865479
 41
4.712388980384689
 42
4.791285825610744
  0
LINE
  5
1AA
330
6C
100
AcDbEntity
  8
Visible Narrow (ANSI)
100
AcDbLine
 10
9.745611452478987
 20
9.89643085765304
 30
0.0
 11
9.841958647569889
 21
9.790525759338891
 31
0.0
  0
SPLINE
  5
1AB
330
6C
100
AcDbEntity
  8
Visible Narrow (ANSI)
100
AcDbSpline
210
0.0
220
0.0
230
1.0
 70
     8
 71
     3
 72
    16
 73
    12
 74
     0
 42
0.0000000001
 43
0.0000000001
 40
-0.8744419443592503
 40
-0.8744419443592503
 40
-0.8744419443592503
 40
-0.8744419443592503
 40
-0.7184483258617142
 40
-0.7184483258617142
 40
-0.5069786961255917
 40
-0.5069786961255917
 40
-0.3147687477457159
 40
-0.3147687477457159
 40
-0.1210649029791215
 40
-0.1210649029791215
 40
0.0
 40
0.0
 40
0.0
 40
0.0
 10
9.745611452478927
 20
10.21087066102441
 30
0.0
 10
9.731835295747114
 20
10.19572787215858
 30
0.0
 10
9.719725074204841
 20
10.17874361704838
 30
0.0
 10
9.696967051824065
 20
10.13595467769349
 30
0.0
 10
9.688268316583528
 20
10.10896281975264
 30
0.0
 10
9.681681250780272
 20
10.05614439054766
 30
0.0
 10
9.682867137811875
 20
10.03044421108879
 30
0.0
 10
9.693829284466792
 20
9.980545675698516
 30
0.0
 10
9.703533231393214
 20
9.95670864035609
 30
0.0
 10
9.725204166946832
 20
9.921058126376943
 30
0.0
 10
9.734919931285787
 20
9.908183006763628
 30
0.0
 10
9.745611452478936
 20
9.896430857653095
 30
0.0
  0
LINE
  5
1AC
330
6C
100
AcDbEntity
  8
Visible Narrow (ANSI)
100
AcDbLine
 10
9.841958647569974
 20
10.31677575933889
 30
0.0
 11
9.745611452478927
 21
10.21087066102441
 31
0.0
  0
SPLINE
  5
1AD
330
6C
100
AcDbEntity
  8
Visible (ANSI)
100
AcDbSpline
210
0.0
220
0.0
230
1.0
 70
     8
 71
     3
 72
    10
 73
     6
 74
     0
 42
0.0000000001
 43
0.0000000001
 40
0.306099397734266
 40
0.306099397734266
 40
0.306099397734266
 40
0.306099397734266
 40
0.3333273999954659
 40
0.3333273999954659
 40
0.3940483701707374
 40
0.3940483701707374
 40
0.3940483701707374
 40
0.3940483701707374
 10
9.929033801065786
 20
9.790525759338889
 30
0.0
 10
9.932394207422259
 20
9.790525759338889
 30
0.0
 10
9.935577456244471
 20
9.790714483021563
 30
0.0
 10
9.944907164903876
 20
9.791845901318813
 30
0.0
 10
9.950910392059917
 20
9.793622758304744
 30
0.0
 10
9.955219875347832
 20
9.796250538683169
 30
0.0
  0
LINE
  5
1AE
330
6C
100
AcDbEntity
  8
Visible Narrow (ANSI)
100
AcDbLine
 10
9.955219875347877
 20
9.796250538683198
 30
0.0
 11
9.810432196077714
 21
9.955401548666593
 31
0.0
  0
LINE
  5
1AF
330
6C
100
AcDbEntity
  8
Visible Narrow (ANSI)
100
AcDbLine
 10
9.810432196077714
 20
9.955401548666593
 30
0.0
 11
9.745611452478987
 21
9.89643085765304
 31
0.0
  0
LINE
  5
1B0
330
6C
100
AcDbEntity
  8
Visible Narrow (ANSI)
100
AcDbLine
 10
9.810432196077684
 20
10.15189997001092
 30
0.0
 11
9.745611452478925
 21
10.21087066102441
 31
0.0
  0
SPLINE
  5
1B1
330
6C
100
AcDbEntity
  8
Visible Narrow (ANSI)
100
AcDbSpline
210
0.0
220
0.0
230
1.0
 70
     8
 71
     3
 72
    16
 73
    12
 74
     0
 42
0.0000000001
 43
0.0000000001
 40
0.0
 40
0.0
 40
0.0
 40
0.0
 40
0.1210649029791215
 40
0.1210649029791215
 40
0.3147687477457159
 40
0.3147687477457159
 40
0.5069786961255917
 40
0.5069786961255917
 40
0.7184483258617142
 40
0.7184483258617142
 40
0.8744419443592503
 40
0.8744419443592503
 40
0.8744419443592503
 40
0.8744419443592503
 10
9.810432196077693
 20
9.955401548666587
 30
0.0
 10
9.802076260808682
 20
9.962019133004702
 30
0.0
 10
9.794363602114236
 20
9.969533945946748
 30
0.0
 10
9.776985331807463
 20
9.991060868259824
 30
0.0
 10
9.76901805813514
 20
10.0061299439894
 30
0.0
 10
9.759993210165067
 20
10.03839172080851
 30
0.0
 10
9.759003867178737
 20
10.05532446510992
 30
0.0
 10
9.764444379938911
 20
10.08975560852041
 30
0.0
 10
9.771637036864204
 20
10.10709327635573
 30
0.0
 10
9.790001272503378
 20
10.13336008814794
 30
0.0
 10
9.799665470573691
 20
10.14337313109053
 30
0.0
 10
9.810432196077684
 20
10.15189997001092
 30
0.0
  0
LINE
  5
1B2
330
6C
100
AcDbEntity
  8
Visible Narrow (ANSI)
100
AcDbLine
 10
9.810432196077684
 20
10.15189997001092
 30
0.0
 11
9.955219875347864
 21
10.31105097999459
 31
0.0
  0
SPLINE
  5
1B3
330
6C
100
AcDbEntity
  8
Visible (ANSI)
100
AcDbSpline
210
0.0
220
0.0
230
1.0
 70
     8
 71
     3
 72
    12
 73
     8
 74
     0
 42
0.0000000001
 43
0.0000000001
 40
2.646039954443045
 40
2.646039954443045
 40
2.646039954443045
 40
2.646039954443045
 40
2.650787710714776
 40
2.650787710714776
 40
2.722459923583618
 40
2.722459923583618
 40
2.734803955068328
 40
2.734803955068328
 40
2.734803955068328
 40
2.734803955068328
 10
9.955219875347864
 20
10.31105097999459
 30
0.0
 10
9.954886091738609
 20
10.31125451020006
 30
0.0
 10
9.95454277737822
 20
10.31145339441794
 30
0.0
 10
9.948867187388307
 20
10.31457616041532
 30
0.0
 10
9.941247279055536
 20
10.31628408242541
 30
0.0
 10
9.931844569606967
 20
10.31674316166747
 30
0.0
 10
9.930446327683583
 20
10.31677575933889
 30
0.0
 10
9.929033801065795
 20
10.31677575933889
 30
0.0
  0
LINE
  5
1B4
330
6C
100
AcDbEntity
  8
Visible Narrow (ANSI)
100
AcDbLine
 10
9.935250839177909
 20
10.15189997001092
 30
0.0
 11
9.810432196077684
 21
10.15189997001092
 31
0.0
  0
LINE
  5
1B5
330
6C
100
AcDbEntity
  8
Visible (ANSI)
100
AcDbLine
 10
9.935250839177909
 20
10.15189997001092
 30
0.0
 11
9.960667347263584
 21
10.20777575933889
 31
0.0
  0
ELLIPSE
  5
1B6
330
6C
100
AcDbEntity
  8
Visible (ANSI)
100
AcDbEllipse
 10
9.88359270811425
 20
10.20777575933889
 30
0.0
 11
0.0740519643486462
 21
0.1016568816578542
 31
0.0
210
0.0
220
0.0
230
1.0
 40
0.5311185938607067
 41
5.081545742835125
 42
6.326804968372099
  0
LINE
  5
1B7
330
6C
100
AcDbEntity
  8
Visible Narrow (ANSI)
100
AcDbLine
 10
9.935250839177909
 20
9.955401548666593
 30
0.0
 11
9.810432196077714
 21
9.955401548666593
 31
0.0
  0
ELLIPSE
  5
1B8
330
6C
100
AcDbEntity
  8
Visible (ANSI)
100
AcDbEllipse
 10
9.98924873867941
 20
10.05365075933875
 30
0.0
 11
-0.0000000000000001
 21
-0.146
 31
0.0
210
0.0
220
0.0
230
1.0
 40
0.4999999999999999
 41
3.974213014087617
 42
5.450564946681762
  0
ELLIPSE
  5
1B9
330
6C
100
AcDbEntity
  8
Visible (ANSI)
100
AcDbEllipse
 10
9.88359270811417
 20
9.899525759338891
 30
0.0
 11
0.0740519643487298
 21
-0.1016568816578477
 31
0.0
210
0.0
220
0.0
230
0.9999999999999998
 40
0.5311185938603357
 41
6.239565645987223
 42
7.484824871523882
  0
LINE
  5
1BA
330
6C
100
AcDbEntity
  8
Visible (ANSI)
100
AcDbLine
 10
9.960667347263504
 20
9.899525759338891
 30
0.0
 11
9.935250839177909
 21
9.955401548666593
 31
0.0
  0
LINE
  5
1BB
330
6C
100
AcDbEntity
  8
Visible (ANSI)
100
AcDbLine
 10
9.954482967767511
 20
9.990394418221006
 30
0.0
 11
9.995816862661758
 21
9.899525759338891
 31
0.0
  0
ELLIPSE
  5
1BC
330
6C
100
AcDbEntity
  8
Visible (ANSI)
100
AcDbEllipse
 10
9.918742223512424
 20
9.899525759338891
 30
0.0
 11
0.0740519643487298
 21
-0.1016568816578477
 31
0.0
210
0.0
220
0.0
230
0.9999999999999998
 40
0.5311185938603358
 41
0.3460492502437203
 42
1.201639564344295
  0
ELLIPSE
  5
1BD
330
6C
100
AcDbEntity
  8
Visible (ANSI)
100
AcDbEllipse
 10
9.918742223512479
 20
10.20777575933889
 30
0.0
 11
0.0740519643486463
 21
0.1016568816578541
 31
0.0
210
0.0
220
0.0
230
1.0
 40
0.5311185938607065
 41
5.081545742835125
 42
5.937136056935454
  0
LINE
  5
1BE
330
6C
100
AcDbEntity
  8
Visible (ANSI)
100
AcDbLine
 10
9.995816862661811
 20
10.20777575933889
 30
0.0
 11
9.954482967767486
 21
10.11690710045645
 31
0.0
  0
LINE
  5
1BF
330
6C
100
AcDbEntity
  8
Visible Narrow (ANSI)
100
AcDbLine
 10
9.995816862661758
 20
9.899525759338891
 30
0.0
 11
9.960667347263504
 21
9.899525759338891
 31
0.0
  0
ELLIPSE
  5
1C0
330
6C
100
AcDbEntity
  8
Visible (ANSI)
100
AcDbEllipse
 10
9.98924873867941
 20
10.05365075933875
 30
0.0
 11
0.0
 21
-0.094
 31
0.0
210
0.0
220
0.0
230
1.0
 40
0.4999999999999999
 41
3.974213014087619
 42
5.45056494668256
  0
LINE
  5
1C1
330
6C
100
AcDbEntity
  8
Visible Narrow (ANSI)
100
AcDbLine
 10
9.960667347263584
 20
10.20777575933889
 30
0.0
 11
9.995816862661811
 21
10.20777575933889
 31
0.0
  0
ELLIPSE
  5
1C2
330
6C
100
AcDbEntity
  8
Visible (ANSI)
100
AcDbEllipse
 10
9.950099460380744
 20
8.207775759338892
 30
0.0
 11
0.1541492782986673
 21
-0.0000000000000001
 31
0.0
210
0.0
220
0.0
230
1.0
 40
0.7071067811865479
 41
1.491899481569279
 42
1.570796326794896
  0
ELLIPSE
  5
1C3
330
6C
100
AcDbEntity
  8
Visible (ANSI)
100
AcDbEllipse
 10
9.950099460380744
 20
7.899525759338891
 30
0.0
 11
0.1541492782986673
 21
-0.0000000000000001
 31
0.0
210
0.0
220
0.0
230
1.0
 40
0.7071067811865479
 41
4.712388980384689
 42
4.791285825610316
  0
ELLIPSE
  5
1C4
330
6C
100
AcDbEntity
  8
Visible (ANSI)
100
AcDbEllipse
 10
9.88359270811425
 20
8.207775759338892
 30
0.0
 11
0.0740519643486462
 21
0.1016568816578542
 31
0.0
210
0.0
220
0.0
230
1.0
 40
0.5311185938607067
 41
5.081545742835125
 42
6.326804968372464
  0
ELLIPSE
  5
1C5
330
6C
100
AcDbEntity
  8
Visible (ANSI)
100
AcDbEllipse
 10
9.88359270811417
 20
7.899525759338891
 30
0.0
 11
0.0740519643487298
 21
-0.1016568816578477
 31
0.0
210
0.0
220
0.0
230
0.9999999999999998
 40
0.5311185938603357
 41
6.239565645986829
 42
7.484824871523882
  0
ELLIPSE
  5
1C6
330
6C
100
AcDbEntity
  8
Visible (ANSI)
100
AcDbEllipse
 10
9.918742223512424
 20
7.899525759338891
 30
0.0
 11
0.0740519643487298
 21
-0.1016568816578477
 31
0.0
210
0.0
220
0.0
230
0.9999999999999998
 40
0.5311185938603358
 41
0.3460492502437203
 42
1.201639564344295
  0
ELLIPSE
  5
1C7
330
6C
100
AcDbEntity
  8
Visible (ANSI)
100
AcDbEllipse
 10
9.918742223512479
 20
8.207775759338892
 30
0.0
 11
0.0740519643486463
 21
0.1016568816578541
 31
0.0
210
0.0
220
0.0
230
1.0
 40
0.5311185938607065
 41
5.081545742835125
 42
5.937136056935454
  0
LINE
  5
1C8
330
6C
100
AcDbEntity
  8
Visible Narrow (ANSI)
100
AcDbLine
 10
9.995816862661756
 20
7.899525759338891
 30
0.0
 11
9.960667347263504
 21
7.899525759338891
 31
0.0
  0
LINE
  5
1C9
330
6C
100
AcDbEntity
  8
Visible Narrow (ANSI)
100
AcDbLine
 10
9.960667347263584
 20
8.207775759338892
 30
0.0
 11
9.995816862661811
 21
8.207775759338892
 31
0.0
  0
LINE
  5
1CA
330
6C
100
AcDbEntity
  8
Visible Narrow (ANSI)
100
AcDbLine
 10
9.745611452478954
 20
7.89643085765304
 30
0.0
 11
9.841958647569853
 21
7.790525759338891
 31
0.0
  0
SPLINE
  5
1CB
330
6C
100
AcDbEntity
  8
Visible Narrow (ANSI)
100
AcDbSpline
210
0.0
220
0.0
230
1.0
 70
     8
 71
     3
 72
    16
 73
    12
 74
     0
 42
0.0000000001
 43
0.0000000001
 40
-0.8744419395799086
 40
-0.8744419395799086
 40
-0.8744419395799086
 40
-0.8744419395799086
 40
-0.7184484342427887
 40
-0.7184484342427887
 40
-0.5069783783291207
 40
-0.5069783783291207
 40
-0.314768595403264
 40
-0.314768595403264
 40
-0.1210648443858708
 40
-0.1210648443858708
 40
0.0
 40
0.0
 40
0.0
 40
0.0
 10
9.745611452478893
 20
8.210870661024408
 30
0.0
 10
9.731835305740537
 20
8.195727883143415
 30
0.0
 10
9.719725093241848
 20
8.178743643520522
 30
0.0
 10
9.696967046089133
 20
8.135954679546367
 30
0.0
 10
9.68826829354819
 20
8.108962755580604
 30
0.0
 10
9.681681252433612
 20
8.056144294246289
 30
0.0
 10
9.682867148463017
 20
8.030444131012977
 30
0.0
 10
9.693829301723628
 20
7.980545628985484
 30
0.0
 10
9.703533248091245
 20
7.956708608067923
 30
0.0
 10
9.725204176406329
 20
7.921058113826751
 30
0.0
 10
9.73491993646026
 20
7.908183001075799
 30
0.0
 10
9.745611452478902
 20
7.896430857653095
 30
0.0
  0
LINE
  5
1CC
330
6C
100
AcDbEntity
  8
Visible Narrow (ANSI)
100
AcDbLine
 10
9.84195864756994
 20
8.316775759338892
 30
0.0
 11
9.745611452478893
 21
8.210870661024408
 31
0.0
  0
SPLINE
  5
1CD
330
6C
100
AcDbEntity
  8
Visible (ANSI)
100
AcDbSpline
210
0.0
220
0.0
230
1.0
 70
     8
 71
     3
 72
    10
 73
     6
 74
     0
 42
0.0000000001
 43
0.0000000001
 40
0.3060993977342387
 40
0.3060993977342387
 40
0.3060993977342387
 40
0.3060993977342387
 40
0.3333273999954133
 40
0.3333273999954133
 40
0.3940483701706071
 40
0.3940483701706071
 40
0.3940483701706071
 40
0.3940483701706071
 10
9.929033801065795
 20
7.79052575933889
 30
0.0
 10
9.932394207422264
 20
7.79052575933889
 30
0.0
 10
9.935577456244475
 20
7.790714483021564
 30
0.0
 10
9.944907164903865
 20
7.79184590131881
 30
0.0
 10
9.950910392059899
 20
7.793622758304738
 30
0.0
 10
9.955219875347811
 20
7.796250538683157
 30
0.0
  0
LINE
  5
1CE
330
6C
100
AcDbEntity
  8
Visible Narrow (ANSI)
100
AcDbLine
 10
9.955219875347856
 20
7.796250538683184
 30
0.0
 11
9.81043219607768
 21
7.955401548666594
 31
0.0
  0
LINE
  5
1CF
330
6C
100
AcDbEntity
  8
Visible Narrow (ANSI)
100
AcDbLine
 10
9.81043219607768
 20
7.955401548666594
 30
0.0
 11
9.745611452478954
 21
7.896430857653039
 31
0.0
  0
LINE
  5
1D0
330
6C
100
AcDbEntity
  8
Visible Narrow (ANSI)
100
AcDbLine
 10
9.810432196077652
 20
8.151899970010923
 30
0.0
 11
9.745611452478893
 21
8.210870661024408
 31
0.0
  0
SPLINE
  5
1D1
330
6C
100
AcDbEntity
  8
Visible Narrow (ANSI)
100
AcDbSpline
210
0.0
220
0.0
230
1.0
 70
     8
 71
     3
 72
    16
 73
    12
 74
     0
 42
0.0000000001
 43
0.0000000001
 40
0.0
 40
0.0
 40
0.0
 40
0.0
 40
0.1210648443858708
 40
0.1210648443858708
 40
0.314768595403264
 40
0.314768595403264
 40
0.5069783783291207
 40
0.5069783783291207
 40
0.7184484342427887
 40
0.7184484342427887
 40
0.8744419395799086
 40
0.8744419395799086
 40
0.8744419395799086
 40
0.8744419395799086
 10
9.810432196077659
 20
7.955401548666588
 30
0.0
 10
9.802076264852773
 20
7.96201912980191
 30
0.0
 10
9.794363609625154
 20
7.969533938614636
 30
0.0
 10
9.776985345317552
 20
7.991060848369441
 30
0.0
 10
9.769018072288341
 20
8.006129914277845
 30
0.0
 10
9.759993218987347
 20
8.038391668548838
 30
0.0
 10
9.759003868508949
 20
8.055324401766489
 30
0.0
 10
9.764444360952008
 20
8.089755567311632
 30
0.0
 10
9.771637032467278
 20
8.10709327836103
 30
0.0
 10
9.790001287694739
 20
8.133360103758171
 30
0.0
 10
9.799665478384023
 20
8.143373137276048
 30
0.0
 10
9.81043219607765
 20
8.151899970010921
 30
0.0
  0
LINE
  5
1D2
330
6C
100
AcDbEntity
  8
Visible Narrow (ANSI)
100
AcDbLine
 10
9.81043219607765
 20
8.151899970010921
 30
0.0
 11
9.955219875347843
 21
8.311050979994606
 31
0.0
  0
SPLINE
  5
1D3
330
6C
100
AcDbEntity
  8
Visible (ANSI)
100
AcDbSpline
210
0.0
220
0.0
230
1.0
 70
     8
 71
     3
 72
    12
 73
     8
 74
     0
 42
0.0000000001
 43
0.0000000001
 40
2.646039954442691
 40
2.646039954442691
 40
2.646039954442691
 40
2.646039954442691
 40
2.650787710714355
 40
2.650787710714355
 40
2.722459923583182
 40
2.722459923583182
 40
2.73480395506787
 40
2.73480395506787
 40
2.73480395506787
 40
2.73480395506787
 10
9.955219875347843
 20
8.311050979994606
 30
0.0
 10
9.954886091738591
 20
8.31125451020007
 30
0.0
 10
9.954542777378209
 20
8.311453394417947
 30
0.0
 10
9.948867187388303
 20
8.314576160415326
 30
0.0
 10
9.941247279055536
 20
8.316284082425413
 30
0.0
 10
9.931844569606971
 20
8.316743161667472
 30
0.0
 10
9.93044632768359
 20
8.316775759338892
 30
0.0
 10
9.929033801065804
 20
8.316775759338892
 30
0.0
  0
LINE
  5
1D4
330
6C
100
AcDbEntity
  8
Visible Narrow (ANSI)
100
AcDbLine
 10
9.099784893493485
 20
14.36738892356433
 30
0.0
 11
9.099784893493485
 21
5.621805701499896
 31
0.0
  0
SPLINE
  5
1D5
330
6C
100
AcDbEntity
  8
Visible (ANSI)
100
AcDbSpline
210
0.0
220
0.0
230
1.0
 70
     8
 71
     3
 72
    14
 73
    10
 74
     0
 42
0.0000000001
 43
0.0000000001
 40
0.0
 40
0.0
 40
0.0
 40
0.0
 40
0.0350936145080649
 40
0.0350936145080649
 40
0.1605509949301336
 40
0.1605509949301336
 40
0.2251291995112969
 40
0.2251291995112969
 40
0.2968967263640359
 40
0.2968967263640359
 40
0.2968967263640359
 40
0.2968967263640359
 10
9.099784893493485
 20
14.36738892356433
 30
0.0
 10
9.097521278278794
 20
14.37139969895356
 30
0.0
 10
9.095351815629753
 20
14.37539991206591
 30
0.0
 10
9.085847077770475
 20
14.39393758257539
 30
0.0
 10
9.079225470387052
 20
14.40964443392086
 30
0.0
 10
9.071301210663639
 20
14.43806563079516
 30
0.0
 10
9.069191334030833
 20
14.44778850119682
 30
0.0
 10
9.065662189890272
 20
14.46871345137024
 30
0.0
 10
9.064394425745648
 20
14.47950395307741
 30
0.0
 10
9.063431308522508
 20
14.49115075933885
 30
0.0
  0
SPLINE
  5
1D6
330
6C
100
AcDbEntity
  8
Visible (ANSI)
100
AcDbSpline
210
0.0
220
0.0
230
1.0
 70
     8
 71
     3
 72
    10
 73
     6
 74
     0
 42
0.0000000001
 43
0.0000000001
 40
0.0
 40
0.0
 40
0.0
 40
0.0
 40
0.0516881461882972
 40
0.0516881461882972
 40
0.1033762923770007
 40
0.1033762923770007
 40
0.1033762923770007
 40
0.1033762923770007
 10
9.063431308522535
 20
14.49115075933888
 30
0.0
 10
9.06255866292531
 20
14.4974914115005
 30
0.0
 10
9.061896125991417
 20
14.50381845418807
 30
0.0
 10
9.061008286622678
 20
14.51649975469111
 30
0.0
 10
9.060784893493485
 20
14.52282679737874
 30
0.0
 10
9.060784893493485
 20
14.5291674495404
 30
0.0
  0
LINE
  5
1D7
330
6C
100
AcDbEntity
  8
Visible Narrow (ANSI)
100
AcDbLine
 10
9.935250839177909
 20
8.151899970010921
 30
0.0
 11
9.81043219607765
 21
8.151899970010921
 31
0.0
  0
LINE
  5
1D8
330
6C
100
AcDbEntity
  8
Visible Narrow (ANSI)
100
AcDbLine
 10
9.935250839177909
 20
7.955401548666594
 30
0.0
 11
9.81043219607768
 21
7.955401548666594
 31
0.0
  0
LINE
  5
1D9
330
6C
100
AcDbEntity
  8
Visible (ANSI)
100
AcDbLine
 10
9.935250839177909
 20
8.151899970010921
 30
0.0
 11
9.960667347263584
 21
8.207775759338892
 31
0.0
  0
ELLIPSE
  5
1DA
330
6C
100
AcDbEntity
  8
Visible (ANSI)
100
AcDbEllipse
 10
9.98924873867941
 20
8.053650759338756
 30
0.0
 11
-0.0000000000000001
 21
-0.146
 31
0.0
210
0.0
220
0.0
230
1.0
 40
0.4999999999999999
 41
3.974213014087625
 42
5.450564946681762
  0
LINE
  5
1DB
330
6C
100
AcDbEntity
  8
Visible (ANSI)
100
AcDbLine
 10
9.960667347263504
 20
7.899525759338891
 30
0.0
 11
9.935250839177909
 21
7.955401548666594
 31
0.0
  0
LINE
  5
1DC
330
6C
100
AcDbEntity
  8
Visible (ANSI)
100
AcDbLine
 10
9.954482967767511
 20
7.990394418221008
 30
0.0
 11
9.995816862661756
 21
7.899525759338891
 31
0.0
  0
LINE
  5
1DD
330
6C
100
AcDbEntity
  8
Visible (ANSI)
100
AcDbLine
 10
9.995816862661811
 20
8.207775759338892
 30
0.0
 11
9.954482967767486
 21
8.116907100456453
 31
0.0
  0
ELLIPSE
  5
1DE
330
6C
100
AcDbEntity
  8
Visible (ANSI)
100
AcDbEllipse
 10
9.98924873867941
 20
8.053650759338756
 30
0.0
 11
0.0
 21
-0.094
 31
0.0
210
0.0
220
0.0
230
1.0
 40
0.4999999999999999
 41
3.974213014087619
 42
5.45056494668256
  0
LINE
  5
1DF
330
6C
100
AcDbEntity
  8
Visible Narrow (ANSI)
100
AcDbLine
 10
9.872958107510761
 20
14.02525470660617
 30
0.0
 11
9.730058735216763
 21
13.86167675200136
 31
0.0
  0
LINE
  5
1E0
330
6C
100
AcDbEntity
  8
Visible Narrow (ANSI)
100
AcDbLine
 10
9.795631591767001
 20
13.80439323807559
 30
0.0
 11
9.730058735216763
 21
13.86167675200136
 31
0.0
  0
LINE
  5
1E1
330
6C
100
AcDbEntity
  8
Visible Narrow (ANSI)
100
AcDbLine
 10
9.795631591767001
 20
13.80439323807559
 30
0.0
 11
9.950117104125874
 21
13.98123393178942
 31
0.0
  0
LINE
  5
1E2
330
6C
100
AcDbEntity
  8
Visible Narrow (ANSI)
100
AcDbLine
 10
9.795631591767001
 20
13.67815828060219
 30
0.0
 11
9.730058735216765
 21
13.62087476667642
 31
0.0
  0
ARC
  5
1E3
330
6C
100
AcDbEntity
  8
Visible Narrow (ANSI)
100
AcDbCircle
 10
9.867882630423215
 20
13.74127575933889
 30
0.0
 40
0.0959376292649535
100
AcDbArc
 50
138.8600000000013
 51
221.1400000000011
  0
ARC
  5
1E4
330
6C
100
AcDbEntity
  8
Visible Narrow (ANSI)
100
AcDbCircle
 10
9.867882630423213
 20
13.74127575933889
 30
0.0
 40
0.1830077187552118
100
AcDbArc
 50
138.8600000000001
 51
221.1400000000011
  0
LINE
  5
1E5
330
6C
100
AcDbEntity
  8
Visible Narrow (ANSI)
100
AcDbLine
 10
9.950246727805065
 20
13.50116920571656
 30
0.0
 11
9.795631591767001
 21
13.67815828060219
 31
0.0
  0
LINE
  5
1E6
330
6C
100
AcDbEntity
  8
Visible Narrow (ANSI)
100
AcDbLine
 10
9.730058735216765
 20
13.62087476667642
 30
0.0
 11
9.873120914100052
 21
13.45711044618039
 31
0.0
  0
LINE
  5
1E7
330
6C
100
AcDbEntity
  8
Visible Narrow (ANSI)
100
AcDbLine
 10
9.730058735216788
 20
11.18337476667644
 30
0.0
 11
9.873120914100082
 21
11.0196104461804
 31
0.0
  0
ARC
  5
1E8
330
6C
100
AcDbEntity
  8
Visible Narrow (ANSI)
100
AcDbCircle
 10
9.867882630423215
 20
11.30377575933889
 30
0.0
 40
0.1830077187551822
100
AcDbArc
 50
138.8600000000005
 51
221.1400000000001
  0
LINE
  5
1E9
330
6C
100
AcDbEntity
  8
Visible Narrow (ANSI)
100
AcDbLine
 10
9.872958107510791
 20
11.58775470660615
 30
0.0
 11
9.730058735216786
 21
11.42417675200134
 31
0.0
  0
LINE
  5
1EA
330
6C
100
AcDbEntity
  8
Visible Narrow (ANSI)
100
AcDbLine
 10
9.730058735216809
 20
8.808374766676459
 30
0.0
 11
9.873120914100113
 21
8.644610446180411
 31
0.0
  0
ARC
  5
1EB
330
6C
100
AcDbEntity
  8
Visible Narrow (ANSI)
100
AcDbCircle
 10
9.867882630423213
 20
8.92877575933889
 30
0.0
 40
0.1830077187551525
100
AcDbArc
 50
138.8599999999999
 51
221.1399999999998
  0
LINE
  5
1EC
330
6C
100
AcDbEntity
  8
Visible Narrow (ANSI)
100
AcDbLine
 10
9.87295810751082
 20
9.212754706606146
 30
0.0
 11
9.730058735216809
 21
9.04917675200132
 31
0.0
  0
LINE
  5
1ED
330
6C
100
AcDbEntity
  8
Visible Narrow (ANSI)
100
AcDbLine
 10
9.795631591767024
 20
11.36689323807557
 30
0.0
 11
9.730058735216786
 21
11.42417675200134
 31
0.0
  0
LINE
  5
1EE
330
6C
100
AcDbEntity
  8
Visible Narrow (ANSI)
100
AcDbLine
 10
9.795631591767024
 20
11.36689323807557
 30
0.0
 11
9.950117104125899
 21
11.54373393178939
 31
0.0
  0
LINE
  5
1EF
330
6C
100
AcDbEntity
  8
Visible Narrow (ANSI)
100
AcDbLine
 10
9.795631591767024
 20
11.24065828060221
 30
0.0
 11
9.730058735216788
 21
11.18337476667644
 31
0.0
  0
ARC
  5
1F0
330
6C
100
AcDbEntity
  8
Visible Narrow (ANSI)
100
AcDbCircle
 10
9.867882630423213
 20
11.30377575933889
 30
0.0
 40
0.0959376292649205
100
AcDbArc
 50
138.8599999999996
 51
221.1400000000003
  0
LINE
  5
1F1
330
6C
100
AcDbEntity
  8
Visible Narrow (ANSI)
100
AcDbLine
 10
9.950246727805089
 20
11.06366920571658
 30
0.0
 11
9.795631591767023
 21
11.24065828060221
 31
0.0
  0
LINE
  5
1F2
330
6C
100
AcDbEntity
  8
Visible Narrow (ANSI)
100
AcDbLine
 10
9.795631591767048
 20
8.991893238075553
 30
0.0
 11
9.730058735216807
 21
9.04917675200132
 31
0.0
  0
LINE
  5
1F3
330
6C
100
AcDbEntity
  8
Visible Narrow (ANSI)
100
AcDbLine
 10
9.795631591767048
 20
8.991893238075551
 30
0.0
 11
9.950117104125922
 21
9.168733931789379
 31
0.0
  0
LINE
  5
1F4
330
6C
100
AcDbEntity
  8
Visible Narrow (ANSI)
100
AcDbLine
 10
9.795631591767046
 20
8.865658280602227
 30
0.0
 11
9.730058735216809
 21
8.808374766676459
 31
0.0
  0
ARC
  5
1F5
330
6C
100
AcDbEntity
  8
Visible Narrow (ANSI)
100
AcDbCircle
 10
9.867882630423213
 20
8.92877575933889
 30
0.0
 40
0.0959376292648938
100
AcDbArc
 50
138.8600000000001
 51
221.1399999999999
  0
LINE
  5
1F6
330
6C
100
AcDbEntity
  8
Visible Narrow (ANSI)
100
AcDbLine
 10
9.950246727805113
 20
8.688669205716603
 30
0.0
 11
9.795631591767046
 21
8.865658280602227
 31
0.0
  0
LINE
  5
1F7
330
6C
100
AcDbEntity
  8
Visible Narrow (ANSI)
100
AcDbLine
 10
9.099784893493485
 20
14.37808275324482
 30
0.0
 11
9.099784893493485
 21
14.36738892356433
 31
0.0
  0
LINE
  5
1F8
330
6C
100
AcDbEntity
  8
Visible (ANSI)
100
AcDbLine
 10
9.065439777153715
 20
14.49115075933888
 30
0.0
 11
9.063431308522508
 21
14.49115075933888
 31
0.0
  0
SPLINE
  5
1F9
330
6C
100
AcDbEntity
  8
Visible (ANSI)
100
AcDbSpline
210
0.0
220
0.0
230
1.0
 70
     8
 71
     3
 72
    10
 73
     6
 74
     0
 42
0.0000000001
 43
0.0000000001
 40
0.0
 40
0.0
 40
0.0
 40
0.0
 40
0.0688948915785397
 40
0.0688948915785397
 40
0.137789783162893
 40
0.137789783162893
 40
0.137789783162893
 40
0.137789783162893
 10
9.060784893493485
 20
14.54179501384439
 30
0.0
 10
9.060784893493485
 20
14.53334358557692
 30
0.0
 10
9.061181774546595
 20
14.52492431034299
 30
0.0
 10
9.062751255010391
 20
14.50802146284172
 30
0.0
 10
9.063917855681937
 20
14.49960218760707
 30
0.0
 10
9.065439777153715
 20
14.49115075933888
 30
0.0
  0
SPLINE
  5
1FA
330
6C
100
AcDbEntity
  8
Visible (ANSI)
100
AcDbSpline
210
0.0
220
0.0
230
1.0
 70
     8
 71
     3
 72
     8
 73
     4
 74
     0
 42
0.0000000001
 43
0.0000000001
 40
0.0
 40
0.0
 40
0.0
 40
0.0
 40
0.0353312235292303
 40
0.0353312235292303
 40
0.0353312235292303
 40
0.0353312235292303
 10
9.099784893493485
 20
14.37808275324482
 30
0.0
 10
9.096252781043382
 20
14.38108652498349
 30
0.0
 10
9.092818936577426
 20
14.38410160470323
 30
0.0
 10
9.08948915825352
 20
14.38713716377136
 30
0.0
  0
SPLINE
  5
1FB
330
6C
100
AcDbEntity
  8
Visible (ANSI)
100
AcDbSpline
210
0.0
220
0.0
230
1.0
 70
     8
 71
     3
 72
    14
 73
    10
 74
     0
 42
0.0000000001
 43
0.0000000001
 40
0.0
 40
0.0
 40
0.0
 40
0.0
 40
0.09317344382685
 40
0.09317344382685
 40
0.2164992531505061
 40
0.2164992531505061
 40
0.2716974984222022
 40
0.2716974984222022
 40
0.3231571569313875
 40
0.3231571569313875
 40
0.3231571569313875
 40
0.3231571569313875
 10
9.065439777153715
 20
14.49115075933888
 30
0.0
 10
9.066754671760651
 20
14.4792424040026
 30
0.0
 10
9.068404240013132
 20
14.46826925574153
 30
0.0
 10
9.073761348236992
 20
14.44220965412779
 30
0.0
 10
9.07780394805928
 20
14.4280032265905
 30
0.0
 10
9.085597097748546
 20
14.40757952376368
 30
0.0
 10
9.088248285998163
 20
14.4013569883814
 30
0.0
 10
9.093828491103991
 20
14.38943758047889
 30
0.0
 10
9.096715449186769
 20
14.38376533829741
 30
0.0
 10
9.099784893493485
 20
14.37808275324482
 30
0.0
  0
ELLIPSE
  5
1FC
330
6C
100
AcDbEntity
  8
Visible (ANSI)
100
AcDbEllipse
 10
9.898729452226637
 20
13.87927575933889
 30
0.0
 11
0.0825403126266689
 21
0.1167740769443877
 31
0.0
210
0.0
220
0.0
230
1.0
 40
0.5402951622299562
 41
5.077196034832752
 42
5.493508574811404
  0
ELLIPSE
  5
1FD
330
6C
100
AcDbEntity
  8
Visible (ANSI)
100
AcDbEllipse
 10
9.898838650447022
 20
13.60302575933889
 30
0.0
 11
0.0825403126266693
 21
-0.1167740769443888
 31
0.0
210
0.0
220
0.0
230
1.0
 40
0.5402951622299517
 41
0.7907243984421016
 42
1.205989272346839
  0
ELLIPSE
  5
1FE
330
6C
100
AcDbEntity
  8
Visible (ANSI)
100
AcDbEllipse
 10
9.898729452226637
 20
11.44177575933889
 30
0.0
 11
0.0825403126266689
 21
0.1167740769443877
 31
0.0
210
0.0
220
0.0
230
1.0
 40
0.5402951622299562
 41
5.077196034832763
 42
5.493508574811377
  0
ELLIPSE
  5
1FF
330
6C
100
AcDbEntity
  8
Visible (ANSI)
100
AcDbEllipse
 10
9.898838650447022
 20
11.16552575933889
 30
0.0
 11
0.0825403126266693
 21
-0.1167740769443888
 31
0.0
210
0.0
220
0.0
230
0.9999999999999998
 40
0.5402951622299516
 41
0.7907243984421335
 42
1.205989272346839
  0
ELLIPSE
  5
200
330
6C
100
AcDbEntity
  8
Visible (ANSI)
100
AcDbEllipse
 10
9.898729452226637
 20
9.066775759338892
 30
0.0
 11
0.0825403126266689
 21
0.1167740769443877
 31
0.0
210
0.0
220
0.0
230
1.0
 40
0.5402951622299562
 41
5.077196034832763
 42
5.493508574811416
  0
ELLIPSE
  5
201
330
6C
100
AcDbEntity
  8
Visible (ANSI)
100
AcDbEllipse
 10
9.898838650447022
 20
8.790525759338891
 30
0.0
 11
0.0825403126266693
 21
-0.1167740769443888
 31
0.0
210
0.0
220
0.0
230
1.0
 40
0.5402951622299517
 41
0.7907243984421202
 42
1.205989272346839
  0
LINE
  5
202
330
6C
100
AcDbEntity
  8
Visible (ANSI)
100
AcDbLine
 10
9.953852837801424
 20
13.80311846951119
 30
0.0
 11
9.987117799874956
 21
13.87927575933889
 31
0.0
  0
ELLIPSE
  5
203
330
6C
100
AcDbEntity
  8
Visible (ANSI)
100
AcDbEllipse
 10
9.989248738688903
 20
13.74127575933889
 30
0.0
 11
0.0
 21
0.094
 31
0.0
210
0.0
220
0.0
230
1.0
 40
0.4999999999999999
 41
0.8527678725244296
 42
2.288824781065363
  0
LINE
  5
204
330
6C
100
AcDbEntity
  8
Visible (ANSI)
100
AcDbLine
 10
9.987226998095341
 20
13.60302575933889
 30
0.0
 11
9.953852837801422
 21
13.67943304916659
 31
0.0
  0
LINE
  5
205
330
6C
100
AcDbEntity
  8
Visible (ANSI)
100
AcDbLine
 10
9.953852837801424
 20
11.36561846951119
 30
0.0
 11
9.987117799874956
 21
11.44177575933889
 31
0.0
  0
ELLIPSE
  5
206
330
6C
100
AcDbEntity
  8
Visible (ANSI)
100
AcDbEllipse
 10
9.989248738688903
 20
11.30377575933889
 30
0.0
 11
0.0
 21
0.094
 31
0.0
210
0.0
220
0.0
230
1.0
 40
0.4999999999999999
 41
0.8527678725244296
 42
2.288824781065363
  0
LINE
  5
207
330
6C
100
AcDbEntity
  8
Visible (ANSI)
100
AcDbLine
 10
9.987226998095341
 20
11.16552575933889
 30
0.0
 11
9.953852837801422
 21
11.24193304916659
 31
0.0
  0
LINE
  5
208
330
6C
100
AcDbEntity
  8
Visible (ANSI)
100
AcDbLine
 10
9.953852837801424
 20
8.990618469511188
 30
0.0
 11
9.987117799874956
 21
9.066775759338892
 31
0.0
  0
ELLIPSE
  5
209
330
6C
100
AcDbEntity
  8
Visible (ANSI)
100
AcDbEllipse
 10
9.989248738688903
 20
8.92877575933889
 30
0.0
 11
0.0
 21
0.094
 31
0.0
210
0.0
220
0.0
230
1.0
 40
0.4999999999999999
 41
0.8527678725244296
 42
2.288824781065363
  0
LINE
  5
20A
330
6C
100
AcDbEntity
  8
Visible (ANSI)
100
AcDbLine
 10
9.987226998095341
 20
8.790525759338891
 30
0.0
 11
9.953852837801422
 21
8.866933049166592
 31
0.0
  0
LINE
  5
20B
330
6C
100
AcDbEntity
  8
Visible Narrow (ANSI)
100
AcDbLine
 10
9.953852837801422
 20
13.67943304916659
 30
0.0
 11
9.797090828648174
 21
13.67943304916659
 31
0.0
  0
LINE
  5
20C
330
6C
100
AcDbEntity
  8
Visible Narrow (ANSI)
100
AcDbLine
 10
9.953852837801424
 20
13.80311846951119
 30
0.0
 11
9.797090828648176
 21
13.80311846951119
 31
0.0
  0
LINE
  5
20D
330
6C
100
AcDbEntity
  8
Visible Narrow (ANSI)
100
AcDbLine
 10
9.797090828648174
 20
13.67943304916659
 30
0.0
 11
9.795631591767001
 21
13.67815828060219
 31
0.0
  0
ARC
  5
20E
330
6C
100
AcDbEntity
  8
Visible (ANSI)
100
AcDbCircle
 10
9.867882630423133
 20
13.74127575933889
 30
0.0
 40
0.094
100
AcDbArc
 50
138.8599999999999
 51
221.14
  0
LINE
  5
20F
330
6C
100
AcDbEntity
  8
Visible Narrow (ANSI)
100
AcDbLine
 10
9.797090828648176
 20
13.80311846951119
 30
0.0
 11
9.795631591767001
 21
13.80439323807559
 31
0.0
  0
LINE
  5
210
330
6C
100
AcDbEntity
  8
Visible Narrow (ANSI)
100
AcDbLine
 10
9.797090828648215
 20
11.24193304916659
 30
0.0
 11
9.795631591767023
 21
11.24065828060221
 31
0.0
  0
ARC
  5
211
330
6C
100
AcDbEntity
  8
Visible (ANSI)
100
AcDbCircle
 10
9.867882630423174
 20
11.30377575933889
 30
0.0
 40
0.094
100
AcDbArc
 50
138.8599999999999
 51
221.14
  0
LINE
  5
212
330
6C
100
AcDbEntity
  8
Visible Narrow (ANSI)
100
AcDbLine
 10
9.797090828648215
 20
11.36561846951119
 30
0.0
 11
9.795631591767024
 21
11.36689323807557
 31
0.0
  0
LINE
  5
213
330
6C
100
AcDbEntity
  8
Visible Narrow (ANSI)
100
AcDbLine
 10
9.797090828648254
 20
8.866933049166592
 30
0.0
 11
9.795631591767046
 21
8.865658280602227
 31
0.0
  0
ARC
  5
214
330
6C
100
AcDbEntity
  8
Visible (ANSI)
100
AcDbCircle
 10
9.867882630423213
 20
8.92877575933889
 30
0.0
 40
0.094
100
AcDbArc
 50
138.8599999999999
 51
221.14
  0
LINE
  5
215
330
6C
100
AcDbEntity
  8
Visible Narrow (ANSI)
100
AcDbLine
 10
9.797090828648256
 20
8.990618469511188
 30
0.0
 11
9.795631591767048
 21
8.991893238075551
 31
0.0
  0
LINE
  5
216
330
6C
100
AcDbEntity
  8
Visible Narrow (ANSI)
100
AcDbLine
 10
9.953852837801422
 20
11.24193304916659
 30
0.0
 11
9.797090828648215
 21
11.24193304916659
 31
0.0
  0
LINE
  5
217
330
6C
100
AcDbEntity
  8
Visible Narrow (ANSI)
100
AcDbLine
 10
9.953852837801424
 20
11.36561846951119
 30
0.0
 11
9.797090828648215
 21
11.36561846951119
 31
0.0
  0
LINE
  5
218
330
6C
100
AcDbEntity
  8
Visible Narrow (ANSI)
100
AcDbLine
 10
9.953852837801422
 20
8.866933049166592
 30
0.0
 11
9.797090828648254
 21
8.866933049166592
 31
0.0
  0
LINE
  5
219
330
6C
100
AcDbEntity
  8
Visible Narrow (ANSI)
100
AcDbLine
 10
9.953852837801424
 20
8.990618469511188
 30
0.0
 11
9.797090828648256
 21
8.990618469511188
 31
0.0
  0
ARC
  5
21A
330
6C
100
AcDbEntity
  8
Visible (ANSI)
100
AcDbCircle
 10
9.106784893493484
 20
4.142163146510615
 30
0.0
 40
0.092
100
AcDbArc
 50
180.0
 51
225.0000000000003
  0
LINE
  5
21B
330
6C
100
AcDbEntity
  8
Visible Narrow (ANSI)
100
AcDbLine
 10
9.074257981558902
 20
4.109636234576034
 30
0.0
 11
9.041731069624322
 21
4.077109322641452
 31
0.0
  0
ARC
  5
21C
330
6C
100
AcDbEntity
  8
Visible (ANSI)
100
AcDbCircle
 10
9.106784893493484
 20
4.142163146510615
 30
0.0
 40
0.0460000000000001
100
AcDbArc
 50
180.0
 51
224.9999999999994
  0
LINE
  5
21D
330
6C
100
AcDbEntity
  8
Visible Narrow (ANSI)
100
AcDbLine
 10
9.014784893493484
 20
4.142163146510615
 30
0.0
 11
9.060784893493485
 21
4.142163146510615
 31
0.0
  0
LINE
  5
21E
330
6C
100
AcDbEntity
  8
Visible (ANSI)
100
AcDbLine
 10
9.106784893493484
 20
5.59574807305831
 30
0.0
 11
9.106784893493484
 21
5.517400759338891
 31
0.0
  0
LINE
  5
21F
330
6C
100
AcDbEntity
  8
Visible (ANSI)
100
AcDbLine
 10
9.106784893493484
 20
4.339900759338893
 30
0.0
 11
9.106784893493484
 21
5.517400759338891
 31
0.0
  0
LINE
  5
220
330
6C
100
AcDbEntity
  8
Visible (ANSI)
100
AcDbLine
 10
9.106784893493484
 20
4.339900759338892
 30
0.0
 11
9.106784893493484
 21
4.261553445619471
 31
0.0
  0
ARC
  5
221
330
6C
100
AcDbEntity
  8
Visible (ANSI)
100
AcDbCircle
 10
9.054784893493485
 20
4.261553445619471
 30
0.0
 40
0.0520000000000171
100
AcDbArc
 50
276.6258095648218
 51
0.0
  0
LINE
  5
222
330
6C
100
AcDbEntity
  8
Visible Narrow (ANSI)
100
AcDbLine
 10
9.106784893493486
 20
4.339900759338893
 30
0.0
 11
9.060784893493485
 21
4.339900759338894
 31
0.0
  0
LINE
  5
223
330
6C
100
AcDbEntity
  8
Visible Narrow (ANSI)
100
AcDbLine
 10
9.106784893493486
 20
5.517400759338891
 30
0.0
 11
9.060784893493485
 21
5.517400759338892
 31
0.0
  0
ARC
  5
224
330
6C
100
AcDbEntity
  8
Visible (ANSI)
100
AcDbCircle
 10
9.054784893493485
 20
5.595748073058304
 30
0.0
 40
0.052
100
AcDbArc
 50
0.0
 51
83.37419043517604
  0
ARC
  5
225
330
6C
100
AcDbEntity
  8
Visible (ANSI)
100
AcDbCircle
 10
9.154437030979552
 20
4.020971903781145
 30
0.0
 40
0.052
100
AcDbArc
 50
44.99999999999999
 51
128.3741904351762
  0
LINE
  5
226
330
6C
100
AcDbEntity
  8
Visible Narrow (ANSI)
100
AcDbLine
 10
9.246606500420007
 20
4.002341539584103
 30
0.0
 11
9.214079588485422
 21
3.969814627649516
 31
0.0
  0
LINE
  5
227
330
6C
100
AcDbEntity
  8
Visible (ANSI)
100
AcDbLine
 10
9.191206583601251
 20
4.057741456402846
 30
0.0
 11
9.246606500420002
 21
4.002341539584097
 31
0.0
  0
LINE
  5
228
330
6C
100
AcDbEntity
  8
Visible Narrow (ANSI)
100
AcDbLine
 10
9.725671344673886
 20
3.523276695330213
 30
0.0
 11
9.693144432739307
 21
3.490749783395632
 31
0.0
  0
LINE
  5
229
330
6C
100
AcDbEntity
  8
Visible (ANSI)
100
AcDbLine
 10
9.725671344673886
 20
3.523276695330213
 30
0.0
 11
9.246606500420002
 21
4.002341539584097
 31
0.0
  0
ARC
  5
22A
330
6C
100
AcDbEntity
  8
Visible (ANSI)
100
AcDbCircle
 10
9.74430170887093
 20
3.431107225889768
 30
0.0
 40
0.0520000000000089
100
AcDbArc
 50
321.6258095648221
 51
45.00000000000055
  0
LINE
  5
22B
330
6C
100
AcDbEntity
  8
Visible (ANSI)
100
AcDbLine
 10
9.725671344673887
 20
3.523276695330211
 30
0.0
 11
9.78107126149263
 21
3.467876778511469
 31
0.0
  0
LINE
  5
22C
330
6C
100
AcDbEntity
  8
Visible (ANSI)
100
AcDbLine
 10
10.52593944428176
 20
2.592900947984015
 30
0.0
 11
10.0876449262558
 21
3.031195466009972
 31
0.0
  0
SPLINE
  5
22D
330
6C
100
AcDbEntity
  8
Visible (ANSI)
100
AcDbSpline
210
0.0
220
0.0
230
1.0
 70
     8
 71
     3
 72
    18
 73
    14
 74
     0
 42
0.0000000001
 43
0.0000000001
 40
0.0
 40
0.0
 40
0.0
 40
0.0
 40
0.0301064004467197
 40
0.0301064004467197
 40
0.0758187666520148
 40
0.0758187666520148
 40
0.1202549308052716
 40
0.1202549308052716
 40
0.1643611379631728
 40
0.1643611379631728
 40
0.1908355395248424
 40
0.1908355395248424
 40
0.2254893062538135
 40
0.2254893062538135
 40
0.2254893062538135
 40
0.2254893062538135
 10
10.15296984272682
 20
3.095978197277282
 30
0.0
 10
10.15184919192067
 20
3.092189488382019
 30
0.0
 10
10.15002239069885
 20
3.086612512009169
 30
0.0
 10
10.14295314533617
 20
3.070291661306923
 30
0.0
 10
10.13779305048779
 20
3.061261793590861
 30
0.0
 10
10.12705035474427
 20
3.04582307756994
 30
0.0
 10
10.12161339105716
 20
3.039534178480396
 30
0.0
 10
10.11122445887715
 20
3.030265806833289
 30
0.0
 10
10.10639216976819
 20
3.027372182003122
 30
0.0
 10
10.09931654171658
 20
3.025782603746977
 30
0.0
 10
10.09683604323213
 20
3.025879736546933
 30
0.0
 10
10.09139678396304
 20
3.027710928446134
 30
0.0
 10
10.08910477644805
 20
3.029735615817725
 30
0.0
 10
10.0876449262558
 20
3.031195466009972
 30
0.0
  0
SPLINE
  5
22E
330
6C
100
AcDbEntity
  8
Visible (ANSI)
100
AcDbSpline
210
0.0
220
0.0
230
1.0
 70
     8
 71
     3
 72
    12
 73
     8
 74
     0
 42
0.0000000001
 43
0.0000000001
 40
0.0
 40
0.0
 40
0.0
 40
0.0
 40
0.0183373295435009
 40
0.0183373295435009
 40
0.0434606194359188
 40
0.0434606194359188
 40
0.0455839692006157
 40
0.0455839692006157
 40
0.0455839692006157
 40
0.0455839692006157
 10
10.12017183819038
 20
3.063722377944553
 30
0.0
 10
10.12143438278606
 20
3.062459833348877
 30
0.0
 10
10.12318471484951
 20
3.060811708178753
 30
0.0
 10
10.12803005902576
 20
3.057461810072548
 30
0.0
 10
10.13083704710759
 20
3.056367221459961
 30
0.0
 10
10.13394565065633
 20
3.056468379291911
 30
0.0
 10
10.13418756827177
 20
3.056484753910796
 30
0.0
 10
10.13442910154733
 20
3.05650968044395
 30
0.0
  0
LINE
  5
22F
330
6C
100
AcDbEntity
  8
Visible (ANSI)
100
AcDbLine
 10
10.10622830726321
 20
3.049778847017383
 30
0.0
 11
10.12017183819038
 21
3.063722377944553
 31
0.0
  0
LINE
  5
230
330
6C
100
AcDbEntity
  8
Visible (ANSI)
100
AcDbLine
 10
10.0876449262558
 20
3.031195466009972
 30
0.0
 11
10.10622830726321
 21
3.049778847017383
 31
0.0
  0
LINE
  5
231
330
6C
100
AcDbEntity
  8
Visible (ANSI)
100
AcDbLine
 10
10.59099326815092
 20
2.657954771853176
 30
0.0
 11
10.52593944428176
 21
2.592900947984015
 31
0.0
  0
LINE
  5
232
330
6C
100
AcDbEntity
  8
Visible Narrow (ANSI)
100
AcDbLine
 10
10.15296984272682
 20
3.095978197277282
 30
0.0
 11
10.59099326815092
 21
2.657954771853177
 31
0.0
  0
ENDSEC
  0
SECTION
  2
OBJECTS
  0
DICTIONARY
  5
C
330
0
100
AcDbDictionary
281
     1
  3
ACAD_CIP_PREVIOUS_PRODUCT_INFO
350
233
  3
ACAD_COLOR
350
63
  3
ACAD_GROUP
350
D
  3
ACAD_LAYOUT
350
62
  3
ACAD_MATERIAL
350
10
  3
ACAD_MLEADERSTYLE
350
66
  3
ACAD_MLINESTYLE
350
5F
  3
ACAD_PLOTSETTINGS
350
61
  3
ACAD_PLOTSTYLENAME
350
E
  3
ACAD_SCALELIST
350
42
  3
ACAD_TABLESTYLE
350
64
  3
ACAD_VISUALSTYLE
350
29
  3
ACDB_RECOMPOSE_DATA
350
28B
  3
AcDbVariableDictionary
350
76
  3
DWGPROPS
350
28C
  0
DICTIONARY
  5
23A
330
8
100
AcDbDictionary
280
     1
281
     1
  0
XRECORD
  5
233
102
{ACAD_REACTORS
330
C
102
}
330
C
100
AcDbXrecord
280
     1
300
AMECH_PP
300
2012
300
85796PDSU_2012_0F
  0
DICTIONARY
  5
63
102
{ACAD_REACTORS
330
C
102
}
330
C
100
AcDbDictionary
281
     1
  0
DICTIONARY
  5
D
102
{ACAD_REACTORS
330
C
102
}
330
C
100
AcDbDictionary
281
     1
  0
DICTIONARY
  5
62
102
{ACAD_REACTORS
330
C
102
}
330
C
100
AcDbDictionary
281
     1
  3
Layout1
350
6B
  3
Layout2
350
73
  3
Model
350
6F
  0
DICTIONARY
  5
10
102
{ACAD_REACTORS
330
C
102
}
330
C
100
AcDbDictionary
281
     1
  3
ByBlock
350
19
  3
ByLayer
350
11
  3
Global
350
21
  0
DICTIONARY
  5
66
102
{ACAD_REACTORS
330
C
102
}
330
C
100
AcDbDictionary
281
     1
  3
Standard
350
67
  0
DICTIONARY
  5
5F
102
{ACAD_REACTORS
330
C
102
}
330
C
100
AcDbDictionary
281
     1
  3
Standard
350
60
  0
DICTIONARY
  5
61
102
{ACAD_REACTORS
330
C
102
}
330
C
100
AcDbDictionary
281
     1
  0
ACDBDICTIONARYWDFLT
  5
E
102
{ACAD_REACTORS
330
C
102
}
330
C
100
AcDbDictionary
281
     1
  3
Normal
350
F
100
AcDbDictionaryWithDefault
340
F
  0
DICTIONARY
  5
42
102
{ACAD_REACTORS
330
C
102
}
330
C
100
AcDbDictionary
281
     1
  3
A0
350
43
  3
A1
350
44
  3
A2
350
45
  3
A3
350
46
  3
A4
350
47
  3
A5
350
48
  3
A6
350
49
  3
A7
350
4A
  3
A8
350
4B
  3
A9
350
4C
  3
B0
350
4D
  3
B1
350
4E
  3
B2
350
4F
  3
B3
350
50
  3
B4
350
51
  3
B5
350
52
  3
B6
350
53
  0
DICTIONARY
  5
64
102
{ACAD_REACTORS
330
C
102
}
330
C
100
AcDbDictionary
281
     1
  3
Standard
350
65
  0
DICTIONARY
  5
29
102
{ACAD_REACTORS
330
C
102
}
330
C
100
AcDbDictionary
281
     1
  3
2dWireframe
350
2F
  3
Basic
350
2E
  3
Brighten
350
35
  3
ColorChange
350
39
  3
Conceptual
350
32
  3
Dim
350
34
  3
EdgeColorOff
350
41
  3
Facepattern
350
38
  3
Flat
350
2A
  3
FlatWithEdges
350
2B
  3
Gouraud
350
2C
  3
GouraudWithEdges
350
2D
  3
Hidden
350
31
  3
JitterOff
350
3F
  3
Linepattern
350
37
  3
OverhangOff
350
40
  3
Realistic
350
33
  3
Shaded
350
3E
  3
Shaded with edges
350
3D
  3
Shades of Gray
350
3A
  3
Sketchy
350
3B
  3
Thicken
350
36
  3
Wireframe
350
30
  3
X-Ray
350
3C
  0
XRECORD
  5
28B
102
{ACAD_REACTORS
330
C
102
}
330
C
100
AcDbXrecord
280
     1
 90
        1
330
65
  0
DICTIONARY
  5
76
102
{ACAD_REACTORS
330
C
102
}
330
C
100
AcDbDictionary
281
     1
  3
CANNOSCALE
350
79
  3
CMLEADERSTYLE
350
78
  3
CTABLESTYLE
350
77
  3
DIMASSOC
350
27E
  3
HIDETEXT
350
27D
  3
INDEXCTL
350
27C
  3
LAYEREVAL
350
279
  3
LAYERNOTIFY
350
27A
  3
LIGHTINGUNITS
350
278
  3
MSLTSCALE
350
277
  3
SORTENTS
350
27B
  3
XCLIPFRAME
350
286
  0
XRECORD
  5
28C
102
{ACAD_REACTORS
330
C
102
}
330
C
100
AcDbXrecord
280
     1
  1
DWGPROPS COOKIE
  2

  3

  4
JIM WALLS
  6

  7

  8
jwalls
  9

300
Manager=
301
Company=
302
Category=
303
Part Number=
304
Description=
305
Project=
306
Designer=JIM WALLS
307
Engineer=
308
Authority=
309
Cost Center=
 40
0.0004089699074074
 41
2456038.588575289
 42
2456038.589807917
  1

 90
       16
300
Vendor=
300
User Status=
300
Design Status=WorkInProgress
300
Checked by=
300
Engr Approved by=
300
Mfg Approved by=
  0
LAYOUT
  5
6B
102
{ACAD_XDICTIONARY
360
2C1
102
}
102
{ACAD_REACTORS
330
62
102
}
330
62
100
AcDbPlotSettings
  1

  2

  4

  6

 40
0.0
 41
0.0
 42
0.0
 43
0.0
 44
0.0
 45
0.0
 46
0.0
 47
0.0
 48
0.0
 49
0.0
140
0.0
141
0.0
142
1.0
143
1.0
 70
   688
 72
     0
 73
     0
 74
     5
  7

 75
    16
147
1.0
148
0.0
149
0.0
100
AcDbLayout
  1
Layout1
 70
     1
 71
     1
 10
0.0
 20
0.0
 11
22.0
 21
17.0
 12
0.0
 22
0.0
 32
0.0
 14
0.0
 24
0.0
 34
0.0
 15
22.0
 25
17.0
 35
0.0
146
0.0
 13
0.0
 23
0.0
 33
0.0
 16
1.0
 26
0.0
 36
0.0
 17
0.0
 27
1.0
 37
0.0
 76
     0
330
68
  0
LAYOUT
  5
73
102
{ACAD_XDICTIONARY
360
2C5
102
}
102
{ACAD_REACTORS
330
62
102
}
330
62
100
AcDbPlotSettings
  1

  2

  4

  6

 40
0.0
 41
0.0
 42
0.0
 43
0.0
 44
0.0
 45
0.0
 46
0.0
 47
0.0
 48
0.0
 49
0.0
140
0.0
141
0.0
142
1.0
143
1.0
 70
   688
 72
     0
 73
     0
 74
     5
  7

 75
    16
147
1.0
148
0.0
149
0.0
100
AcDbLayout
  1
Layout2
 70
     1
 71
     2
 10
0.0
 20
0.0
 11
12.0
 21
9.0
 12
0.0
 22
0.0
 32
0.0
 14
0.0
 24
0.0
 34
0.0
 15
0.0
 25
0.0
 35
0.0
146
0.0
 13
0.0
 23
0.0
 33
0.0
 16
1.0
 26
0.0
 36
0.0
 17
0.0
 27
1.0
 37
0.0
 76
     0
330
70
  0
LAYOUT
  5
6F
102
{ACAD_XDICTIONARY
360
2C3
102
}
102
{ACAD_REACTORS
330
62
102
}
330
62
100
AcDbPlotSettings
  1

  2

  4

  6

 40
0.0
 41
0.0
 42
0.0
 43
0.0
 44
0.0
 45
0.0
 46
0.0
 47
0.0
 48
0.0
 49
0.0
140
0.0
141
0.0
142
1.0
143
1.0
 70
  1712
 72
     0
 73
     0
 74
     0
  7

 75
     0
147
1.0
148
0.0
149
0.0
100
AcDbLayout
  1
Model
 70
     1
 71
     0
 10
0.0
 20
0.0
 11
12.0
 21
9.0
 12
0.0
 22
0.0
 32
0.0
 14
0.0
 24
0.0
 34
0.0
 15
0.0
 25
0.0
 35
0.0
146
0.0
 13
0.0
 23
0.0
 33
0.0
 16
1.0
 26
0.0
 36
0.0
 17
0.0
 27
1.0
 37
0.0
 76
     0
330
6C
331
57
  0
MATERIAL
  5
19
102
{ACAD_XDICTIONARY
360
1A
102
}
102
{ACAD_REACTORS
330
10
102
}
330
10
100
AcDbMaterial
  1
ByBlock
 72
     0
 43
0.0208333333333333
 43
0.0
 43
0.0
 43
0.0
 43
0.0
 43
0.0208333333333333
 43
0.0
 43
0.0
 43
0.0
 43
0.0
 43
1.0
 43
0.0
 43
0.0
 43
0.0
 43
0.0
 43
1.0
 77
     0
 47
0.0208333333333333
 47
0.0
 47
0.0
 47
0.0
 47
0.0
 47
0.0208333333333333
 47
0.0
 47
0.0
 47
0.0
 47
0.0
 47
1.0
 47
0.0
 47
0.0
 47
0.0
 47
0.0
 47
1.0
171
     0
 49
0.0208333333333333
 49
0.0
 49
0.0
 49
0.0
 49
0.0
 49
0.0208333333333333
 49
0.0
 49
0.0
 49
0.0
 49
0.0
 49
1.0
 49
0.0
 49
0.0
 49
0.0
 49
0.0
 49
1.0
175
     0
142
0.0208333333333333
142
0.0
142
0.0
142
0.0
142
0.0
142
0.0208333333333333
142
0.0
142
0.0
142
0.0
142
0.0
142
1.0
142
0.0
142
0.0
142
0.0
142
0.0
142
1.0
179
     0
144
0.0208333333333333
144
0.0
144
0.0
144
0.0
144
0.0
144
0.0208333333333333
144
0.0
144
0.0
144
0.0
144
0.0
144
1.0
144
0.0
144
0.0
144
0.0
144
0.0
144
1.0
147
0.0208333333333333
147
0.0
147
0.0
147
0.0
147
0.0
147
0.0208333333333333
147
0.0
147
0.0
147
0.0
147
0.0
147
1.0
147
0.0
147
0.0
147
0.0
147
0.0
147
1.0
  0
MATERIAL
  5
11
102
{ACAD_XDICTIONARY
360
12
102
}
102
{ACAD_REACTORS
330
10
102
}
330
10
100
AcDbMaterial
  1
ByLayer
 72
     0
 43
0.0208333333333333
 43
0.0
 43
0.0
 43
0.0
 43
0.0
 43
0.0208333333333333
 43
0.0
 43
0.0
 43
0.0
 43
0.0
 43
1.0
 43
0.0
 43
0.0
 43
0.0
 43
0.0
 43
1.0
 77
     0
 47
0.0208333333333333
 47
0.0
 47
0.0
 47
0.0
 47
0.0
 47
0.0208333333333333
 47
0.0
 47
0.0
 47
0.0
 47
0.0
 47
1.0
 47
0.0
 47
0.0
 47
0.0
 47
0.0
 47
1.0
171
     0
 49
0.0208333333333333
 49
0.0
 49
0.0
 49
0.0
 49
0.0
 49
0.0208333333333333
 49
0.0
 49
0.0
 49
0.0
 49
0.0
 49
1.0
 49
0.0
 49
0.0
 49
0.0
 49
0.0
 49
1.0
175
     0
142
0.0208333333333333
142
0.0
142
0.0
142
0.0
142
0.0
142
0.0208333333333333
142
0.0
142
0.0
142
0.0
142
0.0
142
1.0
142
0.0
142
0.0
142
0.0
142
0.0
142
1.0
179
     0
144
0.0208333333333333
144
0.0
144
0.0
144
0.0
144
0.0
144
0.0208333333333333
144
0.0
144
0.0
144
0.0
144
0.0
144
1.0
144
0.0
144
0.0
144
0.0
144
0.0
144
1.0
147
0.0208333333333333
147
0.0
147
0.0
147
0.0
147
0.0
147
0.0208333333333333
147
0.0
147
0.0
147
0.0
147
0.0
147
1.0
147
0.0
147
0.0
147
0.0
147
0.0
147
1.0
  0
MATERIAL
  5
21
102
{ACAD_XDICTIONARY
360
22
102
}
102
{ACAD_REACTORS
330
10
102
}
330
10
100
AcDbMaterial
  1
Global
 72
     0
 43
0.0208333333333333
 43
0.0
 43
0.0
 43
0.0
 43
0.0
 43
0.0208333333333333
 43
0.0
 43
0.0
 43
0.0
 43
0.0
 43
1.0
 43
0.0
 43
0.0
 43
0.0
 43
0.0
 43
1.0
 77
     0
 47
0.0208333333333333
 47
0.0
 47
0.0
 47
0.0
 47
0.0
 47
0.0208333333333333
 47
0.0
 47
0.0
 47
0.0
 47
0.0
 47
1.0
 47
0.0
 47
0.0
 47
0.0
 47
0.0
 47
1.0
171
     0
 49
0.0208333333333333
 49
0.0
 49
0.0
 49
0.0
 49
0.0
 49
0.0208333333333333
 49
0.0
 49
0.0
 49
0.0
 49
0.0
 49
1.0
 49
0.0
 49
0.0
 49
0.0
 49
0.0
 49
1.0
175
     0
142
0.0208333333333333
142
0.0
142
0.0
142
0.0
142
0.0
142
0.0208333333333333
142
0.0
142
0.0
142
0.0
142
0.0
142
1.0
142
0.0
142
0.0
142
0.0
142
0.0
142
1.0
179
     0
144
0.0208333333333333
144
0.0
144
0.0
144
0.0
144
0.0
144
0.0208333333333333
144
0.0
144
0.0
144
0.0
144
0.0
144
1.0
144
0.0
144
0.0
144
0.0
144
0.0
144
1.0
147
0.0208333333333333
147
0.0
147
0.0
147
0.0
147
0.0
147
0.0208333333333333
147
0.0
147
0.0
147
0.0
147
0.0
147
1.0
147
0.0
147
0.0
147
0.0
147
0.0
147
1.0
  0
MLEADERSTYLE
  5
67
102
{ACAD_XDICTIONARY
360
289
102
}
102
{ACAD_REACTORS
330
66
102
}
330
66
100
AcDbMLeaderStyle
170
     2
171
     1
172
     0
 90
        2
 40
0.0
 41
0.0
173
     1
 91
-1056964608
340
5B
 92
       -2
290
     1
 42
0.09
291
     1
 43
0.36
  3
Standard
 44
0.18
300

342
55
174
     1
178
     6
175
     1
176
     0
 93
-1056964608
 45
0.18
292
     0
297
     0
 46
0.18
 94
-1056964608
 47
1.0
 49
1.0
140
1.0
293
     1
141
0.0
294
     1
177
     0
142
1.0
295
     0
296
     0
143
0.125
1001
ACAD_MLEADERVER
1070
     2
  0
MLINESTYLE
  5
60
102
{ACAD_REACTORS
330
5F
102
}
330
5F
100
AcDbMlineStyle
  2
STANDARD
 70
     0
  3

 62
   256
 51
90.0
 52
90.0
 71
     2
 49
0.5
 62
   256
  6
BYLAYER
 49
-0.5
 62
   256
  6
BYLAYER
  0
ACDBPLACEHOLDER
  5
F
102
{ACAD_REACTORS
330
E
102
}
330
E
  0
SCALE
  5
43
102
{ACAD_REACTORS
330
42
102
}
330
42
100
AcDbScale
 70
     0
300
1:1
140
1.0
141
1.0
290
     1
  0
SCALE
  5
44
102
{ACAD_REACTORS
330
42
102
}
330
42
100
AcDbScale
 70
     0
300
1/128" = 1'-0"
140
0.0078125
141
12.0
290
     0
  0
SCALE
  5
45
102
{ACAD_REACTORS
330
42
102
}
330
42
100
AcDbScale
 70
     0
300
1/64" = 1'-0"
140
0.015625
141
12.0
290
     0
  0
SCALE
  5
46
102
{ACAD_REACTORS
330
42
102
}
330
42
100
AcDbScale
 70
     0
300
1/32" = 1'-0"
140
0.03125
141
12.0
290
     0
  0
SCALE
  5
47
102
{ACAD_REACTORS
330
42
102
}
330
42
100
AcDbScale
 70
     0
300
1/16" = 1'-0"
140
0.0625
141
12.0
290
     0
  0
SCALE
  5
48
102
{ACAD_REACTORS
330
42
102
}
330
42
100
AcDbScale
 70
     0
300
3/32" = 1'-0"
140
0.09375
141
12.0
290
     0
  0
SCALE
  5
49
102
{ACAD_REACTORS
330
42
102
}
330
42
100
AcDbScale
 70
     0
300
1/8" = 1'-0"
140
0.125
141
12.0
290
     0
  0
SCALE
  5
4A
102
{ACAD_REACTORS
330
42
102
}
330
42
100
AcDbScale
 70
     0
300
3/16" = 1'-0"
140
0.1875
141
12.0
290
     0
  0
SCALE
  5
4B
102
{ACAD_REACTORS
330
42
102
}
330
42
100
AcDbScale
 70
     0
300
1/4" = 1'-0"
140
0.25
141
12.0
290
     0
  0
SCALE
  5
4C
102
{ACAD_REACTORS
330
42
102
}
330
42
100
AcDbScale
 70
     0
300
3/8" = 1'-0"
140
0.375
141
12.0
290
     0
  0
SCALE
  5
4D
102
{ACAD_REACTORS
330
42
102
}
330
42
100
AcDbScale
 70
     0
300
1/2" = 1'-0"
140
0.5
141
12.0
290
     0
  0
SCALE
  5
4E
102
{ACAD_REACTORS
330
42
102
}
330
42
100
AcDbScale
 70
     0
300
3/4" = 1'-0"
140
0.75
141
12.0
290
     0
  0
SCALE
  5
4F
102
{ACAD_REACTORS
330
42
102
}
330
42
100
AcDbScale
 70
     0
300
1" = 1'-0"
140
1.0
141
12.0
290
     0
  0
SCALE
  5
50
102
{ACAD_REACTORS
330
42
102
}
330
42
100
AcDbScale
 70
     0
300
1-1/2" = 1'-0"
140
1.5
141
12.0
290
     0
  0
SCALE
  5
51
102
{ACAD_REACTORS
330
42
102
}
330
42
100
AcDbScale
 70
     0
300
3" = 1'-0"
140
3.0
141
12.0
290
     0
  0
SCALE
  5
52
102
{ACAD_REACTORS
330
42
102
}
330
42
100
AcDbScale
 70
     0
300
6" = 1'-0"
140
6.0
141
12.0
290
     0
  0
SCALE
  5
53
102
{ACAD_REACTORS
330
42
102
}
330
42
100
AcDbScale
 70
     0
300
1'-0" = 1'-0"
140
12.0
141
12.0
290
     0
  0
TABLESTYLE
  5
65
102
{ACAD_XDICTIONARY
360
234
102
}
102
{ACAD_REACTORS
330
64
102
}
330
64
100
AcDbTableStyle
  3
Standard
 70
     0
 71
     0
 40
0.06
 41
0.06
280
     0
281
     0
  7
Standard
140
0.18
170
     2
 62
     0
 63
     7
283
     0
274
    -2
284
     1
 64
     0
275
    -2
285
     1
 65
     0
276
    -2
286
     1
 66
     0
277
    -2
287
     1
 67
     0
278
    -2
288
     1
 68
     0
279
    -2
289
     1
 69
     0
  7
Standard
140
0.25
170
     5
 62
     0
 63
     7
283
     0
274
    -2
284
     1
 64
     0
275
    -2
285
     1
 65
     0
276
    -2
286
     1
 66
     0
277
    -2
287
     1
 67
     0
278
    -2
288
     1
 68
     0
279
    -2
289
     1
 69
     0
  7
Standard
140
0.18
170
     5
 62
     0
 63
     7
283
     0
274
    -2
284
     1
 64
     0
275
    -2
285
     1
 65
     0
276
    -2
286
     1
 66
     0
277
    -2
287
     1
 67
     0
278
    -2
288
     1
 68
     0
279
    -2
289
     1
 69
     0
  0
VISUALSTYLE
  5
2F
102
{ACAD_XDICTIONARY
360
29A
102
}
102
{ACAD_REACTORS
330
29
102
}
330
29
100
AcDbVisualStyle
  2
2dWireframe
 70
     4
 71
     0
 72
     2
 73
     0
 90
        0
 40
-0.6
 41
-30.0
 62
     5
 63
     7
 74
     1
 91
        4
 64
     7
 65
   257
 75
     1
175
     1
 42
1.0
 92
        0
 66
   257
 43
1.0
 76
     1
 77
     6
 78
     2
 67
     7
 79
     5
170
     0
171
     0
290
     0
174
     0
 93
        1
 44
0.0
173
     0
291
     0
 45
0.0
1001
ACAD
1000
AcDbSavedByObjectVersion
1070
     0
  0
VISUALSTYLE
  5
2E
102
{ACAD_XDICTIONARY
360
298
102
}
102
{ACAD_REACTORS
330
29
102
}
330
29
100
AcDbVisualStyle
  2
Basic
 70
     7
 71
     1
 72
     0
 73
     1
 90
        0
 40
-0.6
 41
-30.0
 62
     5
 63
     7
 74
     0
 91
        4
 64
     7
 65
   257
 75
     1
175
     1
 42
1.0
 92
        8
 66
     7
 43
1.0
 76
     1
 77
     6
 78
     2
 67
     7
 79
     5
170
     0
171
     0
290
     0
174
     0
 93
        1
 44
0.0
173
     0
291
     1
 45
0.0
1001
ACAD
1000
AcDbSavedByObjectVersion
1070
     0
  0
VISUALSTYLE
  5
35
102
{ACAD_XDICTIONARY
360
2A6
102
}
102
{ACAD_REACTORS
330
29
102
}
330
29
100
AcDbVisualStyle
  2
Brighten
 70
    12
 71
     2
 72
     2
 73
     0
 90
        0
 40
-0.6
 41
-30.0
 62
     5
 63
     7
 74
     1
 91
        4
 64
     7
 65
   257
 75
     1
175
     1
 42
1.0
 92
        8
 66
     7
 43
1.0
 76
     1
 77
     6
 78
     2
 67
     7
 79
     5
170
     0
171
     0
290
     0
174
     0
 93
        1
 44
50.0
173
     0
291
     1
 45
0.0
1001
ACAD
1000
AcDbSavedByObjectVersion
1070
     0
  0
VISUALSTYLE
  5
39
102
{ACAD_XDICTIONARY
360
2AE
102
}
102
{ACAD_REACTORS
330
29
102
}
330
29
100
AcDbVisualStyle
  2
ColorChange
 70
    16
 71
     2
 72
     2
 73
     3
 90
        0
 40
-0.6
 41
-30.0
 62
     5
 63
     8
 74
     1
 91
        4
 64
     7
 65
   257
 75
     1
175
     1
 42
1.0
 92
        8
 66
     8
 43
1.0
 76
     1
 77
     6
 78
     2
 67
     7
 79
     5
170
     0
171
     0
290
     0
174
     0
 93
        1
 44
0.0
173
     0
291
     1
 45
0.0
1001
ACAD
1000
AcDbSavedByObjectVersion
1070
     0
  0
VISUALSTYLE
  5
32
102
{ACAD_XDICTIONARY
360
2A0
102
}
102
{ACAD_REACTORS
330
29
102
}
330
29
100
AcDbVisualStyle
  2
Conceptual
 70
     9
 71
     3
 72
     2
 73
     0
 90
        0
 40
-0.6
 41
-30.0
 62
     5
 63
     7
 74
     2
 91
        2
 64
     7
 65
   257
 75
     1
175
     1
 42
179.0
 92
        8
 66
     7
 43
1.0
 76
     1
 77
     6
 78
     2
 67
     7
 79
     3
170
     0
171
     0
290
     0
174
     0
 93
        1
 44
0.0
173
     0
291
     0
 45
0.0
1001
ACAD
1000
AcDbSavedByObjectVersion
1070
     0
  0
VISUALSTYLE
  5
34
102
{ACAD_XDICTIONARY
360
2A4
102
}
102
{ACAD_REACTORS
330
29
102
}
330
29
100
AcDbVisualStyle
  2
Dim
 70
    11
 71
     2
 72
     2
 73
     0
 90
        0
 40
-0.6
 41
-30.0
 62
     5
 63
     7
 74
     1
 91
        4
 64
     7
 65
   257
 75
     1
175
     1
 42
1.0
 92
        8
 66
     7
 43
1.0
 76
     1
 77
     6
 78
     2
 67
     7
 79
     5
170
     0
171
     0
290
     0
174
     0
 93
        1
 44
-50.0
173
     0
291
     1
 45
0.0
1001
ACAD
1000
AcDbSavedByObjectVersion
1070
     0
  0
VISUALSTYLE
  5
41
102
{ACAD_XDICTIONARY
360
2BE
102
}
102
{ACAD_REACTORS
330
29
102
}
330
29
100
AcDbVisualStyle
  2
EdgeColorOff
 70
    22
 71
     2
 72
     2
 73
     0
 90
        0
 40
-0.6
 41
-30.0
 62
     5
 63
     7
 74
     1
 91
        4
 64
     7
 65
   257
 75
     1
175
     1
 42
1.0
 92
        8
 66
     7
 43
1.0
 76
     1
 77
     6
 78
     2
 67
     7
 79
     5
170
     0
171
     0
290
     0
174
     0
 93
        1
 44
0.0
173
     0
291
     1
 45
0.0
1001
ACAD
1000
AcDbSavedByObjectVersion
1070
     0
  0
VISUALSTYLE
  5
38
102
{ACAD_XDICTIONARY
360
2AC
102
}
102
{ACAD_REACTORS
330
29
102
}
330
29
100
AcDbVisualStyle
  2
Facepattern
 70
    15
 71
     2
 72
     2
 73
     0
 90
        0
 40
-0.6
 41
-30.0
 62
     5
 63
     7
 74
     1
 91
        4
 64
     7
 65
   257
 75
     1
175
     1
 42
1.0
 92
        8
 66
     7
 43
1.0
 76
     1
 77
     6
 78
     2
 67
     7
 79
     5
170
     0
171
     0
290
     0
174
     0
 93
        1
 44
0.0
173
     0
291
     1
 45
0.0
1001
ACAD
1000
AcDbSavedByObjectVersion
1070
     0
  0
VISUALSTYLE
  5
2A
102
{ACAD_XDICTIONARY
360
290
102
}
102
{ACAD_REACTORS
330
29
102
}
330
29
100
AcDbVisualStyle
  2
Flat
 70
     0
 71
     2
 72
     1
 73
     1
 90
        2
 40
-0.6
 41
30.0
 62
     5
 63
     7
 74
     0
 91
        0
 64
     7
 65
   257
 75
     1
175
     1
 42
1.0
 92
        8
 66
     7
 43
1.0
 76
     1
 77
     6
 78
     2
 67
     7
 79
     5
170
     0
171
     0
290
     0
174
     0
 93
       13
 44
0.0
173
     0
291
     1
 45
0.0
1001
ACAD
1000
AcDbSavedByObjectVersion
1070
     0
  0
VISUALSTYLE
  5
2B
102
{ACAD_XDICTIONARY
360
292
102
}
102
{ACAD_REACTORS
330
29
102
}
330
29
100
AcDbVisualStyle
  2
FlatWithEdges
 70
     1
 71
     2
 72
     1
 73
     1
 90
        2
 40
-0.6
 41
30.0
 62
     5
 63
     7
 74
     1
 91
        0
 64
     7
 65
   257
 75
     1
175
     1
 42
1.0
 92
        0
 66
   257
 43
1.0
 76
     1
 77
     6
 78
     2
 67
     7
 79
     5
170
     0
171
     0
290
     0
174
     0
 93
       13
 44
0.0
173
     0
291
     1
 45
0.0
1001
ACAD
1000
AcDbSavedByObjectVersion
1070
     0
  0
VISUALSTYLE
  5
2C
102
{ACAD_XDICTIONARY
360
294
102
}
102
{ACAD_REACTORS
330
29
102
}
330
29
100
AcDbVisualStyle
  2
Gouraud
 70
     2
 71
     2
 72
     2
 73
     1
 90
        2
 40
-0.6
 41
30.0
 62
     5
 63
     7
 74
     0
 91
        0
 64
     7
 65
   257
 75
     1
175
     1
 42
1.0
 92
        0
 66
     7
 43
1.0
 76
     1
 77
     6
 78
     2
 67
     7
 79
     5
170
     0
171
     0
290
     0
174
     0
 93
       13
 44
0.0
173
     0
291
     1
 45
0.0
1001
ACAD
1000
AcDbSavedByObjectVersion
1070
     0
  0
VISUALSTYLE
  5
2D
102
{ACAD_XDICTIONARY
360
296
102
}
102
{ACAD_REACTORS
330
29
102
}
330
29
100
AcDbVisualStyle
  2
GouraudWithEdges
 70
     3
 71
     2
 72
     2
 73
     1
 90
        2
 40
-0.6
 41
30.0
 62
     5
 63
     7
 74
     1
 91
        0
 64
     7
 65
   257
 75
     1
175
     1
 42
1.0
 92
        0
 66
   257
 43
1.0
 76
     1
 77
     6
 78
     2
 67
     7
 79
     5
170
     0
171
     0
290
     0
174
     0
 93
       13
 44
0.0
173
     0
291
     1
 45
0.0
1001
ACAD
1000
AcDbSavedByObjectVersion
1070
     0
  0
VISUALSTYLE
  5
31
102
{ACAD_XDICTIONARY
360
29E
102
}
102
{ACAD_REACTORS
330
29
102
}
330
29
100
AcDbVisualStyle
  2
Hidden
 70
     6
 71
     1
 72
     2
 73
     2
 90
        0
 40
-0.6
 41
-30.0
 62
     5
 63
     7
 74
     2
 91
        2
 64
     7
 65
   257
 75
     2
175
     1
 42
40.0
 92
        0
 66
   257
 43
1.0
 76
     1
 77
     6
 78
     2
 67
     7
 79
     3
170
     0
171
     0
290
     0
174
     0
 93
        1
 44
0.0
173
     0
291
     0
 45
0.0
1001
ACAD
1000
AcDbSavedByObjectVersion
1070
     0
  0
VISUALSTYLE
  5
3F
102
{ACAD_XDICTIONARY
360
2BA
102
}
102
{ACAD_REACTORS
330
29
102
}
330
29
100
AcDbVisualStyle
  2
JitterOff
 70
    20
 71
     2
 72
     2
 73
     0
 90
        0
 40
-0.6
 41
-30.0
 62
     5
 63
     7
 74
     1
 91
        4
 64
     7
 65
   257
 75
     1
175
     1
 42
1.0
 92
       10
 66
     7
 43
1.0
 76
     1
 77
     6
 78
     2
 67
     7
 79
     5
170
     0
171
     0
290
     0
174
     0
 93
        1
 44
0.0
173
     0
291
     1
 45
0.0
1001
ACAD
1000
AcDbSavedByObjectVersion
1070
     0
  0
VISUALSTYLE
  5
37
102
{ACAD_XDICTIONARY
360
2AA
102
}
102
{ACAD_REACTORS
330
29
102
}
330
29
100
AcDbVisualStyle
  2
Linepattern
 70
    14
 71
     2
 72
     2
 73
     0
 90
        0
 40
-0.6
 41
-30.0
 62
     5
 63
     7
 74
     1
 91
        4
 64
     7
 65
   257
 75
     7
175
     7
 42
1.0
 92
        8
 66
     7
 43
1.0
 76
     1
 77
     6
 78
     2
 67
     7
 79
     5
170
     0
171
     0
290
     0
174
     0
 93
        1
 44
0.0
173
     0
291
     1
 45
0.0
1001
ACAD
1000
AcDbSavedByObjectVersion
1070
     0
  0
VISUALSTYLE
  5
40
102
{ACAD_XDICTIONARY
360
2BC
102
}
102
{ACAD_REACTORS
330
29
102
}
330
29
100
AcDbVisualStyle
  2
OverhangOff
 70
    21
 71
     2
 72
     2
 73
     0
 90
        0
 40
-0.6
 41
-30.0
 62
     5
 63
     7
 74
     1
 91
        4
 64
     7
 65
   257
 75
     1
175
     1
 42
1.0
 92
        9
 66
     7
 43
1.0
 76
     1
 77
     6
 78
     2
 67
     7
 79
     5
170
     0
171
     0
290
     0
174
     0
 93
        1
 44
0.0
173
     0
291
     1
 45
0.0
1001
ACAD
1000
AcDbSavedByObjectVersion
1070
     0
  0
VISUALSTYLE
  5
33
102
{ACAD_XDICTIONARY
360
2A2
102
}
102
{ACAD_REACTORS
330
29
102
}
330
29
100
AcDbVisualStyle
  2
Realistic
 70
     8
 71
     2
 72
     2
 73
     0
 90
        2
 40
-0.6
 41
30.0
 62
     5
 63
     7
 74
     0
 91
        0
 64
     7
 65
   257
 75
     1
175
     1
 42
1.0
 92
        8
 66
   257
 43
1.0
 76
     1
 77
     6
 78
     2
 67
     7
 79
     3
170
     0
171
     0
290
     0
174
     0
 93
       13
 44
0.0
173
     0
291
     0
 45
0.0
1001
ACAD
1000
AcDbSavedByObjectVersion
1070
     0
  0
VISUALSTYLE
  5
3E
102
{ACAD_XDICTIONARY
360
2B8
102
}
102
{ACAD_REACTORS
330
29
102
}
330
29
100
AcDbVisualStyle
  2
Shaded
 70
    27
 71
     2
 72
     2
 73
     1
 90
        2
 40
-0.6
 41
30.0
 62
     5
 63
     7
 74
     0
 91
        4
 64
     7
 65
   257
 75
     1
175
     1
 42
1.0
 92
        8
 66
   257
 43
1.0
 76
     1
 77
     6
 78
     2
 67
     8
 79
     3
170
     0
171
     0
290
     0
174
     0
 93
        5
 44
0.0
173
     0
291
     0
 45
0.0
1001
ACAD
1000
AcDbSavedByObjectVersion
1070
     0
  0
VISUALSTYLE
  5
3D
102
{ACAD_XDICTIONARY
360
2B6
102
}
102
{ACAD_REACTORS
330
29
102
}
330
29
100
AcDbVisualStyle
  2
Shaded with edges
 70
    26
 71
     2
 72
     2
 73
     1
 90
        2
 40
-0.6
 41
30.0
 62
     5
 63
     7
 74
     1
 91
       10
 64
     7
 65
   257
 75
     2
175
     1
 42
1.0
 92
        8
 66
   257
 43
1.0
 76
     1
 77
     6
 78
     2
 67
     7
 79
     3
170
     0
171
     0
290
     0
174
     0
 93
        5
 44
0.0
173
     0
291
     0
 45
0.0
1001
ACAD
1000
AcDbSavedByObjectVersion
1070
     0
  0
VISUALSTYLE
  5
3A
102
{ACAD_XDICTIONARY
360
2B0
102
}
102
{ACAD_REACTORS
330
29
102
}
330
29
100
AcDbVisualStyle
  2
Shades of Gray
 70
    23
 71
     2
 72
     2
 73
     3
 90
        0
 40
-0.6
 41
-30.0
 62
     5
 63
     7
 74
     2
 91
        2
 64
     7
 65
     7
 75
     1
175
     1
 42
40.0
 92
        8
 66
     7
 43
1.0
 76
     1
 77
     6
 78
     2
 67
     7
 79
     3
170
     0
171
     0
290
     0
174
     0
 93
        1
 44
0.0
173
     0
291
     0
 45
0.0
1001
ACAD
1000
AcDbSavedByObjectVersion
1070
     0
  0
VISUALSTYLE
  5
3B
102
{ACAD_XDICTIONARY
360
2B2
102
}
102
{ACAD_REACTORS
330
29
102
}
330
29
100
AcDbVisualStyle
  2
Sketchy
 70
    24
 71
     1
 72
     2
 73
     2
 90
        0
 40
-0.6
 41
-30.0
 62
     5
 63
     7
 74
     2
 91
        2
 64
     7
 65
     7
 75
     1
175
     1
 42
40.0
 92
       11
 66
     7
 43
1.0
 76
     1
 77
     6
 78
     2
 67
     7
 79
     6
170
     0
171
     0
290
     0
174
     0
 93
        1
 44
0.0
173
     0
291
     0
 45
0.0
1001
ACAD
1000
AcDbSavedByObjectVersion
1070
     0
  0
VISUALSTYLE
  5
36
102
{ACAD_XDICTIONARY
360
2A8
102
}
102
{ACAD_REACTORS
330
29
102
}
330
29
100
AcDbVisualStyle
  2
Thicken
 70
    13
 71
     2
 72
     2
 73
     0
 90
        0
 40
-0.6
 41
-30.0
 62
     5
 63
     7
 74
     1
 91
        4
 64
     7
 65
   257
 75
     1
175
     1
 42
1.0
 92
       12
 66
     7
 43
1.0
 76
     1
 77
     6
 78
     2
 67
     7
 79
     5
170
     0
171
     0
290
     0
174
     0
 93
        1
 44
0.0
173
     0
291
     1
 45
0.0
1001
ACAD
1000
AcDbSavedByObjectVersion
1070
     0
  0
VISUALSTYLE
  5
30
102
{ACAD_XDICTIONARY
360
29C
102
}
102
{ACAD_REACTORS
330
29
102
}
330
29
100
AcDbVisualStyle
  2
Wireframe
 70
     5
 71
     0
 72
     2
 73
     0
 90
        0
 40
-0.6
 41
-30.0
 62
     5
 63
     7
 74
     1
 91
        4
 64
     7
 65
   257
 75
     1
175
     1
 42
1.0
 92
        0
 66
   257
 43
1.0
 76
     1
 77
     6
 78
     2
 67
     7
 79
     3
170
     0
171
     0
290
     0
174
     0
 93
        1
 44
0.0
173
     0
291
     0
 45
0.0
1001
ACAD
1000
AcDbSavedByObjectVersion
1070
     0
  0
VISUALSTYLE
  5
3C
102
{ACAD_XDICTIONARY
360
2B4
102
}
102
{ACAD_REACTORS
330
29
102
}
330
29
100
AcDbVisualStyle
  2
X-Ray
 70
    25
 71
     2
 72
     2
 73
     1
 90
        1
 40
0.5
 41
-30.0
 62
     5
 63
     7
 74
     1
 91
        0
 64
     7
 65
   257
 75
     1
175
     1
 42
1.0
 92
        8
 66
     7
 43
1.0
 76
     1
 77
     6
 78
     2
 67
     7
 79
     3
170
     0
171
     0
290
     0
174
     0
 93
       13
 44
0.0
173
     0
291
     0
 45
0.0
1001
ACAD
1000
AcDbSavedByObjectVersion
1070
     0
  0
DICTIONARYVAR
  5
79
102
{ACAD_REACTORS
330
76
102
}
330
76
100
DictionaryVariables
280
     0
  1
1:1
  0
DICTIONARYVAR
  5
78
102
{ACAD_REACTORS
330
76
102
}
330
76
100
DictionaryVariables
280
     0
  1
STANDARD
  0
DICTIONARYVAR
  5
77
102
{ACAD_REACTORS
330
76
102
}
330
76
100
DictionaryVariables
280
     0
  1
STANDARD
  0
DICTIONARYVAR
  5
27E
102
{ACAD_REACTORS
330
76
102
}
330
76
100
DictionaryVariables
280
     0
  1
1
  0
DICTIONARYVAR
  5
27D
102
{ACAD_REACTORS
330
76
102
}
330
76
100
DictionaryVariables
280
     0
  1
1
  0
DICTIONARYVAR
  5
27C
102
{ACAD_REACTORS
330
76
102
}
330
76
100
DictionaryVariables
280
     0
  1
0
  0
DICTIONARYVAR
  5
279
102
{ACAD_REACTORS
330
76
102
}
330
76
100
DictionaryVariables
280
     0
  1
0
  0
DICTIONARYVAR
  5
27A
102
{ACAD_REACTORS
330
76
102
}
330
76
100
DictionaryVariables
280
     0
  1
0
  0
DICTIONARYVAR
  5
278
102
{ACAD_REACTORS
330
76
102
}
330
76
100
DictionaryVariables
280
     0
  1
2
  0
DICTIONARYVAR
  5
277
102
{ACAD_REACTORS
330
76
102
}
330
76
100
DictionaryVariables
280
     0
  1
1
  0
DICTIONARYVAR
  5
27B
102
{ACAD_REACTORS
330
76
102
}
330
76
100
DictionaryVariables
280
     0
  1
127
  0
DICTIONARYVAR
  5
286
102
{ACAD_REACTORS
330
76
102
}
330
76
100
DictionaryVariables
280
     0
  1
2
  0
DICTIONARY
  5
2C1
330
6B
100
AcDbDictionary
280
     1
281
     1
  3
ACAD_XREC_ROUNDTRIP
360
2C2
  0
DICTIONARY
  5
2C5
330
73
100
AcDbDictionary
280
     1
281
     1
  3
ACAD_XREC_ROUNDTRIP
360
2C6
  0
DICTIONARY
  5
2C3
330
6F
100
AcDbDictionary
280
     1
281
     1
  3
ACAD_XREC_ROUNDTRIP
360
2C4
  0
DICTIONARY
  5
1A
330
19
100
AcDbDictionary
280
     1
281
     1
  3
ACAD_XREC_ROUNDTRIP
360
28E
  3
BUMPTILE
360
1C
  3
DIFFUSETILE
360
1B
  3
OPACITYTILE
360
1F
  3
REFLECTIONTILE
360
1E
  3
REFRACTIONTILE
360
20
  3
SPECULARTILE
360
1D
  0
DICTIONARY
  5
12
330
11
100
AcDbDictionary
280
     1
281
     1
  3
ACAD_XREC_ROUNDTRIP
360
28D
  3
BUMPTILE
360
14
  3
DIFFUSETILE
360
13
  3
FBXASSET
360
F9
  3
OPACITYTILE
360
17
  3
REFLECTIONTILE
360
16
  3
REFRACTIONTILE
360
18
  3
SPECULARTILE
360
15
  0
DICTIONARY
  5
22
330
21
100
AcDbDictionary
280
     1
281
     1
  3
ACAD_XREC_ROUNDTRIP
360
28F
  3
BUMPTILE
360
24
  3
DIFFUSETILE
360
23
  3
FBXASSET
360
BA
  3
OPACITYTILE
360
27
  3
REFLECTIONTILE
360
26
  3
REFRACTIONTILE
360
28
  3
SPECULARTILE
360
25
  0
DICTIONARY
  5
289
330
67
100
AcDbDictionary
280
     1
281
     1
  3
ACAD_XREC_ROUNDTRIP
360
28A
  0
DICTIONARY
  5
234
330
65
100
AcDbDictionary
280
     1
281
     1
  3
ACAD_ROUNDTRIP_2008_TABLESTYLE_CELLSTYLEMAP
360
288
  3
ACAD_XREC_ROUNDTRIP
360
2C0
  0
DICTIONARY
  5
29A
330
2F
100
AcDbDictionary
280
     1
281
     1
  3
ACAD_XREC_ROUNDTRIP
360
29B
  0
DICTIONARY
  5
298
330
2E
100
AcDbDictionary
280
     1
281
     1
  3
ACAD_XREC_ROUNDTRIP
360
299
  0
DICTIONARY
  5
2A6
330
35
100
AcDbDictionary
280
     1
281
     1
  3
ACAD_XREC_ROUNDTRIP
360
2A7
  0
DICTIONARY
  5
2AE
330
39
100
AcDbDictionary
280
     1
281
     1
  3
ACAD_XREC_ROUNDTRIP
360
2AF
  0
DICTIONARY
  5
2A0
330
32
100
AcDbDictionary
280
     1
281
     1
  3
ACAD_XREC_ROUNDTRIP
360
2A1
  0
DICTIONARY
  5
2A4
330
34
100
AcDbDictionary
280
     1
281
     1
  3
ACAD_XREC_ROUNDTRIP
360
2A5
  0
DICTIONARY
  5
2BE
330
41
100
AcDbDictionary
280
     1
281
     1
  3
ACAD_XREC_ROUNDTRIP
360
2BF
  0
DICTIONARY
  5
2AC
330
38
100
AcDbDictionary
280
     1
281
     1
  3
ACAD_XREC_ROUNDTRIP
360
2AD
  0
DICTIONARY
  5
290
330
2A
100
AcDbDictionary
280
     1
281
     1
  3
ACAD_XREC_ROUNDTRIP
360
291
  0
DICTIONARY
  5
292
330
2B
100
AcDbDictionary
280
     1
281
     1
  3
ACAD_XREC_ROUNDTRIP
360
293
  0
DICTIONARY
  5
294
330
2C
100
AcDbDictionary
280
     1
281
     1
  3
ACAD_XREC_ROUNDTRIP
360
295
  0
DICTIONARY
  5
296
330
2D
100
AcDbDictionary
280
     1
281
     1
  3
ACAD_XREC_ROUNDTRIP
360
297
  0
DICTIONARY
  5
29E
330
31
100
AcDbDictionary
280
     1
281
     1
  3
ACAD_XREC_ROUNDTRIP
360
29F
  0
DICTIONARY
  5
2BA
330
3F
100
AcDbDictionary
280
     1
281
     1
  3
ACAD_XREC_ROUNDTRIP
360
2BB
  0
DICTIONARY
  5
2AA
330
37
100
AcDbDictionary
280
     1
281
     1
  3
ACAD_XREC_ROUNDTRIP
360
2AB
  0
DICTIONARY
  5
2BC
330
40
100
AcDbDictionary
280
     1
281
     1
  3
ACAD_XREC_ROUNDTRIP
360
2BD
  0
DICTIONARY
  5
2A2
330
33
100
AcDbDictionary
280
     1
281
     1
  3
ACAD_XREC_ROUNDTRIP
360
2A3
  0
DICTIONARY
  5
2B8
330
3E
100
AcDbDictionary
280
     1
281
     1
  3
ACAD_XREC_ROUNDTRIP
360
2B9
  0
DICTIONARY
  5
2B6
330
3D
100
AcDbDictionary
280
     1
281
     1
  3
ACAD_XREC_ROUNDTRIP
360
2B7
  0
DICTIONARY
  5
2B0
330
3A
100
AcDbDictionary
280
     1
281
     1
  3
ACAD_XREC_ROUNDTRIP
360
2B1
  0
DICTIONARY
  5
2B2
330
3B
100
AcDbDictionary
280
     1
281
     1
  3
ACAD_XREC_ROUNDTRIP
360
2B3
  0
DICTIONARY
  5
2A8
330
36
100
AcDbDictionary
280
     1
281
     1
  3
ACAD_XREC_ROUNDTRIP
360
2A9
  0
DICTIONARY
  5
29C
330
30
100
AcDbDictionary
280
     1
281
     1
  3
ACAD_XREC_ROUNDTRIP
360
29D
  0
DICTIONARY
  5
2B4
330
3C
100
AcDbDictionary
280
     1
281
     1
  3
ACAD_XREC_ROUNDTRIP
360
2B5
  0
XRECORD
  5
2C2
102
{ACAD_REACTORS
330
2C1
102
}
330
2C1
100
AcDbXrecord
280
     1
102
SHADEPLOT
 70
     0
102
SHADEPLOTRESLEVEL
 70
     2
102
SHADEPLOTCUSTOMDPI
 70
   300
  0
XRECORD
  5
2C6
102
{ACAD_REACTORS
330
2C5
102
}
330
2C5
100
AcDbXrecord
280
     1
102
SHADEPLOT
 70
     0
102
SHADEPLOTRESLEVEL
 70
     2
102
SHADEPLOTCUSTOMDPI
 70
   300
  0
XRECORD
  5
2C4
102
{ACAD_REACTORS
330
2C3
102
}
330
2C3
100
AcDbXrecord
280
     1
102
SHADEPLOT
 70
     0
102
SHADEPLOTRESLEVEL
 70
     2
102
SHADEPLOTCUSTOMDPI
 70
   300
  0
XRECORD
  5
28E
102
{ACAD_REACTORS
330
1A
102
}
330
1A
100
AcDbXrecord
280
     1
102
MATERIAL
148
0.0
149
0.0
149
0.0
 93
        0
 94
      127
282
     0
 72
     0
 77
     0
171
     0
175
     0
179
     0
273
     0
  0
XRECORD
  5
1C
102
{ACAD_REACTORS
330
1A
102
}
330
1A
100
AcDbXrecord
280
     1
270
     1
271
     1
  0
XRECORD
  5
1B
102
{ACAD_REACTORS
330
1A
102
}
330
1A
100
AcDbXrecord
280
     1
270
     1
271
     1
  0
XRECORD
  5
1F
102
{ACAD_REACTORS
330
1A
102
}
330
1A
100
AcDbXrecord
280
     1
270
     1
271
     1
  0
XRECORD
  5
1E
102
{ACAD_REACTORS
330
1A
102
}
330
1A
100
AcDbXrecord
280
     1
270
     1
271
     1
  0
XRECORD
  5
20
102
{ACAD_REACTORS
330
1A
102
}
330
1A
100
AcDbXrecord
280
     1
270
     1
271
     1
  0
XRECORD
  5
1D
102
{ACAD_REACTORS
330
1A
102
}
330
1A
100
AcDbXrecord
280
     1
270
     1
271
     1
  0
XRECORD
  5
28D
102
{ACAD_REACTORS
330
12
102
}
330
12
100
AcDbXrecord
280
     1
102
MATERIAL
148
0.0
149
0.0
149
0.0
 93
        0
 94
      127
282
     0
 72
     0
 77
     0
171
     0
175
     0
179
     0
273
     0
  0
XRECORD
  5
14
102
{ACAD_REACTORS
330
12
102
}
330
12
100
AcDbXrecord
280
     1
270
     1
271
     1
  0
XRECORD
  5
13
102
{ACAD_REACTORS
330
12
102
}
330
12
100
AcDbXrecord
280
     1
270
     1
271
     1
  0
XRECORD
  5
F9
102
{ACAD_REACTORS
330
12
102
}
330
12
100
AcDbXrecord
280
     1
 70
     1
 90
1959938040
 71
     1
  1
E8EC270A-1765-4C13-A127-46E9D37835F2
311
504B03040A0000080000F07094403DEE336E79000000790000001B0000006175746F6465736B2D64657369676E2D7061636B6167652E786D6C3C3F786D6C2076657273696F6E3D22312E302220656E636F64696E673D227574662D3822203F3E3C666F726D6174733E3C666F726D61743E687474703A2F2F736368656D612E
311
6175746F6465736B2E636F6D2F64657369676E2D7061636B6167652F323030393C2F666F726D61743E3C2F666F726D6174733E504B0304140006080800F0709440D486FD9CA0000000F4000000130000005B436F6E74656E745F54797065735D2E786D6C7D8EC10E82300C865F65E91D8A1E8C310C0EEA1BF002731658846E
311
D98AC1B77784ABF1D8FE5FBFBF75BBCE937A534CCEB38643598122B6FEE978D0B0485F9C41B54DDD7D022595594E1A469170414C76A4D9A4D207E29CF43ECE46F218070CC6BECC4078ACAA135ACF422C856C0E68EA1BF5669944DDD7BCDE7B1F8E415D77AECB980613C2E4AC91FC167A2B244592486606FC29C8FD7F045B9A
311
EF7053A7E60B504B0304140006080800F0709440895C5860EA0000007C01000008000000636F72652E786D6C8D90D18E832010457F85CC3B0A4A951AA4E926FA05FB0344684B5AC1086CF6F3175B9BECBEEDD34CEEDC3333B9E2F43D3FD0975983F5AE075A1040C64D5E5B77ED21C50BE6804E52ACDEC75F36404ECDA6874D
311
0629AEAB4FCB2E4DDE45E362569DD76617550826029A1EB9E9214C3733AB42A5981DE15E2C6ABAABAB29E8BBCB704A56A3D711ABF33E7BB16605D9F07A1C6A36E043435BCCD8F0818FCDF18C474E19E1E7F630F24A941B2C45B4F3FBFEB41A158D0659115A61C270453E29EB48DBD53526BC2344949BFD0F9416FD4F285917
311
EB6A7FF7850590343FF21C48516E59E4F20C2AD72D37F903504B0304140006080800F070944055019EA25F0000007C00000007000000636E782E786D6C4DCB3B0E80201045D1AD90E915ED2CF8AC45050C11660C8261F98AB1B07AC9C97D42D718D865D3E909258CFD00CCE24AC6E326A164D74DC0B4128928FF326038472B
311
A13128B1252AC747C6BAB984FC68F0B87FE8960A5C09FE86CFB69FBA01504B0304140006080800F07094403FB86B0A66010000020300000C0000006662782F636F72652E786D6C8D52ED8EC220107C15C27F0AFD50ABA1182FD127B817C0167BC4161A0A8D8F7FDB0FE37931C634A164666777765ABEBFB50D1A94EBB53505
311
8E23869132A5ADB4A90B1CFC85E418ED0577D6FA3F651819D9AA028F3016BC7636740B545AE395F1801A5BA905947DAF3C4665039702F7E58F6A652483878AFE1A75B2BCCA5A45710434D409DE7B0706D03C643CB1B89C6F9CCEB8E021E86A617505D3F4452B87C53A4F4FC7343B92D53ADE902C3B7E91ED7A7B20A73CCE58
311
7ED8AC4E79C2E92816DCEBF6EEAE744A7A556191B038212C2309FB8EB31DDBECD294B07CC718A763F9932874D587A2A08D4F93C5EE2CEBB188C1C844FCDB1622F2A89703F8A182D33144784D093F070D8140C85E9E9BFB1E578006557AEB32602A1B1ED4209BA0602A43D3C3E9CC42E7A9016CF6B24FF2A6CFFB1EF001A5A9
311
C19AF4703D073F4EE7F3D4258A4E3932F81B32D6B5B279989B2D3ECEC7A097F2D236D67DA2A6CBAA7409938E7FAFF805504B0304140006080800F0709440979824AC7E0000009D0000000B0000006662782F636E782E786D6C4DCC4D0EC2201845D1AD906F8EFDA12003A0912AFB682C6D88140C8271F9B6A603472F3979B9
311
A2FFAC1EBD6D7AB9182434A71A900DF738B9B0482879C61C50AF448A31FFDD008571B5127606259614CBF3A0C9CE63F17953EFC2E340CABA6BA35B836FB53EE3CEB00BD6C34031EB08659CB686100E9512D5AFB4ED1E565F504B0304140006080800F070944097FB7E842C01000015020000310000006662782F3536344431
311
4232462D453042372D344636412D424343352D3634333536383532463333382F636F72652E786D6C8D51CB6EC32010FC15C4293D60838D1F8A305193365FD01F2086242831583CAA7C7EA176A4F6960B8B66676647BB6CF798EEE05B39AFAD1920293004CA8C566A7319600C67D443B0E3CC591BFED02030625203CC30E4EC
311
E26C9C5768B4262813126AAC542B28BC570182F19E3E03F4E3554DA210312486BF15B3186FE2A20A52A476E271E6834B01C03224BF90372DFD20FBEA883EF1BE43F4D8BEA3FDE1D0A096D64DDB37D5B1AE7B562E42CE62D472956B99E2E8B356EE55932CE62CE8E9197F744A042521AF30A910A6A8C25F846E71B7AD6B84FB
311
2DC6ACCCF47FA238CB1745519B50576BDC45E62127AC5C1A9C491B4FF76718F598AD0B20CFDB7835BE418E0B8CBBB4868674AC5CB86903C9B4A5ABA90FD6A50D6F6EA74427CDE2DC52CECA7CA4547E2F986A3E28FF01504B0304140006080800F0709440A4A258874D01000033030000300000006662782F35363444314232
311
462D453042372D344636412D424343352D3634333536383532463333382F636E782E786D6CD593CD6EC23010845FC5F23D89031145C831520F7D821E7A35F6022E8E1DF9A72A6FDF3518CA85438FBD58D1EC7866F5C9E1DBEFC9922F08D17837D2BE659480535E1B7718694EFB664DC956F0E07D7AB051E2E404232D3215FC
311
107C9EABA4612FB34DA85AE34E550C107D0E0A22CAE526B15E498B01E09A8C224C3BD01A34B91BF16B0F015741717726E908E4EDF583F8DD27A81479575204EF4A87E0E5AC4D0F264A9495318E34AA234CB29539790DF1D46A9964DBB7B7AE273BFD269172E156998321A57CA4E5A4A26ED42247DEE150F09802D2ABA6749E
311
810A39CFD62899107277315E3D8267E3D26AA85E83E003BAFBD5721830EC32133C9909AA4305900934150BD62F1A36340BF6DE0F1BF6B2592E1BB6DE30C6BB62177CE7BDAD973006829F89F22E814B54F4BC2BE367F8AA8F681390B50FE73F804400B5F54AE79EF19FF97497F78DB802FE05E207504B0304140006080800F0
311
70944062CEEE96A305000081100000340000006662782F35363444314232462D453042372D344636412D424343352D3634333536383532463333382F6F626A656374732E786D6CAD575B6FDB3614FE2B82F6B23DD8B26CE736281A1C3B298C2E6D51A3C51E0C18B444295CA80B482A75F6EBF751A464C9B5536FE88B2EBC1C
311
9EF39DEF5C18FCB1CBB8F3428564457EEBFAC391EBD03C2A6296A7B76EA592C1B5EBFC1106A228546799EBE424A3B7AE1E76C320154555DAA19826A4E2EA60F4E1EE2F474634A7AE137122E5AD2BA3279A9121A9541153F93C8C8922C334D90DFDA159D8179B0A523E1D082D89A0B982A618CF21C5314AF9FDDF91EB8581A7
311
E7C3403FEDAAC9E9555E6D4FFF7C964B45F2E8BBC30EC44CFCE9E27E7C7133B8984E2783E9E5D81FDC3DDC2D06FED56434BF9CCF6F66F73738582A014956134113377C076C048B02CF4C8541C5723519DB25D6419EA02F4C7BCA0DC78E1F78664D6B9D35F298FA5191E734AAB1021AB57D56744C4B9AC7F039A3129A75101A
311
F57F7D8D63677AA2FFED91DDE1F310E8EEE8086A746FDE5D4D8BEDDF30419EC32021A966A0C1D21A6AB83ADA23BC2D0A6EE7987432A2A860843B9C6D0511AF6E88A57A4918F4C468260B1D0DDA02378417CC749F2E08A31FF3FC989649C5B9A6B11BD651B041AC50256BCDD83F54ECB5EF22039DE02BCD866B6B907A2DA91B
311
DE188A5C1FB0C900E9249CA47039CCD43B27E30343E73A4E970B377CFFB0DDAD74EC1E3FBC14454985D2F401B51AC7356F8D92D5C93FCB737A837BA0CA1E94CF40FE03427DAF0AFC26D86EBA9BDA539420B94C0A91C137CEC8198CF018397EFDD4DF9DAFC06B37F7BD770A4F385B43F513F0ECDBD0F56507CE307801E10B31
311
B1A6AD22C291361E590E8034491C5E60087938D9EEDC70892C87AC8C5D84873E4C86BA2FF80C3C2B0689A23EA9F3CE81E5415A3C234103B69A9150C390DF2AB8F7D377E9AC3ED82E3B05EFC54FA1EB6CB17ABFAA444222FA68637A411396338512B7E74D57A11EE63D8B9EE9EBB742C430F47BBC575DBC337B9404DA1A730D
311
7CDAE474FDB33FB97740847D69A1D34DF0831360842EAC1DF98F4C46947392D3A26ACE7DB37EA06C188875B06B26B705665F58401A3373108328D29160A506B1AD566DD21C9EB0EECBF20318E98677AF7F92D76EF6DAEE736F54F0426CB6AF1B93968E42FDB5CF6D8B81A7A580EE759034F16F41DFC42C492A89247804D7AF
311
CB79D7773A2D204534524DB44C613F828B084BDA462EAAB520A8A445BE61A89B88BBA30774E50352CB805AE0298D25E5C986715E659B847154A34D46CA1370FC7FFDB755566E485654B93A21BBA73AAA435FF71E7BE537A2A227375CD5EFC11D726F4CE31364D0B5E408563DD7DE5FDFCFC757A3191AA6CB8BC174EE4F0633
311
7F7C854EEAFE6631B9BA9E5C3C8C1B3F194DC2A02935DD88869750DA824A30EBBE2F4BC48F4D026EF848945CBF33E1D9BCBF2C87E885030F7B502FDB8DB3F8057D1F8D7F2C60BFF2A8A06556729AD15C111D438FFA837F26E8337ACA98F16546527A86948FEF5607C660E48C7D9F74BCD36F077BEDE85C07E45121EAA9CAB6
311
3961FC60636A901C96796AF16B7CD2BE4DA1697EF59F750C3A53597016230FC64E4A8B8C2A64C3338A90C8A804F5BA3D7D6CEF1E67EC7E311DA2225B4E1B4D9E089A642E1116A05615A9FEB8F30B9A3ADD57DDBA28B7C3673C6CA6701D70E6D64593AE5844E5708B02AD5BA15A38B8D4EDE4D1F8933CE5E8B5CDA6F6BFDDA5
311
B1E995E476C939FD93B5CBA4706B00D24889BE010D11BC532B1306B56E763EFA4F8637EA3844E1735BA9D696FD406B4C7D0C42D418656F0B68629EEDD13B04EADB66F9C37A4D0F91B36E596F92C0481D2822D2FAA6A0F5B32ACD169F3C7428CEF2A353F22A852FCF9734101464AE74808345608595591205AACE7F5F7F1205
311
6EB299F3C04001E7D7DDF5E56FEB799165456E86D6337B1F76564FB8DDC66B2407AAAF25723D1EF9E3757D1DB03794CD96483A24B17CC6003C2B580B74CFFDE0A5B933A20E9989769DA75D71C0D0E5C2B1856D0AA1962EDDDCAAC141E391530731A4AF943A62BA0BCA376F045EBD142A08F4F2E1BF504B0304140006080000
311
F0709440000000000000000000000000350000006662782F35363444314232462D453042372D344636412D424343352D3634333536383532463333382F76657274696365732E62696E504B0304140006080800F0709440F270F1330600000004000000360000006662782F35363444314232462D453042372D344636412D42
311
4343352D3634333536383532463333382F747269616E676C65732E62696E636660600000504B0304140006080000F0709440000000000000000000000000370000006662782F35363444314232462D453042372D344636412D424343352D3634333536383532463333382F617474726962757465732E62696E504B03041400
311
06080800F0709440D5987DFC8F00000041010000360000006662782F35363444314232462D453042372D344636412D424343352D3634333536383532463333382F6469726563746F72792E786D6C858F410EC2201045AF4266AF15DDB800BA74E7C21B903225242D6328188F2FA5C4183471359997F9FF81E89FF3C41E1816
311
475E02DF1F80A11FC8386F25A438EECEC07A250251FC3803E6F58C12560C4AD840E95E91C151A72936F496F35732D860FE635F62C8F2DA16B505C545B74125BAA2FA9E05D7CC053D063734D5C7665FD55B6B8D15D5E9BFEAFD8490FFA45E504B0304140006080800F07094409AF776F8FD000000A00100003B000000666278
311
2F35363444314232462D453042372D344636412D424343352D3634333536383532463333382F7265736F75726365732F636F72652E786D6C8D504B6E833010BD0A9ABDC10602041947A91A4ED00B586642AC041BF953F5F8350995DA5D3733A3F7D13C3D7EFA5A1ED9273AAFAD1980E5143234CA4EDACC03C470251D6427C1
311
9DB5E1970C3223171C608341F0D9D9B8EE90B226A009093576C21D94DE63804C3DD2318057375C642E63480A7FCF57A9EE72C69CE5894E3AC17D702940F67AB24D100EBD8D4EA1E7C58B153C463DED1A3DA59FFAAAD18168BA6ABC54F53B3934AC25757D7923C7E6782663C76ADA9DDBC3D895BCD8CC8207BDFC64540E65C0
311
0944495949684D4AFAC1EA9EB67D5511DAF594F26293FF31C575FAA7296A13AA728FFBB279102C05791282175B5F693DCB4C7BEB567C03504B010214000A0000080000F07094403DEE336E79000000790000001B00000000000000000000000000000000006175746F6465736B2D64657369676E2D7061636B6167652E786D
311
6C504B01021400140006080800F0709440D486FD9CA0000000F40000001300000000000000000000000000B20000005B436F6E74656E745F54797065735D2E786D6C504B01021400140006080800F0709440895C5860EA0000007C010000080000000000000000000000000083010000636F72652E786D6C504B0102140014
311
0006080800F070944055019EA25F0000007C000000070000000000000000000000000093020000636E782E786D6C504B01021400140006080800F07094403FB86B0A66010000020300000C00000000000000000000000000170300006662782F636F72652E786D6C504B01021400140006080800F0709440979824AC7E0000
311
009D0000000B00000000000000000000000000A70400006662782F636E782E786D6C504B01021400140006080800F070944097FB7E842C0100001502000031000000000000000000000000004E0500006662782F35363444314232462D453042372D344636412D424343352D3634333536383532463333382F636F72652E78
311
6D6C504B01021400140006080800F0709440A4A258874D010000330300003000000000000000000000000000C90600006662782F35363444314232462D453042372D344636412D424343352D3634333536383532463333382F636E782E786D6C504B01021400140006080800F070944062CEEE96A305000081100000340000
311
0000000000000000000000640800006662782F35363444314232462D453042372D344636412D424343352D3634333536383532463333382F6F626A656374732E786D6C504B01021400140006080000F07094400000000000000000000000003500000000000000000000000000590E00006662782F35363444314232462D45
311
3042372D344636412D424343352D3634333536383532463333382F76657274696365732E62696E504B01021400140006080800F0709440F270F13306000000040000003600000000000000000000000000AC0E00006662782F35363444314232462D453042372D344636412D424343352D3634333536383532463333382F74
311
7269616E676C65732E62696E504B01021400140006080000F07094400000000000000000000000003700000000000000000000000000060F00006662782F35363444314232462D453042372D344636412D424343352D3634333536383532463333382F617474726962757465732E62696E504B01021400140006080800F070
311
9440D5987DFC8F0000004101000036000000000000000000000000005B0F00006662782F35363444314232462D453042372D344636412D424343352D3634333536383532463333382F6469726563746F72792E786D6C504B01021400140006080800F07094409AF776F8FD000000A00100003B000000000000000000000000
311
003E1000006662782F35363444314232462D453042372D344636412D424343352D3634333536383532463333382F7265736F75726365732F636F72652E786D6C504B0506000000000E000E0080040000941100000000
310
504B03040A0000080000F07094403DEE336E79000000790000001B0000006175746F6465736B2D64657369676E2D7061636B6167652E786D6C3C3F786D6C2076657273696F6E3D22312E302220656E636F64696E673D227574662D3822203F3E3C666F726D6174733E3C666F726D61743E687474703A2F2F736368656D612E
310
6175746F6465736B2E636F6D2F64657369676E2D7061636B6167652F323030393C2F666F726D61743E3C2F666F726D6174733E504B0304140006080800F0709440D486FD9CA0000000F4000000130000005B436F6E74656E745F54797065735D2E786D6C7D8EC10E82300C865F65E91D8A1E8C310C0EEA1BF002731658846E
310
D98AC1B77784ABF1D8FE5FBFBF75BBCE937A534CCEB38643598122B6FEE978D0B0485F9C41B54DDD7D022595594E1A469170414C76A4D9A4D207E29CF43ECE46F218070CC6BECC4078ACAA135ACF422C856C0E68EA1BF5669944DDD7BCDE7B1F8E415D77AECB980613C2E4AC91FC167A2B244592486606FC29C8FD7F045B9A
310
EF7053A7E60B504B0304140006080800F07094404037EE50E90000007C01000008000000636F72652E786D6C8D90D18E832010457F85CC3B0AE85A6B902636EE17EC0F10A02E690523B0E9E7175B9BECBEEDD34CEEDC3333B9FC749F6FE8C7ACC17AD7032D0820E394D7D64D3DA478C12DA093E0ABF7F1970D9093B3E96193
310
41F069F569D925E55D342E66D5796D76518660222075CB4D0F417D9B591632C5EC08D76291EA2A2753D07797E194AC46AF2356E77DF662CD0A622023390F4D8569431B5C0FC7160F637BC4E399B6E347FDC9EA03E3E5060B1EEDFCBEAF5623A3D12018A10C931A33F245EB8E1CBAAAC2A4ED08E1E566FF03A545FF134AD6C5
310
8AEDEFBEB00082E6479E03C1CB2D8B5C9E41E5BAE5261E504B0304140006080800F070944055019EA25F0000007C00000007000000636E782E786D6C4DCB3B0E80201045D1AD90E915ED2CF8AC45050C11660C8261F98AB1B07AC9C97D42D718D865D3E909258CFD00CCE24AC6E326A164D74DC0B4128928FF326038472BA1
310
3128B1252AC747C6BAB984FC68F0B87FE8960A5C09FE86CFB69FBA01504B0304140006080800F0709440FCE7E5C666010000020300000C0000006662782F636F72652E786D6C8D52ED8E8320107C15C27F043FAEF51AA4898DF704F70254A967AA60104C1FFFD68FC6EBA5691A1324333BBBB3A3FC78EB5A342A3B34466738
310
0C18464A97A66A749D61EF2E24C5E828B835C6FD29C348CB4E657882B1E0B535BE5FA1D268A7B403549B4AADA01C06E5302A5BB86478287F542703E91D540CD7A097E555D62A0803A0A14EF0C15930809621D389C5E57CE374C105F7BEA956B6A9605A736994C52267053BE5BB9884BB704792FC332579917E92E214A6C547
310
F21525FB88D3492CB86BBABBBBD22AE9548545C4C288B08444EC3B4C0E6C7F8863C2D203639C4EE50F22DF576F8A7CA35D1CAD7617D98045084666E2DFB6109143831CC10F159C4E21C26B4EF8316808044276F2DCDEF7B80234AAD2199B005319BF51A36CBD82A90CCD0FA70B0B9DE706B0D9D33ED18B3EAF7BC00794BA06
310
6BD2C1F5ECDD349D2F53D7287A65C9E86E481BDBC97633B758DCCE6DD05379695A63DF51D37555BA8649A7BF57FC02504B0304140006080800F070944092DDD98B7E0000009D0000000B0000006662782F636E782E786D6C4DCCD10E82201886E15B61FF39D94F861E004E32EFC3253A264223685D7EDA3CE8E8DB9E7D7B45
310
F3591D799BF8B2C14BC0D31988F18F305A3F4BC869A2359046891842FABB01F1C36A24EC0C4ACC31E4E741A39986ECD2A6CEFAE5407ED577CDAA9E960C392DB1E5B4D517465975C31E59DD751CA150A2F895B6DDC3EA0B504B0304140006080800F0709440CF2AF8682B01000015020000310000006662782F363542454232
310
37462D343231362D343141362D414233322D3237433146313238444436312F636F72652E786D6C8D51CB6EC32010FC158B537AC006ECD896858992A6F982FE00B1498A1283C5A3CAE777A91DA9BDE5C2A2D999D981E5BBC774CFBE95F3DA9A1ED19CA04C99C18EDA5C7B14C305B728DB09EEAC0D7F68283372523D4A3012FC
310
EA6C9C5768B0262813003576542B28BD570165C31D2E3DF2C3979A642E630086BFE5B31C6EF2AA729A431B7882FBE02040B60C492712F5F6F07160CD09578CD6B8A2FB1AEF0F25C3AC79A727CADAE3B1A6BC588482C7A8C755AE4788A32F5AB9574D9258F0A0A767FCC12919D488042394615261463E69D591A62B4B4CDA8E
310
105E24FA3F519CC71745519B50B235EE22F348C06B9686E0A38DE7FB338C7ACCD6852CCDDB7835BC214172429A2DA95AB2E5C5C2851F00D3BA5A4D7DB00E7E78733B03BD5C9DEB4AF0222D09CAEF06A1A6858A1F504B0304140006080800F0709440C20597905401000033030000300000006662782F36354245423237462D
310
343231362D343141362D414233322D3237433146313238444436312F636E782E786D6CBD93CD6EC32010845F0571F7BF955A1126520F7D821E7AC5B04969305880ABE6EDBB2424CD25874A552FC89A1D66569F30DB7DCD867C820FDAD99136654D0958E994B68791AE715F0C94EC38F3CEC53B1B2556CC30D22453CE0EDEAD
310
4B9614ECC56A22AA46DB63163D04B77A0901E57493182785C100B0C58A22CC1328058ADC8CF8B5078FABA0389D487C07F2F2FC46DCF401320656A514CEAAD4C1593A73D39D8912694408230DF21D66518A353A05E1582A1145D994D7AE073BFD249174E15AB97A4D52F948D34979DEA8448EACC22167217AA4974DF1B400E5
310
62598C962222E4EA6CBC78385BB58D9B3E7B3582F7E8EEDACD3060D879C659D4336487F4202228CADBBA698BBA2FDAFAB5E9B7F5D3B6EB8A7AD8D635AB929DB3C939932F610C78B710E96C041B296F5895C68FF0651F51DA236BE74FBF00890072EB85CE2DE32FF9349BAEEFFF914F757EDF88CBE35FC0BF01504B03041400
310
06080800F0709440FF5FFA9A630700009A1B0000340000006662782F36354245423237462D343231362D343141362D414233322D3237433146313238444436312F6F626A656374732E786D6CED59DD73A33610FF5718FAD23E181BDBC9251DC24DE224379E36ED4DDDBBE98367181964A24608461249DCBFBEAB0F301093E0
310
5EFA760F3620A4D5EE6F3FB5041F9F33EA3C622E48CE2E5CDF9BB80E66719E10965EB8A5DC8ECE5CE76318F03C978D69AEC350862F5C35EC8641CAF3B2B04309DEA292CACEE8EDD55F8E8831C3AE135324C4852BE27B9C210F95324FB078F0122491976E9F3DDF3313DB64538E8AFB0ED10271CC24700AE30CA8388629BFFD
310
3871C7613056EFC340FDDB59B341B3E6FDB3C65AEA369784098958FC82A50E99D9209666FEFCFA667A723E3A99CF67A3F9E9D41F5DDD5E5D8FFC0FB3C9E274B138BFBC3907F636794EAD4C092E304B407F3B37F483B17A538B6E1138C4759C3386630D2440A5C5EA122458C0560DF826ED475F49D478AD256C3CCFD57BCB42
310
6378D6A6D2376B18102DBA2088DDAE92B8BA36E5CB377F83E0628851728125702B2407ED5A783878851B4E82B1190D83CD5E17443819929813441D4A361C71500A4C5553C2C02CB06494737020E52809B4E6CCEBB66D8167BEED3A87B8DC96942ACF7043ED5811B81F96427346FEC17CCF7D1319E009A42D099367964BB92B
310
B01B9E07633D1806EA329BDA970648674B512A3422E66D47D08572FDE5B51BFE72BB795EA9707078F382E705E652199DD2A3E60B0CD95E154A765B7F90E6D40210C6806A57EE41F90390FF0DA2C79E15D01B27CFF3E7B99D2B3962629BF30C74E34C9CD104FE268EAFFFD57DE32E18D78BDBDAEBC313DC544175F6ED78B665
310
D05859FE1B7086C123187CCE67F6D52A4614ECF98E300048198943731882D0BEDD3CBBE1120227047A588568E883C8C0EE23DC06634B66AF95CABDACD73140D4EE311BA224804D5B24B0D1A3A74F903D3889F76A6A8AD807EFC9BB98EBE5F5EA9755C9B728C677D6A7AFF1963022216B1E66A885794BA207BC7BCA790282BE
310
C47BD5C43BB35B09405B61AE804F2B10D4C37EE7D60631AC4B73156E823776002154AE6ED0BF2322C6942286F3B2DAB78E6ECA506B8FB735831B4E0DC4B369C784397E24AAAA00A7D9CF68310A793FE6A45020BAE12723591D34BD1EE9BE2C7F038BACE7F7CC5A3208BD0CD13F75D03A8043CBB22BA42D10B5C09B7D388F73
310
9AF368B38B4CA473A1960036DADEF2B5451462BD5192A2021EA4FDAE0A29A991364AC8765B0A88AB0758FCBA5C34CD61E2CDFC13A7F9DF71C639445BF05DC4ADDF75F6884886521C6D51D2B75D73B79AB6D0247B4873BCA520177924721721194D129C1E03CD51C4CFDF957A4A732108C302F2D541F09B684C3C0824469B15
310
CB4AAB1DA08988322C113D060145A6075C9D76748D1B43E9F0368FB5F5BEA6B126D1FFC92238825A32671181521472C89B8CFBDE09C49036BA06E50EBE606D156D2D062DA1848877D11326E9BD3C067543BE07F7188E24A58CF202C560D603C8BEF015A5D40EEF1B143FA8FC11C5257D2F0311986E2342699945F0230C4E1E
310
435CBB0E4CAFA2D0206E629FC419146548967CC826A7279317FB989AA11B021B1B6D0985B01D65A8E841BD1510753DE2D4E05BEA3D4ADD945911A12C2FD92043F1665D6FB2E4BB6A556407F2AB4A45281B2BC29660181026EBAC5AC56C30751D58C18D74A0DA4502650535A7B037128F5F7B93A6DCBB01B77EFABE1B6450F8
310
F568AF1951E7150C96C75661209E908CEFDD70A5AFA32BA8BF139CEC537D556B362B40404C45F29213ABA22F4B286F6C8DE68677488AF5279375ABEB97A507DD8F600C6BA076A9172E15D0196612A9CAE44EDDD03F1084E0160D33BE5439F5182A9749A2AB46446F499F3A5B65446BD38C78C53D6679063FB6262CA66582D7
310
28110FD19DA4D18A28D6AD945E462A8C5F15F0F74FAB0E3C303240A4CFAAC0C34F9DB57674A1CAA58344E47D996D182210045BA2A546375EC152AB914ACBF5559D29A0EE0203B32A9E7F3F5934DB11DF4F16A9358C6F3A595CED7E45BB665FA491CE6365D7471D03EAFCA4A8BCC73140B71D6AAA751631C9DCCA6F9D2982A0
310
5845F9C1D55815340CC13E8EFF73D6EECB8266BB0EFFC7656DFF45C5715456694D565DAA0395EBB299C36ECE6E16D30F934BE8C89E9E8CE60B7F36BAF4A71FA0557B737E3DFB70363BB9AD53B1211E067530D3B90B9E4D50AB86D593C500BAB222A72481D37CE2A41862BE8433FD80F639CFB080E4D96C7627B6293F60F5A3
310
E9734AB4A1B8E2E41E4183980A48EB204619CBF6B8F303B426251CB42F5C681A790FF067ADD27520F35CB8D02A9024C6C2DB409B4935F4347148B93AF75B6210C8104B554A348BEAE77A95C2A615FEEB2943D28095ABD5C380C2AD80EE57AB43A179B33CC547095EB1E32009B79B5242B56664D90FD4C2E86DF6EA37B251C2
310
1EECD6CFE0BAAF8BE57B7A4E0B91419F0C5E3502437524114F75BF5B316659BABCFE3C863E9BB3FCDD296899822E87531A710CC65CAA820AAC08ACC2D22C9004535DFCBCFECC73F8C49339BA2A727E7C3E3BFD69BDC8B32C6766687D09A7B2043E1439AB7BF8EC93ACA178C0AAB92ED6D3893F5DEBA6B6EDB3471B24B0A7AA
310
2218A88A092548C7E4C02E5F34A86CFB72AC54D199BEBC766C10856680B1A3173D5EF391CB011F529F5394C7683FAFA47DB5AF3DD653C1263874A4C37F01504B0304140006080000F0709440000000000000000000000000350000006662782F36354245423237462D343231362D343141362D414233322D32374331463132
310
38444436312F76657274696365732E62696E504B0304140006080800F0709440F270F1330600000004000000360000006662782F36354245423237462D343231362D343141362D414233322D3237433146313238444436312F747269616E676C65732E62696E636660600000504B0304140006080000F07094400000000000
310
00000000000000370000006662782F36354245423237462D343231362D343141362D414233322D3237433146313238444436312F617474726962757465732E62696E504B0304140006080800F0709440D5987DFC8F00000041010000360000006662782F36354245423237462D343231362D343141362D414233322D323743
310
3146313238444436312F6469726563746F72792E786D6C858F410EC2201045AF4266AF15DDB800BA74E7C21B903225242D6328188F2FA5C4183471359997F9FF81E89FF3C41E1816475E02DF1F80A11FC8386F25A438EECEC07A250251FC3803E6F58C12560C4AD840E95E91C151A72936F496F35732D860FE635F62C8F2DA
310
16B505C545B74125BAA2FA9E05D7CC053D063734D5C7665FD55B6B8D15D5E9BFEAFD8490FFA45E504B0304140006080800F0709440539CC0C8FC000000A00100003B0000006662782F36354245423237462D343231362D343141362D414233322D3237433146313238444436312F7265736F75726365732F636F72652E786D
310
6C8D504B6E833010BD0A9ABDC1369490C83812113D412F609909B112ECC89FAAC7AF09546A77DDCC8CDE47F3F4C4F96B79149FE88371B607565228D06A37193BF790E29574509CA5F0CEC55F3228AC5AB08715062966EFD27387B4B3116DCCA87513EEA00A012314FA918F1E82BEE1A24A956256847BF954FAAE662C5999E9
310
AC9322449F0314DB937582F4185CF21A83A836568A94CCB46BCC947F9AAB410F72A023BD0C2D27AC652D6986634786B13B92F1C2BAF1AD79E7CD818B6A354B11CDF293517B541127909C324E684338FD60CD891E4E754D6877A25454ABFC8F293DA77F9A92B1B1E67BDCCD1640B21CE4454851AD7DE5F52A33EFB55BF90D50
310
4B010214000A0000080000F07094403DEE336E79000000790000001B00000000000000000000000000000000006175746F6465736B2D64657369676E2D7061636B6167652E786D6C504B01021400140006080800F0709440D486FD9CA0000000F40000001300000000000000000000000000B20000005B436F6E74656E745F
310
54797065735D2E786D6C504B01021400140006080800F07094404037EE50E90000007C010000080000000000000000000000000083010000636F72652E786D6C504B01021400140006080800F070944055019EA25F0000007C000000070000000000000000000000000092020000636E782E786D6C504B0102140014000608
310
0800F0709440FCE7E5C666010000020300000C00000000000000000000000000160300006662782F636F72652E786D6C504B01021400140006080800F070944092DDD98B7E0000009D0000000B00000000000000000000000000A60400006662782F636E782E786D6C504B01021400140006080800F0709440CF2AF8682B01
310
00001502000031000000000000000000000000004D0500006662782F36354245423237462D343231362D343141362D414233322D3237433146313238444436312F636F72652E786D6C504B01021400140006080800F0709440C205979054010000330300003000000000000000000000000000C70600006662782F36354245
310
423237462D343231362D343141362D414233322D3237433146313238444436312F636E782E786D6C504B01021400140006080800F0709440FF5FFA9A630700009A1B00003400000000000000000000000000690800006662782F36354245423237462D343231362D343141362D414233322D3237433146313238444436312F
310
6F626A656374732E786D6C504B01021400140006080000F070944000000000000000000000000035000000000000000000000000001E1000006662782F36354245423237462D343231362D343141362D414233322D3237433146313238444436312F76657274696365732E62696E504B01021400140006080800F0709440F2
310
70F13306000000040000003600000000000000000000000000711000006662782F36354245423237462D343231362D343141362D414233322D3237433146313238444436312F747269616E676C65732E62696E504B01021400140006080000F07094400000000000000000000000003700000000000000000000000000CB10
310
00006662782F36354245423237462D343231362D343141362D414233322D3237433146313238444436312F617474726962757465732E62696E504B01021400140006080800F0709440D5987DFC8F000000410100003600000000000000000000000000201100006662782F36354245423237462D343231362D343141362D41
310
4233322D3237433146313238444436312F6469726563746F72792E786D6C504B01021400140006080800F0709440539CC0C8FC000000A00100003B00000000000000000000000000031200006662782F36354245423237462D343231362D343141362D414233322D3237433146313238444436312F7265736F75726365732F
310
636F72652E786D6C504B0506000000000E000E0080040000581300000000
  0
XRECORD
  5
17
102
{ACAD_REACTORS
330
12
102
}
330
12
100
AcDbXrecord
280
     1
270
     1
271
     1
  0
XRECORD
  5
16
102
{ACAD_REACTORS
330
12
102
}
330
12
100
AcDbXrecord
280
     1
270
     1
271
     1
  0
XRECORD
  5
18
102
{ACAD_REACTORS
330
12
102
}
330
12
100
AcDbXrecord
280
     1
270
     1
271
     1
  0
XRECORD
  5
15
102
{ACAD_REACTORS
330
12
102
}
330
12
100
AcDbXrecord
280
     1
270
     1
271
     1
  0
XRECORD
  5
28F
102
{ACAD_REACTORS
330
22
102
}
330
22
100
AcDbXrecord
280
     1
102
MATERIAL
148
0.0
149
0.0
149
0.0
 93
        0
 94
      127
282
     0
 72
     0
 77
     0
171
     0
175
     0
179
     0
273
     0
  0
XRECORD
  5
24
102
{ACAD_REACTORS
330
22
102
}
330
22
100
AcDbXrecord
280
     1
270
     1
271
     1
  0
XRECORD
  5
23
102
{ACAD_REACTORS
330
22
102
}
330
22
100
AcDbXrecord
280
     1
270
     1
271
     1
  0
XRECORD
  5
BA
102
{ACAD_REACTORS
330
22
102
}
330
22
100
AcDbXrecord
280
     1
 70
     1
 90
1959938040
 71
     1
  1
C47D3CE0-9252-4365-BCC0-510B786BD786
311
504B03040A0000080000F07094403DEE336E79000000790000001B0000006175746F6465736B2D64657369676E2D7061636B6167652E786D6C3C3F786D6C2076657273696F6E3D22312E302220656E636F64696E673D227574662D3822203F3E3C666F726D6174733E3C666F726D61743E687474703A2F2F736368656D612E
311
6175746F6465736B2E636F6D2F64657369676E2D7061636B6167652F323030393C2F666F726D61743E3C2F666F726D6174733E504B0304140006080800F0709440D486FD9CA0000000F4000000130000005B436F6E74656E745F54797065735D2E786D6C7D8EC10E82300C865F65E91D8A1E8C310C0EEA1BF002731658846E
311
D98AC1B77784ABF1D8FE5FBFBF75BBCE937A534CCEB38643598122B6FEE978D0B0485F9C41B54DDD7D022595594E1A469170414C76A4D9A4D207E29CF43ECE46F218070CC6BECC4078ACAA135ACF422C856C0E68EA1BF5669944DDD7BCDE7B1F8E415D77AECB980613C2E4AC91FC167A2B244592486606FC29C8FD7F045B9A
311
EF7053A7E60B504B0304140006080800F07094403BB543ACEA0000007C01000008000000636F72652E786D6C8D904D6EC3201085AF82D863F36337B185899C563E412F80803828315806AA1EBF903852BBEB6A466FDE37337AFCF4BDDCC197D982F56E80A4C21018A7BCB66E1E608A177484E024F8E67DFC6583C0C9C50CB0
311
C850F079F369DD25E55D342E66D5796D765186602204EA9E9B010675358BAC648AD9116ED52AD54DCEA622AF2EC329590D9E47ACCEFBECC59A0D8A696C69C7DE26D48D47829A8E7DA0AE3D34E8DC9D5BD6B4EFD34809AF0B2C78B4CBEBBEDA8C8C46434131A1083788E24FD2F4F8D03386F0B1C798D7C5FE074AABFE2794AC
311
8B8CEEEF3EB1004579E43110BC2E59E4F2082AD7929BF801504B0304140006080800F070944055019EA25F0000007C00000007000000636E782E786D6C4DCB3B0E80201045D1AD90E915ED2CF8AC45050C11660C8261F98AB1B07AC9C97D42D718D865D3E909258CFD00CCE24AC6E326A164D74DC0B4128928FF326038472B
311
A13128B1252AC747C6BAB984FC68F0B87FE8960A5C09FE86CFB69FBA01504B0304140006080800F0709440D933EA7666010000020300000C0000006662782F636F72652E786D6C8D52ED8E8320107C15C27F04BFAEB5419AF62E7D827B01AAD433553008A68F7FEB47E3F5D2348D0992999DDDD951BEBFB50D1A94ED6BA373
311
1C060C23A50B53D6BACAB17717B2C5682FB835C6FD29C348CB56E57884B1E09535BE5BA0C268A7B403549B522DA0EC7BE5302A1AB8E4B82F7E542B03E91D54F4D7A093C555562A0803A0A14EF0DE593080E621E389C5E57CE374C605F7BE2E17B62E615A7DA995C5E27448A32CFE3891ECB00D4992C55F244B37093966C734
311
4ED2CFD3210A391DC582BBBABDBB2BAC924E9558442C8C084B48C4BEC364C736BB38266CBB638CD3B1FC41E4BBF24D91AFB58BA3C5EE2CEBB1188D4CC4BF6D2122877A39801F2A381D4384D794F063D0100884ECE4B9B9EF7105685085333601A6347EA506D9780553199A1E4E67163A4F0D60B3A77DA2177D5EF7800F2875
311
05D6A483EBD9BB713A9FA72E5174CA92C1DD9036B695CD6A6EB6B89EEBA0A7F2C234C6BEA3A6CBAA7409938E7FAFF805504B0304140006080800F0709440B4910F2A7B0000009D0000000B0000006662782F636E782E786D6C4D8C410EC2201405AF42FE1E4B5B54164043ACDEA3B1B42152BE41301E5F305DB899974C5E46
311
0E9FCD93B78D2F8741417B60406CB8E3ECC2AA20A7850A2083961131FDDD808469B30AAA062DD788F9B9ABD92E53F6A958EFC2639737D15DCDC530CAC74E149CCE548C15DCB447DE73C67B018D96CDAF54B686F517504B0304140006080800F07094400F72DAB12701000015020000310000006662782F4638324541434130
311
2D344432382D344436372D384436372D3834413135343334303433382F636F72652E786D6C8D51CB6EC32010FC15C4A93DD85E6CE25811268A9AF60BFA0304488A1283C5A3CAE7176A476A6FB92C68766676B4CBF6F7E986BEB50FC6D911931A30D2563A65EC65C4299EAB01A33D67DEB9F887869115931E7181316717EFD2
311
BC42D2D9A86DCCA8754AAFA00841478CE42D7F461CE4979E442D52CC8C70AD6721AFE2A26B52E776E67116A2CF01D032A454CC3F86F6FDF076808A1EDB21977E5B0DC752E8816C68478176036B1621672919B5CA8DCA71CCD968FFAC49117316CDF4882FBD16512BCC5B206D05B46AE193D01D6C775D57C1B003604DA1FF13
311
A5593D294AC6C6AE5DE32EB2803961CDD2E04CB974BA3DC2E8FBEC7C4465DE4BD0F21573A801B63D405736B070F306B2694F57D3109DCF1B7EB99E329D6C16E79E72D69423E5E7F782F92D07E53F504B0304140006080800F0709440A4A258874D01000033030000300000006662782F46383245414341302D344432382D34
311
4436372D384436372D3834413135343334303433382F636E782E786D6CD593CD6EC23010845FC5F23D89031145C831520F7D821E7A35F6022E8E1DF9A72A6FDF3518CA85438FBD58D1EC7866F5C9E1DBEFC9922F08D17837D2BE659480535E1B7718694EFB664DC956F0E07D7AB051E2E404232D3215FC107C9EABA4612FB3
311
4DA85AE34E550C107D0E0A22CAE526B15E498B01E09A8C224C3BD01A34B91BF16B0F015741717726E908E4EDF583F8DD27A81479575204EF4A87E0E5AC4D0F264A9495318E34AA234CB29539790DF1D46A9964DBB7B7AE273BFD269172E156998321A57CA4E5A4A26ED42247DEE150F09802D2ABA6749E810A39CFD6289910
311
7277315E3D8267E3D26AA85E83E003BAFBD5721830EC32133C9909AA4305900934150BD62F1A36340BF6DE0F1BF6B2592E1BB6DE30C6BB62177CE7BDAD973006829F89F22E814B54F4BC2BE367F8AA8F681390B50FE73F804400B5F54AE79EF19FF97497F78DB802FE05E207504B0304140006080800F0709440AA5A121EA4
311
05000080100000340000006662782F46383245414341302D344432382D344436372D384436372D3834413135343334303433382F6F626A656374732E786D6CAD57DB6EDB3810FD1541FBB2FBE08B6C274D168A8AD86E0AA3485BD468B10F060C4AA2146E285120A9D4D9AFDF43899225C74EBC8BBEE8C2CB70E6CC990BFDF7
311
BB8C3B4F542A26F21BD71B8E5D87E69188599EDEB8A54E0657AEF33EF0A510BAB3CC757292D11BD70CBB819F4A51167628A60929B93E18BD9BFFE5A888E6D475224E94BA7155F440333224A51631558FC39868324C93DDD01BD60BFB6253498A8703A1059134D7D014E339A438B5525EFF77EC8E027F64E603DF3CEDAAE9E9
311
55A3CA9EFEF92C579AE4D18BC30EC44CBDD9F2C3E4E27A70319B4D07B3CB893798DFCD9703EFDD74BCB85C2CAE6F3F5CE360A52524594D244DDCE023B0912CF247F554E0972CD7D3895D621D3492F489194FB9C1C4F1FC51BDA6B5CE1A794CFD48E4398D2AAC8046659F151DD382E6317CCEA882661D84C6FD5FCFE0D8999E
311
9A7F7B6477F83C04BA3B3A821ADD9B77575311FE0D13D4390C928A1A06D6585A436BAE8EF7088742703BC79493114D2523DCE12C94443EBB01969A2581DF1363982C4D34180BDC005EA8A7FB744118BDCDF3635A2625E786C66E5045C116B142B5AA3463FF50B9D7BE8B0C7482AF0C1BAEAC41FAB9A06E705D53E4EA804D35
311
904EC2490A97C34CB3733A39307461E274B574834F77E16E6D62F7F8E185140595DAD007D46A1CD7BC0D4A5627EF2CCF990DEE812A7B50BE01F9CF08F5BD2AF09B64BBD96E664FD192E42A1132836F9CB13318E33176BCEA69BE3B5FFEA8DDDCF7DE293CE16C03D52FC0B36F43D7971D3803FF098417726A4D5B4784236DDC
311
B31C001992385C6008793809776EB042964356C62EC2030F2643DD277CFA232B0689A23AA9F3CE81E5415A3C234103B68A9150A326BF5570EFA717E9AC3AD82E3B05EFC52FA1EBED72FD695DCA8444F4DEC6F492262C671A256ECF9BAE423DCC7B163DD2E79F42C630F425DEEB2EDE993D4A016D83B9013E6D72BAF9D99FDC
311
3B20C2BE549874E3BF71028C3085B523FF9EA988724E722ACAE6DC57EB07CA460DB10976C3E4B6C0EC0B0B4853CF1CC4208A74245961406CAB559B348727ACFBBEFA0C46623D1721E1FB45E13EF546820BB90D9FB775563A8AF48F3EB52D042323056CAF62A4097F8BF9366649522AE4C023B0FE582DBAAE33590119A2915A
311
07CB0CE623B688B49C6DE4A2584B82422AF22D43D944D81D3DA02B1F885A0254024F69AC284FB68CF332DB268CA3186D33529C80E3FFEB1F9659B1259928737D42764F751487BEEE3DF2AA9F44470F6EB0AEDE8339526F4CE3BD9B7B8B4D29398255CFB58BD9BBE574F1613CB89E5C4C06B3E9E5C560BE588C0717DE78FEEE
311
EA72BEC4A3F193AA7AA8C06F2A4D37A0E1255436BF94CCBAEFFB0AE16373801BDC13AD361FEBE86CDEDF5743B4C2FE087B502EDB8DB7F113DA3E1ABF2D60BFF2A8A05556709AD15C131342F7E6837F2368337ACAD4E3AB8CA4F40C295F3EAE0F8CC1C819FBBE9A70A73F0FF6DAD18509C8A342F44399853961FC60635A2339
311
2CF2D4E2D7F8A47DD775A6F9357FD631684C95E02C461A8C9D948A8C6A24C3336A90CCA802F5BA2D7D6CAF1E67EC7EAA1B444D424E1B4D1E087A64AE1016A05619E9FEB8F31B7A3AD356DDB8A8B6C3473C6CA6701D70E6C6458FAE5944D530447D369D50251C5CEA36F2E02CC9538E56BBDED4FEB7BB0C36BD8ADC2E39A77D
311
B276D519DC1A803452A06D403F04EF54CA047EA59B9D8FFE93E18D3A0ED1F80C4BDDDAB21F688DA98E4188D646D9CB027A98477BF40E81FABA59DEB05AD343E4AC4BD6AB24A8A50E349169755130FA59956E975F4768509CD517A7E0650A5F9E2F692029C85C9A00078BC00A2BB3201A545DFCB9F92A052EB29973C74001E7
311
F7DDD5E51F9B85C83291D7439B5B7B1D76D60FB8DCC61B24076A6E256A33197B934D751BB017946D48141D92583D62009E95AC05BAE77EF0B2BE32A20ED513EDBA9171C50143574BC716B619845ABA7473AB01077D474E1DC490B9519A88E92E285EBD108CAAA55041A2950FFE05504B0304140006080000F0709440000000
311
000000000000000000350000006662782F46383245414341302D344432382D344436372D384436372D3834413135343334303433382F76657274696365732E62696E504B0304140006080800F0709440F270F1330600000004000000360000006662782F46383245414341302D344432382D344436372D384436372D383441
311
3135343334303433382F747269616E676C65732E62696E636660600000504B0304140006080000F0709440000000000000000000000000370000006662782F46383245414341302D344432382D344436372D384436372D3834413135343334303433382F617474726962757465732E62696E504B0304140006080800F07094
311
40D5987DFC8F00000041010000360000006662782F46383245414341302D344432382D344436372D384436372D3834413135343334303433382F6469726563746F72792E786D6C858F410EC2201045AF4266AF15DDB800BA74E7C21B903225242D6328188F2FA5C4183471359997F9FF81E89FF3C41E1816475E02DF1F80A1
311
1FC8386F25A438EECEC07A250251FC3803E6F58C12560C4AD840E95E91C151A72936F496F35732D860FE635F62C8F2DA16B505C545B74125BAA2FA9E05D7CC053D063734D5C7665FD55B6B8D15D5E9BFEAFD8490FFA45E504B0304140006080800F0709440535F1E9DFC000000A00100003B0000006662782F463832454143
311
41302D344432382D344436372D384436372D3834413135343334303433382F7265736F75726365732F636F72652E786D6C8D50596E833010BD0A9A7F83D99A808C23D23627E8052C332156828DBC543D7EED40A5F6AF3F33A3B7689E1E3B7D2D8FEC13AD53460F50E61432D4D24C4ACF03047F2547C84E9C5963FC2F19645A
311
2C38408281B3D99AB0EE9034DAA3F611D566C21D14CEA1874C3EE2318093375C442E828F0A77CF5721EF62C6BCCC231D759C396F63806C7B9226708BCE042BD1B16263390B414DBB464DF1A7BA2AB4C02F635B75F5CB3BE9C663499AAE7E235D7B68C8B93BB775D3BE5EC6AA64453273E6D5F293515A141E27E0152D2B421B
311
52D18FB2E9E9A1AF6B428F3DA5AC48F23FA6B04EFF3405A57D5DED71379B039E823C09CE8AD4575CCF32E34EDDF26F504B010214000A0000080000F07094403DEE336E79000000790000001B00000000000000000000000000000000006175746F6465736B2D64657369676E2D7061636B6167652E786D6C504B0102140014
311
0006080800F0709440D486FD9CA0000000F40000001300000000000000000000000000B20000005B436F6E74656E745F54797065735D2E786D6C504B01021400140006080800F07094403BB543ACEA0000007C010000080000000000000000000000000083010000636F72652E786D6C504B01021400140006080800F07094
311
4055019EA25F0000007C000000070000000000000000000000000093020000636E782E786D6C504B01021400140006080800F0709440D933EA7666010000020300000C00000000000000000000000000170300006662782F636F72652E786D6C504B01021400140006080800F0709440B4910F2A7B0000009D0000000B0000
311
0000000000000000000000A70400006662782F636E782E786D6C504B01021400140006080800F07094400F72DAB1270100001502000031000000000000000000000000004B0500006662782F46383245414341302D344432382D344436372D384436372D3834413135343334303433382F636F72652E786D6C504B01021400
311
140006080800F0709440A4A258874D010000330300003000000000000000000000000000C10600006662782F46383245414341302D344432382D344436372D384436372D3834413135343334303433382F636E782E786D6C504B01021400140006080800F0709440AA5A121EA4050000801000003400000000000000000000
311
0000005C0800006662782F46383245414341302D344432382D344436372D384436372D3834413135343334303433382F6F626A656374732E786D6C504B01021400140006080000F07094400000000000000000000000003500000000000000000000000000520E00006662782F46383245414341302D344432382D34443637
311
2D384436372D3834413135343334303433382F76657274696365732E62696E504B01021400140006080800F0709440F270F13306000000040000003600000000000000000000000000A50E00006662782F46383245414341302D344432382D344436372D384436372D3834413135343334303433382F747269616E676C6573
311
2E62696E504B01021400140006080000F07094400000000000000000000000003700000000000000000000000000FF0E00006662782F46383245414341302D344432382D344436372D384436372D3834413135343334303433382F617474726962757465732E62696E504B01021400140006080800F0709440D5987DFC8F00
311
0000410100003600000000000000000000000000540F00006662782F46383245414341302D344432382D344436372D384436372D3834413135343334303433382F6469726563746F72792E786D6C504B01021400140006080800F0709440535F1E9DFC000000A00100003B0000000000000000000000000037100000666278
311
2F46383245414341302D344432382D344436372D384436372D3834413135343334303433382F7265736F75726365732F636F72652E786D6C504B0506000000000E000E00800400008C1100000000
310
504B03040A0000080000F07094403DEE336E79000000790000001B0000006175746F6465736B2D64657369676E2D7061636B6167652E786D6C3C3F786D6C2076657273696F6E3D22312E302220656E636F64696E673D227574662D3822203F3E3C666F726D6174733E3C666F726D61743E687474703A2F2F736368656D612E
310
6175746F6465736B2E636F6D2F64657369676E2D7061636B6167652F323030393C2F666F726D61743E3C2F666F726D6174733E504B0304140006080800F0709440D486FD9CA0000000F4000000130000005B436F6E74656E745F54797065735D2E786D6C7D8EC10E82300C865F65E91D8A1E8C310C0EEA1BF002731658846E
310
D98AC1B77784ABF1D8FE5FBFBF75BBCE937A534CCEB38643598122B6FEE978D0B0485F9C41B54DDD7D022595594E1A469170414C76A4D9A4D207E29CF43ECE46F218070CC6BECC4078ACAA135ACF422C856C0E68EA1BF5669944DDD7BCDE7B1F8E415D77AECB980613C2E4AC91FC167A2B244592486606FC29C8FD7F045B9A
310
EF7053A7E60B504B0304140006080800F0709440B47F49ACEA0000007C01000008000000636F72652E786D6C8D90416EC3201045AF82668F0DD8695C0B13D9497B825E0001715162B00C54397E70E248EDAEAB19FDF96F66F4F9E1365DD18F5982F5AE035A1040C629AFAD1B3B48F18C1B4007C117EFE32F1B202727D3C12A
310
83E0E3E2D3BC49CABB685CCCAAF3DA6CA20CC14440EA9A9B0E82FA36932C648AD9112EC52CD5458EA6A0AF2EC329598D9E47ACCEFBECD99A0544FDD15376EA19AE0861B8A6FB4FDC0CEC84C95BDFECDE8FC3D0EF8EBC5C61C1A39D5EF7D56264341A04239461526346BE68DD927D5B5598342D21BC5CED7FA034EB7F42C9BA
310
58B1EDDD271640D0FCC8632078B96691CB23A85CD7DCC41D504B0304140006080800F070944055019EA25F0000007C00000007000000636E782E786D6C4DCB3B0E80201045D1AD90E915ED2CF8AC45050C11660C8261F98AB1B07AC9C97D42D718D865D3E909258CFD00CCE24AC6E326A164D74DC0B4128928FF326038472B
310
A13128B1252AC747C6BAB984FC68F0B87FE8960A5C09FE86CFB69FBA01504B0304140006080800F0709440584E50C366010000020300000C0000006662782F636F72652E786D6C8D52ED8E8320107C15C27F04D15EBD0669FA71F704F70254A967AA60104C1FFFD66AE3F5D234171324333BBBB3A3627B6D1B3468D7D7D6E4
310
388E1846DA14B6AC4D95E3E0CF24C3682B85B3D6FF2AC3C8A856E77884B11495B3A19BA1C21AAF8D07D4D852CFA0EA7BED312A1AB8E4B82FBE75AB22153C54F497A853C545553A8A23A0A14E8ADE3B3080A621E389E5F9741574C2A508A12E67B62E615A7DAEB5C332FDD8C5FCB8E324618C93345E7F926CCF8F84BDEDB2D5
310
FB61BFDFAD0E828E62297CDDDEDD154E2BAF4B2C398B396129E1EC2B4E376CBD4912C2B20D63828EE50FA2D095FF1485DAF884CF7627598F650C466EC49F6D21228F7A35801F2A051D4384D72DE1C7A0211008D9AB5373DFE302D0A00B6F5D0A4C69C3420DAA091AA632747B049D58E87C6B009B3DEDC35FF479DD033EA032
310
1558531EAEA7E0C7E9629A3A47D16947067F45C6BA56358BB9C9E2722E839ECA0BDB58F71F359D57A5739874FC7BE50F504B0304140006080800F07094405E571CEB7D0000009D0000000B0000006662782F636E782E786D6C4DCCD10A83201886E15B91FFDCE5BF6926A81D8CBA8F581632D3703676F9ABD1C18E3E78F878
310
75FB590279BBFCF2291AC00B03E2E2238D3ECE06B632D106486B754EA9FCDD80C46171060E06ABE79CB6F5A4D14DC316CAAEC1C7E7894A312EA4E454E20D29AF7B461BC49A769D504A602FE4F50E95D5D5AFB4EF11B65F504B0304140006080800F07094403B0FC5852901000014020000310000006662782F393930343537
310
37342D373133312D343646302D383131362D4545353939353146353732432F636F72652E786D6C8D51CB6EC32010FC15C4A93D60838DED38C2E450255FD01F20405294182C1E553EBF503B527BCB8545B333B3A35D7678CC77F0AD7D30CE4E905418026DA553C65E2798E205ED203870E69D8B7F68105831EB0916187276F5
310
2E2D1B249D8DDAC68C5AA7F4068A10748440DEF36782417EE9595422C5CC08B76A11F226AEBA22556E671E6721FA1C00AC43CA0BF93862DA0D0345036909A2FD09A31D213D3A1EBB71ECC8A91B9A0F56AF42CE52326A931B95E3988BD1FE559322E62C9AF9195F7A2DA256903798340853D4E04F42F778D8B72DC2BB3DC6AC
310
2EF47FA2B4A81745C9D8D8365BDC55162027AC5E1B9C2997CEF76718FD589C8FA0CC7B0B5ABE438E2B8C87BC04DAB07AA5E60564CF9E6E9E213A9F17FC763B6776BB19F794B3BADC2897DF03E65AEEC97F00504B0304140006080800F0709440C20597905401000033030000300000006662782F39393034353737342D3731
310
33312D343646302D383131362D4545353939353146353732432F636E782E786D6CBD93CD6EC32010845F0571F7BF955A1126520F7D821E7AC5B04969305880ABE6EDBB2424CD25874A552FC89A1D66569F30DB7DCD867C820FDAD99136654D0958E994B68791AE715F0C94EC38F3CEC53B1B2556CC30D22453CE0EDEAD4B96
310
14ECC56A22AA46DB63163D04B77A0901E57493182785C100B0C58A22CC1328058ADC8CF8B5078FABA0389D487C07F2F2FC46DCF401320656A514CEAAD4C1593A73D39D8912694408230DF21D66518A353A05E1582A1145D994D7AE073BFD249174E15AB97A4D52F948D34979DEA8448EACC22167217AA4974DF1B400E56259
310
8C962222E4EA6CBC78385BB58D9B3E7B3582F7E8EEDACD3060D879C659D4336487F4202228CADBBA698BBA2FDAFAB5E9B7F5D3B6EB8A7AD8D635AB929DB3C939932F610C78B710E96C041B296F5895C68FF0651F51DA236BE74FBF00890072EB85CE2DE32FF9349BAEEFFF914F757EDF88CBE35FC0BF01504B030414000608
310
0800F070944092BDE2BF61070000991B0000340000006662782F39393034353737342D373133312D343646302D383131362D4545353939353146353732432F6F626A656374732E786D6CED595B739B3814FE2B0CFBB2FB606C7C49931DC24E62B71D4F276DA7DE76F6C1338C0C32D14608461269B2BF7E8F2E602026C1DBEC
310
5B1F0C464847E77CE7AA43F0C743469D7BCC05C9D9A5EB7B13D7C12CCE13C2D24BB794FBD1B9EBFC11063CCF65639AEB3094E14B570DBB6190F2BC2CEC5082F7A8A4B233FAEEFA2F47C49861D7892912E2D215F12DCE90874A992758DC790992C84BF70F9EEF99896DB22947C56D87688138661238857106541CC394DF7E9C
310
B8E33018ABF761A0AE76D66CD0AC79FFACB196BACD25614222163F61A943663688A5993F5FBD9D2E2E468BF97C369A9F4DFDD1F5BBEBD5C87F339B2CCF96CB8BABB717C0DE2ECFA99529C1056609E8EFD10DFD60ACDED4A25B048E711DE78CE15803095069B1BA040916B05503BE49FBD15712355E6B091BCF73F5DEB2D018
310
9EB5A9F4CD1A06448B2E0862B7AB24AEEE4DF9F2DDDF20B81862945C6009DC0AC941BB161E0E5EE18693606C46C36077D005114E8624E6045187921D471C940253D59430300B2C19E51C1C48394A02AD39F3BA6D5BE0992FBBCE312EF725A5CA33DC503B5604EE87A5D09C917F303F70DF44067802694BC2E4B9E5523E16D8
310
0D2F82B11E0C03759B4DED4B03A4B3A728151A11F3B623E852B9FE7AE5861FDEED1E362A1C1CDFBCE07981B95446A7F4A8F90243B6778592DDD61FA439B5008431A0DA950750BE00F21F217A1C5801BD71F2307F98DBB9922326F639CF4037CEC4194DE032717C7D55FF1BFF8271BDB8ADBD3E3CC14D1554E73F8E675B068D
310
95E5BF016718DC83C1E77C665F6D6244C19E6F08038094913834872108EDFBDD831BAE217042A0875588863E880CECDEC3DF606CC91CB452B997F53A0688DA3D66439404B0698B04367AF4F41EB20727F1414D4D11FBE05DBC8AB95EAD361F3625DFA318DF589F5EE13D614442D63CCE500BF3964477F8F17BCE1310F429DE
310
9B26DE99DD4A00DA0A73057C5A81A01E0E3BB73688615D9AAB7013BCB00308A1727583FE0D1131A614319C97D5BE757453865A7BBCAD19DC706A209E4D3B26CCF13D51550538CD61468B51C8FB31278502D10DDF1BC9EAA0E9F548F775FD112CB29EDF336BCD20F43244FFD441EB080E2DCBAE90B640D402EF0EE13CCE69CE
310
A3DD6364229D0BB504B0D1F6966F2DA210EB8D921415F020ED775548498DB45142F6FB52405C3DC2E2B7F5B2690E136FE62F9CE6B5E38C7388B6E0BB885BBFEBEC11910CA538DAA3A46FBBE66E356DA149F690E6784F412E724FE46384643449707A0A342711BF7855EA29CD85200C0BC85747C16FA231F12090186D562C2B
310
AD76802622CAB044F4140414991E7075DAD1356E0CA5C3CB3CD6D6FB9CC69A44FF278BE0086AC99C45044A51C8212F32EE7B0B88216D740DCA1D7CC1DA2ADA5A0C5A4209113F46DF31496FE529A81BF23DB8C77024296594172806B31E40F689AF28A57678DFA1F84EE58F282EE96B1988C0741F114ACB2C821F6170F218E2
310
DA75607A1685067113FB24CEA02843B2E44336395B4C9EEC636A866E086C6CB42714C27694A1A207F55640D4F58853836FA9F7287557664584B2BC64830CC59B75BDC992EFAA55911DC8AF2A15A16CAC085B82614098ACB36A15B3C1D475600537D281EA3112282BA83985BD9078FCDA9B34E5DE0DB8F5D3D7DD2083C2AF47
310
7BCD883AAF60B03CB60A03F11DC9F8D60D37FA3EBA86FA3BC1C921D557B566B30204C454242F39B12AFABA86F2C6D6686E7883A4D8BE3759B7BA7F5D7BD0FD08C6B0066A977AE15A019D612691AA4C6ED41FFA0541086ED130E36B95534FA1729524BA6A44F41DE95367AB8C686D9A11AFB8C52CCFE0C7B684C5B44CF01625
310
E22EBA9134DA10C5BA95D2CB4885F1B3027E7ABFE9C003230344FAAC0A3CFCBDB3D68E2E55B9749488BC2DB31D430482604BB4D4E8C62B586A355269B9BEAB3305D45D606056C5F39F278B663BE2E7C922B586F163270B9AEF103D449B46368F95599F740AA8D393A2F21AA700DD75A8A9D649C4E4722BBEF5A508626215E4
310
07176355CC3004FB38FECF49BB2F099AED3AFC9F96B4FD2705C74949A5355935A98E14AEEB660A5BCEDFAC66CBB793D1C574311DCD67678BD1F57239192DFCC9F59BF3B3EB155C6A34B59F86411DCB74EA826713D3AA61F5643180A6ACC82949E0309F382986902FE1483FA07BCE332C2077367BDD89EDC90F587D6FDA9C12
310
ED28AE38B945D01FA602B2BA90BC8C657BDCF9053A9312CED9972EF48CBC3BB858AB741D483C972E740A2489B1F076D06552FD3C4D1C32AE4EFD9618E08358AA32A259543FD7AB1436ADE85F4F199205AC5CAD1606D46D0534BF5A0D0ACD9BE5293E49F08A1D0749F8BB2B25146B4696C3402D8CDEE6A07E231B25ECCE6EFD
310
00AEFBBC58BEA7E7B41019F4C5E0592330544712F154B7BB156396A5ABD5E731B4D99CF527A7A0650ABA1C4E69C4311873A9EA29B022B00A4BB340124C75F9FBF633CFE10B4FE6E8A2C8F9F5E1FCECB7ED32CFB29C99A1ED151CCA12F84EE46C6EE1AB4FB285DA01ABDEBAD84E27FE74AB7BDAB6CD1EED90C09E2A8A60A0AA
310
2594201D9303BB7CD29FB2DDCBB1524567FA7AE5D8200ABD0063474F5ABCE61B97033EA4BEA6288FD17E5E49FB6C5B7BACA7824D70684887FF02504B0304140006080000F0709440000000000000000000000000350000006662782F39393034353737342D373133312D343646302D383131362D4545353939353146353732
310
432F76657274696365732E62696E504B0304140006080800F0709440F270F1330600000004000000360000006662782F39393034353737342D373133312D343646302D383131362D4545353939353146353732432F747269616E676C65732E62696E636660600000504B0304140006080000F0709440000000000000000000
310
000000370000006662782F39393034353737342D373133312D343646302D383131362D4545353939353146353732432F617474726962757465732E62696E504B0304140006080800F0709440D5987DFC8F00000041010000360000006662782F39393034353737342D373133312D343646302D383131362D45453539393531
310
46353732432F6469726563746F72792E786D6C858F410EC2201045AF4266AF15DDB800BA74E7C21B903225242D6328188F2FA5C4183471359997F9FF81E89FF3C41E1816475E02DF1F80A11FC8386F25A438EECEC07A250251FC3803E6F58C12560C4AD840E95E91C151A72936F496F35732D860FE635F62C8F2DA16B505C5
310
45B74125BAA2FA9E05D7CC053D063734D5C7665FD55B6B8D15D5E9BFEAFD8490FFA45E504B0304140006080800F0709440DC95149DFD000000A00100003B0000006662782F39393034353737342D373133312D343646302D383131362D4545353939353146353732432F7265736F75726365732F636F72652E786D6C8D504B
310
6E833010BD0A9ABDC136A4A1C83882A43D412F6099496225D8913F558F5F13A8D4EEBA9919BD8FE6E989C3D77C2F3ED107E36C0FACA450A0D56E32F6D2438A67D2427190C23B177FC9A0B06AC61E1618A4B878971E1BA49D8D686346AD9B7003550818A1D0F77CF410F4156755AA14B322DCCA87D23775C1929599CE3A2942
310
F43940B13E5926488FC125AF31886A65A548C94C9BC64CF9A7391BF4209BB781F1D3C0484D29270DDBBF9376E427425F8676F77A1CC7617714D56296229AF927A3F6A8224E2039659CD08670FAC19A8EEEBBBA26B4ED2815D522FF634A8FE99FA6646CACF91677B505902C07791252544B5F793DCBCC7BE9567E03504B0102
310
14000A0000080000F07094403DEE336E79000000790000001B00000000000000000000000000000000006175746F6465736B2D64657369676E2D7061636B6167652E786D6C504B01021400140006080800F0709440D486FD9CA0000000F40000001300000000000000000000000000B20000005B436F6E74656E745F547970
310
65735D2E786D6C504B01021400140006080800F0709440B47F49ACEA0000007C010000080000000000000000000000000083010000636F72652E786D6C504B01021400140006080800F070944055019EA25F0000007C000000070000000000000000000000000093020000636E782E786D6C504B01021400140006080800F0
310
709440584E50C366010000020300000C00000000000000000000000000170300006662782F636F72652E786D6C504B01021400140006080800F07094405E571CEB7D0000009D0000000B00000000000000000000000000A70400006662782F636E782E786D6C504B01021400140006080800F07094403B0FC5852901000014
310
02000031000000000000000000000000004D0500006662782F39393034353737342D373133312D343646302D383131362D4545353939353146353732432F636F72652E786D6C504B01021400140006080800F0709440C205979054010000330300003000000000000000000000000000C50600006662782F39393034353737
310
342D373133312D343646302D383131362D4545353939353146353732432F636E782E786D6C504B01021400140006080800F070944092BDE2BF61070000991B00003400000000000000000000000000670800006662782F39393034353737342D373133312D343646302D383131362D4545353939353146353732432F6F626A
310
656374732E786D6C504B01021400140006080000F070944000000000000000000000000035000000000000000000000000001A1000006662782F39393034353737342D373133312D343646302D383131362D4545353939353146353732432F76657274696365732E62696E504B01021400140006080800F0709440F270F133
310
060000000400000036000000000000000000000000006D1000006662782F39393034353737342D373133312D343646302D383131362D4545353939353146353732432F747269616E676C65732E62696E504B01021400140006080000F07094400000000000000000000000003700000000000000000000000000C710000066
310
62782F39393034353737342D373133312D343646302D383131362D4545353939353146353732432F617474726962757465732E62696E504B01021400140006080800F0709440D5987DFC8F0000004101000036000000000000000000000000001C1100006662782F39393034353737342D373133312D343646302D38313136
310
2D4545353939353146353732432F6469726563746F72792E786D6C504B01021400140006080800F0709440DC95149DFD000000A00100003B00000000000000000000000000FF1100006662782F39393034353737342D373133312D343646302D383131362D4545353939353146353732432F7265736F75726365732F636F72
310
652E786D6C504B0506000000000E000E0080040000551300000000
  0
XRECORD
  5
27
102
{ACAD_REACTORS
330
22
102
}
330
22
100
AcDbXrecord
280
     1
270
     1
271
     1
  0
XRECORD
  5
26
102
{ACAD_REACTORS
330
22
102
}
330
22
100
AcDbXrecord
280
     1
270
     1
271
     1
  0
XRECORD
  5
28
102
{ACAD_REACTORS
330
22
102
}
330
22
100
AcDbXrecord
280
     1
270
     1
271
     1
  0
XRECORD
  5
25
102
{ACAD_REACTORS
330
22
102
}
330
22
100
AcDbXrecord
280
     1
270
     1
271
     1
  0
XRECORD
  5
28A
102
{ACAD_REACTORS
330
289
102
}
330
289
100
AcDbXrecord
280
     1
102
ACAD_ROUNDTRIP_2012_MLEADER_STYLE
298
     1
  0
CELLSTYLEMAP
  5
288
102
{ACAD_REACTORS
330
234
102
}
330
234
100
AcDbCellStyleMap
 90
        3
300
CELLSTYLE
  1
TABLEFORMAT_BEGIN
 90
        5
170
     1
 91
        0
 92
    32768
 62
   257
 93
        1
300
CONTENTFORMAT
  1
CONTENTFORMAT_BEGIN
 90
        0
 91
        0
 92
      512
 93
        0
300

 40
0.0
140
1.0
 94
        5
 62
     0
340
55
144
0.25
309
CONTENTFORMAT_END
171
     0
 94
        0
309
TABLEFORMAT_END
  1
CELLSTYLE_BEGIN
 90
        1
 91
        1
300
_TITLE
309
CELLSTYLE_END
300
CELLSTYLE
  1
TABLEFORMAT_BEGIN
 90
        5
170
     1
 91
        0
 92
        0
 62
   257
 93
        1
300
CONTENTFORMAT
  1
CONTENTFORMAT_BEGIN
 90
        0
 91
        0
 92
      512
 93
        0
300

 40
0.0
140
1.0
 94
        5
 62
     0
340
55
144
0.18
309
CONTENTFORMAT_END
171
     0
 94
        0
309
TABLEFORMAT_END
  1
CELLSTYLE_BEGIN
 90
        2
 91
        1
300
_HEADER
309
CELLSTYLE_END
300
CELLSTYLE
  1
TABLEFORMAT_BEGIN
 90
        5
170
     1
 91
        0
 92
        0
 62
   257
 93
        1
300
CONTENTFORMAT
  1
CONTENTFORMAT_BEGIN
 90
        0
 91
        0
 92
      512
 93
        0
300

 40
0.0
140
1.0
 94
        2
 62
     0
340
55
144
0.18
309
CONTENTFORMAT_END
171
     0
 94
        0
309
TABLEFORMAT_END
  1
CELLSTYLE_BEGIN
 90
        3
 91
        2
300
_DATA
309
CELLSTYLE_END
  0
XRECORD
  5
2C0
102
{ACAD_REACTORS
330
234
102
}
330
234
100
AcDbXrecord
280
     1
102
ACAD_ROUNDTRIP_PRE2007_TABLESTYLE
 90
      512
 91
        0
  1

 92
      512
 93
        0
  2

 94
      512
 95
        0
  3

  0
XRECORD
  5
29B
102
{ACAD_REACTORS
330
29A
102
}
330
29A
100
AcDbXrecord
280
     1
102
RTVSPropertyOp0
 70
     1
102
RTVSPropertyOp1
 70
     1
102
RTVSPropertyOp2
 70
     1
102
RTVSPropertyOp3
 70
     1
102
RTVSPropertyOp4
 70
     1
102
RTVSPropertyOp5
 70
     1
102
RTVSPropertyOp6
 70
     1
102
RTVSPropertyOp7
 70
     1
102
RTVSPropertyOp8
 70
     1
102
RTVSPropertyOp9
 70
     1
102
RTVSPropertyOp10
 70
     1
102
RTVSPropertyOp11
 70
     1
102
RTVSPropertyOp12
 70
     1
102
RTVSPropertyOp13
 70
     1
102
RTVSPropertyOp14
 70
     1
102
RTVSPropertyOp15
 70
     1
102
RTVSPropertyOp16
 70
     1
102
RTVSPropertyOp17
 70
     1
102
RTVSPropertyOp18
 70
     1
102
RTVSPropertyOp19
 70
     1
102
RTVSPropertyOp20
 70
     1
102
RTVSPropertyOp21
 70
     1
102
RTVSPropertyOp22
 70
     1
102
RTVSPropertyOp23
 70
     1
102
RTVSPropertyOp24
 70
     1
102
RTVSPropertyOp25
 70
     1
102
RTVSPropertyOp26
 70
     1
102
RTVSPropertyOp27
 70
     1
102
RTVSPropertyOp28
 70
     1
102
RTVSPropertyOp29
 70
     1
102
RTVSPropertyOp30
 70
     1
102
RTVSPropertyOp31
 70
     1
102
RTVSPropertyOp32
 70
     1
  0
XRECORD
  5
299
102
{ACAD_REACTORS
330
298
102
}
330
298
100
AcDbXrecord
280
     1
102
RTVSPropertyOp0
 70
     1
102
RTVSPropertyOp1
 70
     1
102
RTVSPropertyOp2
 70
     1
102
RTVSPropertyOp3
 70
     1
102
RTVSPropertyOp4
 70
     1
102
RTVSPropertyOp5
 70
     1
102
RTVSPropertyOp6
 70
     1
102
RTVSPropertyOp7
 70
     1
102
RTVSPropertyOp8
 70
     1
102
RTVSPropertyOp9
 70
     1
102
RTVSPropertyOp10
 70
     1
102
RTVSPropertyOp11
 70
     1
102
RTVSPropertyOp12
 70
     1
102
RTVSPropertyOp13
 70
     1
102
RTVSPropertyOp14
 70
     1
102
RTVSPropertyOp15
 70
     1
102
RTVSPropertyOp16
 70
     1
102
RTVSPropertyOp17
 70
     1
102
RTVSPropertyOp18
 70
     1
102
RTVSPropertyOp19
 70
     1
102
RTVSPropertyOp20
 70
     1
102
RTVSPropertyOp21
 70
     1
102
RTVSPropertyOp22
 70
     1
102
RTVSPropertyOp23
 70
     1
102
RTVSPropertyOp24
 70
     1
102
RTVSPropertyOp25
 70
     1
102
RTVSPropertyOp26
 70
     1
102
RTVSPropertyOp27
 70
     1
102
RTVSPropertyOp28
 70
     1
102
RTVSPropertyOp29
 70
     1
102
RTVSPropertyOp30
 70
     1
102
RTVSPropertyOp31
 70
     1
102
RTVSPropertyOp32
 70
     1
  0
XRECORD
  5
2A7
102
{ACAD_REACTORS
330
2A6
102
}
330
2A6
100
AcDbXrecord
280
     1
102
RTVSPropertyOp0
 70
     1
102
RTVSPropertyOp1
 70
     1
102
RTVSPropertyOp2
 70
     1
102
RTVSPropertyOp3
 70
     1
102
RTVSPropertyOp4
 70
     1
102
RTVSPropertyOp5
 70
     1
102
RTVSPropertyOp6
 70
     1
102
RTVSPropertyOp7
 70
     1
102
RTVSPropertyOp8
 70
     1
102
RTVSPropertyOp9
 70
     1
102
RTVSPropertyOp10
 70
     1
102
RTVSPropertyOp11
 70
     1
102
RTVSPropertyOp12
 70
     1
102
RTVSPropertyOp13
 70
     1
102
RTVSPropertyOp14
 70
     1
102
RTVSPropertyOp15
 70
     1
102
RTVSPropertyOp16
 70
     1
102
RTVSPropertyOp17
 70
     1
102
RTVSPropertyOp18
 70
     1
102
RTVSPropertyOp19
 70
     1
102
RTVSPropertyOp20
 70
     1
102
RTVSPropertyOp21
 70
     1
102
RTVSPropertyOp22
 70
     1
102
RTVSPropertyOp23
 70
     1
102
RTVSPropertyOp24
 70
     1
102
RTVSPropertyOp25
 70
     1
102
RTVSPropertyOp26
 70
     1
102
RTVSPropertyOp27
 70
     1
102
RTVSPropertyOp28
 70
     1
102
RTVSPropertyOp29
 70
     1
102
RTVSPropertyOp30
 70
     1
102
RTVSPropertyOp31
 70
     1
102
RTVSPropertyOp32
 70
     1
  0
XRECORD
  5
2AF
102
{ACAD_REACTORS
330
2AE
102
}
330
2AE
100
AcDbXrecord
280
     1
102
RTVSPropertyOp0
 70
     1
102
RTVSPropertyOp1
 70
     1
102
RTVSPropertyOp2
 70
     1
102
RTVSPropertyOp3
 70
     1
102
RTVSPropertyOp4
 70
     1
102
RTVSPropertyOp5
 70
     1
102
RTVSPropertyOp6
 70
     1
102
RTVSPropertyOp7
 70
     1
102
RTVSPropertyOp8
 70
     1
102
RTVSPropertyOp9
 70
     1
102
RTVSPropertyOp10
 70
     1
102
RTVSPropertyOp11
 70
     1
102
RTVSPropertyOp12
 70
     1
102
RTVSPropertyOp13
 70
     1
102
RTVSPropertyOp14
 70
     1
102
RTVSPropertyOp15
 70
     1
102
RTVSPropertyOp16
 70
     1
102
RTVSPropertyOp17
 70
     1
102
RTVSPropertyOp18
 70
     1
102
RTVSPropertyOp19
 70
     1
102
RTVSPropertyOp20
 70
     1
102
RTVSPropertyOp21
 70
     1
102
RTVSPropertyOp22
 70
     1
102
RTVSPropertyOp23
 70
     1
102
RTVSPropertyOp24
 70
     1
102
RTVSPropertyOp25
 70
     1
102
RTVSPropertyOp26
 70
     1
102
RTVSPropertyOp27
 70
     1
102
RTVSPropertyOp28
 70
     1
102
RTVSPropertyOp29
 70
     1
102
RTVSPropertyOp30
 70
     1
102
RTVSPropertyOp31
 70
     1
102
RTVSPropertyOp32
 70
     1
  0
XRECORD
  5
2A1
102
{ACAD_REACTORS
330
2A0
102
}
330
2A0
100
AcDbXrecord
280
     1
102
RTVSPropertyOp0
 70
     1
102
RTVSPropertyOp1
 70
     1
102
RTVSPropertyOp2
 70
     1
102
RTVSPropertyOp3
 70
     1
102
RTVSPropertyOp4
 70
     1
102
RTVSPropertyOp5
 70
     1
102
RTVSPropertyOp6
 70
     1
102
RTVSPropertyOp7
 70
     1
102
RTVSPropertyOp8
 70
     1
102
RTVSPropertyOp9
 70
     1
102
RTVSPropertyOp10
 70
     1
102
RTVSPropertyOp11
 70
     1
102
RTVSPropertyOp12
 70
     1
102
RTVSPropertyOp13
 70
     1
102
RTVSPropertyOp14
 70
     1
102
RTVSPropertyOp15
 70
     1
102
RTVSPropertyOp16
 70
     1
102
RTVSPropertyOp17
 70
     1
102
RTVSPropertyOp18
 70
     1
102
RTVSPropertyOp19
 70
     1
102
RTVSPropertyOp20
 70
     1
102
RTVSPropertyOp21
 70
     1
102
RTVSPropertyOp22
 70
     1
102
RTVSPropertyOp23
 70
     1
102
RTVSPropertyOp24
 70
     1
102
RTVSPropertyOp25
 70
     1
102
RTVSPropertyOp26
 70
     1
102
RTVSPropertyOp27
 70
     1
102
RTVSPropertyOp28
 70
     1
102
RTVSPropertyOp29
 70
     1
102
RTVSPropertyOp30
 70
     1
102
RTVSPropertyOp31
 70
     1
102
RTVSPropertyOp32
 70
     1
  0
XRECORD
  5
2A5
102
{ACAD_REACTORS
330
2A4
102
}
330
2A4
100
AcDbXrecord
280
     1
102
RTVSPropertyOp0
 70
     1
102
RTVSPropertyOp1
 70
     1
102
RTVSPropertyOp2
 70
     1
102
RTVSPropertyOp3
 70
     1
102
RTVSPropertyOp4
 70
     1
102
RTVSPropertyOp5
 70
     1
102
RTVSPropertyOp6
 70
     1
102
RTVSPropertyOp7
 70
     1
102
RTVSPropertyOp8
 70
     1
102
RTVSPropertyOp9
 70
     1
102
RTVSPropertyOp10
 70
     1
102
RTVSPropertyOp11
 70
     1
102
RTVSPropertyOp12
 70
     1
102
RTVSPropertyOp13
 70
     1
102
RTVSPropertyOp14
 70
     1
102
RTVSPropertyOp15
 70
     1
102
RTVSPropertyOp16
 70
     1
102
RTVSPropertyOp17
 70
     1
102
RTVSPropertyOp18
 70
     1
102
RTVSPropertyOp19
 70
     1
102
RTVSPropertyOp20
 70
     1
102
RTVSPropertyOp21
 70
     1
102
RTVSPropertyOp22
 70
     1
102
RTVSPropertyOp23
 70
     1
102
RTVSPropertyOp24
 70
     1
102
RTVSPropertyOp25
 70
     1
102
RTVSPropertyOp26
 70
     1
102
RTVSPropertyOp27
 70
     1
102
RTVSPropertyOp28
 70
     1
102
RTVSPropertyOp29
 70
     1
102
RTVSPropertyOp30
 70
     1
102
RTVSPropertyOp31
 70
     1
102
RTVSPropertyOp32
 70
     1
  0
XRECORD
  5
2BF
102
{ACAD_REACTORS
330
2BE
102
}
330
2BE
100
AcDbXrecord
280
     1
102
RTVSPropertyOp0
 70
     0
102
RTVSPropertyOp1
 70
     0
102
RTVSPropertyOp2
 70
     0
102
RTVSPropertyOp3
 70
     0
102
RTVSPropertyOp4
 70
     0
102
RTVSPropertyOp5
 70
     0
102
RTVSPropertyOp6
 70
     0
102
RTVSPropertyOp7
 70
     0
102
RTVSPropertyOp8
 70
     0
102
RTVSPropertyOp9
 70
     0
102
RTVSPropertyOp10
 70
     0
102
RTVSPropertyOp11
 70
     0
102
RTVSPropertyOp12
 70
     0
102
RTVSPropertyOp13
 70
     0
102
RTVSPropertyOp14
 70
     2
102
RTVSPropertyOp15
 70
     0
102
RTVSPropertyOp16
 70
     0
102
RTVSPropertyOp17
 70
     0
102
RTVSPropertyOp18
 70
     0
102
RTVSPropertyOp19
 70
     0
102
RTVSPropertyOp20
 70
     0
102
RTVSPropertyOp21
 70
     0
102
RTVSPropertyOp22
 70
     0
102
RTVSPropertyOp23
 70
     0
102
RTVSPropertyOp24
 70
     0
102
RTVSPropertyOp25
 70
     0
102
RTVSPropertyOp26
 70
     0
102
RTVSPropertyOp27
 70
     0
102
RTVSPropertyOp28
 70
     1
102
RTVSPropertyOp29
 70
     1
102
RTVSPropertyOp30
 70
     1
102
RTVSPropertyOp31
 70
     1
102
RTVSPropertyOp32
 70
     1
  0
XRECORD
  5
2AD
102
{ACAD_REACTORS
330
2AC
102
}
330
2AC
100
AcDbXrecord
280
     1
102
RTVSPropertyOp0
 70
     1
102
RTVSPropertyOp1
 70
     1
102
RTVSPropertyOp2
 70
     1
102
RTVSPropertyOp3
 70
     1
102
RTVSPropertyOp4
 70
     1
102
RTVSPropertyOp5
 70
     1
102
RTVSPropertyOp6
 70
     1
102
RTVSPropertyOp7
 70
     1
102
RTVSPropertyOp8
 70
     1
102
RTVSPropertyOp9
 70
     1
102
RTVSPropertyOp10
 70
     1
102
RTVSPropertyOp11
 70
     1
102
RTVSPropertyOp12
 70
     1
102
RTVSPropertyOp13
 70
     1
102
RTVSPropertyOp14
 70
     1
102
RTVSPropertyOp15
 70
     1
102
RTVSPropertyOp16
 70
     1
102
RTVSPropertyOp17
 70
     1
102
RTVSPropertyOp18
 70
     1
102
RTVSPropertyOp19
 70
     1
102
RTVSPropertyOp20
 70
     1
102
RTVSPropertyOp21
 70
     1
102
RTVSPropertyOp22
 70
     1
102
RTVSPropertyOp23
 70
     1
102
RTVSPropertyOp24
 70
     1
102
RTVSPropertyOp25
 70
     1
102
RTVSPropertyOp26
 70
     1
102
RTVSPropertyOp27
 70
     1
102
RTVSPropertyOp28
 70
     1
102
RTVSPropertyOp29
 70
     1
102
RTVSPropertyOp30
 70
     1
102
RTVSPropertyOp31
 70
     1
102
RTVSPropertyOp32
 70
     1
  0
XRECORD
  5
291
102
{ACAD_REACTORS
330
290
102
}
330
290
100
AcDbXrecord
280
     1
102
RTVSPropertyOp0
 70
     1
102
RTVSPropertyOp1
 70
     1
102
RTVSPropertyOp2
 70
     1
102
RTVSPropertyOp3
 70
     1
102
RTVSPropertyOp4
 70
     1
102
RTVSPropertyOp5
 70
     1
102
RTVSPropertyOp6
 70
     1
102
RTVSPropertyOp7
 70
     1
102
RTVSPropertyOp8
 70
     1
102
RTVSPropertyOp9
 70
     1
102
RTVSPropertyOp10
 70
     1
102
RTVSPropertyOp11
 70
     1
102
RTVSPropertyOp12
 70
     1
102
RTVSPropertyOp13
 70
     1
102
RTVSPropertyOp14
 70
     1
102
RTVSPropertyOp15
 70
     1
102
RTVSPropertyOp16
 70
     1
102
RTVSPropertyOp17
 70
     1
102
RTVSPropertyOp18
 70
     1
102
RTVSPropertyOp19
 70
     1
102
RTVSPropertyOp20
 70
     1
102
RTVSPropertyOp21
 70
     1
102
RTVSPropertyOp22
 70
     1
102
RTVSPropertyOp23
 70
     1
102
RTVSPropertyOp24
 70
     1
102
RTVSPropertyOp25
 70
     1
102
RTVSPropertyOp26
 70
     1
102
RTVSPropertyOp27
 70
     1
102
RTVSPropertyOp28
 70
     1
102
RTVSPropertyOp29
 70
     1
102
RTVSPropertyOp30
 70
     1
102
RTVSPropertyOp31
 70
     1
102
RTVSPropertyOp32
 70
     1
  0
XRECORD
  5
293
102
{ACAD_REACTORS
330
292
102
}
330
292
100
AcDbXrecord
280
     1
102
RTVSPropertyOp0
 70
     1
102
RTVSPropertyOp1
 70
     1
102
RTVSPropertyOp2
 70
     1
102
RTVSPropertyOp3
 70
     1
102
RTVSPropertyOp4
 70
     1
102
RTVSPropertyOp5
 70
     1
102
RTVSPropertyOp6
 70
     1
102
RTVSPropertyOp7
 70
     1
102
RTVSPropertyOp8
 70
     1
102
RTVSPropertyOp9
 70
     1
102
RTVSPropertyOp10
 70
     1
102
RTVSPropertyOp11
 70
     1
102
RTVSPropertyOp12
 70
     1
102
RTVSPropertyOp13
 70
     1
102
RTVSPropertyOp14
 70
     1
102
RTVSPropertyOp15
 70
     1
102
RTVSPropertyOp16
 70
     1
102
RTVSPropertyOp17
 70
     1
102
RTVSPropertyOp18
 70
     1
102
RTVSPropertyOp19
 70
     1
102
RTVSPropertyOp20
 70
     1
102
RTVSPropertyOp21
 70
     1
102
RTVSPropertyOp22
 70
     1
102
RTVSPropertyOp23
 70
     1
102
RTVSPropertyOp24
 70
     1
102
RTVSPropertyOp25
 70
     1
102
RTVSPropertyOp26
 70
     1
102
RTVSPropertyOp27
 70
     1
102
RTVSPropertyOp28
 70
     1
102
RTVSPropertyOp29
 70
     1
102
RTVSPropertyOp30
 70
     1
102
RTVSPropertyOp31
 70
     1
102
RTVSPropertyOp32
 70
     1
  0
XRECORD
  5
295
102
{ACAD_REACTORS
330
294
102
}
330
294
100
AcDbXrecord
280
     1
102
RTVSPropertyOp0
 70
     1
102
RTVSPropertyOp1
 70
     1
102
RTVSPropertyOp2
 70
     1
102
RTVSPropertyOp3
 70
     1
102
RTVSPropertyOp4
 70
     1
102
RTVSPropertyOp5
 70
     1
102
RTVSPropertyOp6
 70
     1
102
RTVSPropertyOp7
 70
     1
102
RTVSPropertyOp8
 70
     1
102
RTVSPropertyOp9
 70
     1
102
RTVSPropertyOp10
 70
     1
102
RTVSPropertyOp11
 70
     1
102
RTVSPropertyOp12
 70
     1
102
RTVSPropertyOp13
 70
     1
102
RTVSPropertyOp14
 70
     1
102
RTVSPropertyOp15
 70
     1
102
RTVSPropertyOp16
 70
     1
102
RTVSPropertyOp17
 70
     1
102
RTVSPropertyOp18
 70
     1
102
RTVSPropertyOp19
 70
     1
102
RTVSPropertyOp20
 70
     1
102
RTVSPropertyOp21
 70
     1
102
RTVSPropertyOp22
 70
     1
102
RTVSPropertyOp23
 70
     1
102
RTVSPropertyOp24
 70
     1
102
RTVSPropertyOp25
 70
     1
102
RTVSPropertyOp26
 70
     1
102
RTVSPropertyOp27
 70
     1
102
RTVSPropertyOp28
 70
     1
102
RTVSPropertyOp29
 70
     1
102
RTVSPropertyOp30
 70
     1
102
RTVSPropertyOp31
 70
     1
102
RTVSPropertyOp32
 70
     1
  0
XRECORD
  5
297
102
{ACAD_REACTORS
330
296
102
}
330
296
100
AcDbXrecord
280
     1
102
RTVSPropertyOp0
 70
     1
102
RTVSPropertyOp1
 70
     1
102
RTVSPropertyOp2
 70
     1
102
RTVSPropertyOp3
 70
     1
102
RTVSPropertyOp4
 70
     1
102
RTVSPropertyOp5
 70
     1
102
RTVSPropertyOp6
 70
     1
102
RTVSPropertyOp7
 70
     1
102
RTVSPropertyOp8
 70
     1
102
RTVSPropertyOp9
 70
     1
102
RTVSPropertyOp10
 70
     1
102
RTVSPropertyOp11
 70
     1
102
RTVSPropertyOp12
 70
     1
102
RTVSPropertyOp13
 70
     1
102
RTVSPropertyOp14
 70
     1
102
RTVSPropertyOp15
 70
     1
102
RTVSPropertyOp16
 70
     1
102
RTVSPropertyOp17
 70
     1
102
RTVSPropertyOp18
 70
     1
102
RTVSPropertyOp19
 70
     1
102
RTVSPropertyOp20
 70
     1
102
RTVSPropertyOp21
 70
     1
102
RTVSPropertyOp22
 70
     1
102
RTVSPropertyOp23
 70
     1
102
RTVSPropertyOp24
 70
     1
102
RTVSPropertyOp25
 70
     1
102
RTVSPropertyOp26
 70
     1
102
RTVSPropertyOp27
 70
     1
102
RTVSPropertyOp28
 70
     1
102
RTVSPropertyOp29
 70
     1
102
RTVSPropertyOp30
 70
     1
102
RTVSPropertyOp31
 70
     1
102
RTVSPropertyOp32
 70
     1
  0
XRECORD
  5
29F
102
{ACAD_REACTORS
330
29E
102
}
330
29E
100
AcDbXrecord
280
     1
102
RTVSPropertyOp0
 70
     1
102
RTVSPropertyOp1
 70
     1
102
RTVSPropertyOp2
 70
     1
102
RTVSPropertyOp3
 70
     1
102
RTVSPropertyOp4
 70
     1
102
RTVSPropertyOp5
 70
     1
102
RTVSPropertyOp6
 70
     1
102
RTVSPropertyOp7
 70
     1
102
RTVSPropertyOp8
 70
     1
102
RTVSPropertyOp9
 70
     1
102
RTVSPropertyOp10
 70
     1
102
RTVSPropertyOp11
 70
     1
102
RTVSPropertyOp12
 70
     1
102
RTVSPropertyOp13
 70
     1
102
RTVSPropertyOp14
 70
     1
102
RTVSPropertyOp15
 70
     1
102
RTVSPropertyOp16
 70
     1
102
RTVSPropertyOp17
 70
     1
102
RTVSPropertyOp18
 70
     1
102
RTVSPropertyOp19
 70
     1
102
RTVSPropertyOp20
 70
     1
102
RTVSPropertyOp21
 70
     1
102
RTVSPropertyOp22
 70
     1
102
RTVSPropertyOp23
 70
     1
102
RTVSPropertyOp24
 70
     1
102
RTVSPropertyOp25
 70
     1
102
RTVSPropertyOp26
 70
     1
102
RTVSPropertyOp27
 70
     1
102
RTVSPropertyOp28
 70
     1
102
RTVSPropertyOp29
 70
     1
102
RTVSPropertyOp30
 70
     1
102
RTVSPropertyOp31
 70
     1
102
RTVSPropertyOp32
 70
     1
  0
XRECORD
  5
2BB
102
{ACAD_REACTORS
330
2BA
102
}
330
2BA
100
AcDbXrecord
280
     1
102
RTVSPropertyOp0
 70
     0
102
RTVSPropertyOp1
 70
     0
102
RTVSPropertyOp2
 70
     0
102
RTVSPropertyOp3
 70
     0
102
RTVSPropertyOp4
 70
     0
102
RTVSPropertyOp5
 70
     0
102
RTVSPropertyOp6
 70
     0
102
RTVSPropertyOp7
 70
     0
102
RTVSPropertyOp8
 70
     0
102
RTVSPropertyOp9
 70
     0
102
RTVSPropertyOp10
 70
     0
102
RTVSPropertyOp11
 70
     0
102
RTVSPropertyOp12
 70
     0
102
RTVSPropertyOp13
 70
     0
102
RTVSPropertyOp14
 70
     2
102
RTVSPropertyOp15
 70
     0
102
RTVSPropertyOp16
 70
     0
102
RTVSPropertyOp17
 70
     0
102
RTVSPropertyOp18
 70
     0
102
RTVSPropertyOp19
 70
     0
102
RTVSPropertyOp20
 70
     0
102
RTVSPropertyOp21
 70
     0
102
RTVSPropertyOp22
 70
     0
102
RTVSPropertyOp23
 70
     0
102
RTVSPropertyOp24
 70
     0
102
RTVSPropertyOp25
 70
     0
102
RTVSPropertyOp26
 70
     0
102
RTVSPropertyOp27
 70
     0
102
RTVSPropertyOp28
 70
     1
102
RTVSPropertyOp29
 70
     1
102
RTVSPropertyOp30
 70
     1
102
RTVSPropertyOp31
 70
     1
102
RTVSPropertyOp32
 70
     1
  0
XRECORD
  5
2AB
102
{ACAD_REACTORS
330
2AA
102
}
330
2AA
100
AcDbXrecord
280
     1
102
RTVSPropertyOp0
 70
     1
102
RTVSPropertyOp1
 70
     1
102
RTVSPropertyOp2
 70
     1
102
RTVSPropertyOp3
 70
     1
102
RTVSPropertyOp4
 70
     1
102
RTVSPropertyOp5
 70
     1
102
RTVSPropertyOp6
 70
     1
102
RTVSPropertyOp7
 70
     1
102
RTVSPropertyOp8
 70
     1
102
RTVSPropertyOp9
 70
     1
102
RTVSPropertyOp10
 70
     1
102
RTVSPropertyOp11
 70
     1
102
RTVSPropertyOp12
 70
     1
102
RTVSPropertyOp13
 70
     1
102
RTVSPropertyOp14
 70
     1
102
RTVSPropertyOp15
 70
     1
102
RTVSPropertyOp16
 70
     1
102
RTVSPropertyOp17
 70
     1
102
RTVSPropertyOp18
 70
     1
102
RTVSPropertyOp19
 70
     1
102
RTVSPropertyOp20
 70
     1
102
RTVSPropertyOp21
 70
     1
102
RTVSPropertyOp22
 70
     1
102
RTVSPropertyOp23
 70
     1
102
RTVSPropertyOp24
 70
     1
102
RTVSPropertyOp25
 70
     1
102
RTVSPropertyOp26
 70
     1
102
RTVSPropertyOp27
 70
     1
102
RTVSPropertyOp28
 70
     1
102
RTVSPropertyOp29
 70
     1
102
RTVSPropertyOp30
 70
     1
102
RTVSPropertyOp31
 70
     1
102
RTVSPropertyOp32
 70
     1
  0
XRECORD
  5
2BD
102
{ACAD_REACTORS
330
2BC
102
}
330
2BC
100
AcDbXrecord
280
     1
102
RTVSPropertyOp0
 70
     0
102
RTVSPropertyOp1
 70
     0
102
RTVSPropertyOp2
 70
     0
102
RTVSPropertyOp3
 70
     0
102
RTVSPropertyOp4
 70
     0
102
RTVSPropertyOp5
 70
     0
102
RTVSPropertyOp6
 70
     0
102
RTVSPropertyOp7
 70
     0
102
RTVSPropertyOp8
 70
     0
102
RTVSPropertyOp9
 70
     0
102
RTVSPropertyOp10
 70
     0
102
RTVSPropertyOp11
 70
     0
102
RTVSPropertyOp12
 70
     0
102
RTVSPropertyOp13
 70
     0
102
RTVSPropertyOp14
 70
     2
102
RTVSPropertyOp15
 70
     0
102
RTVSPropertyOp16
 70
     0
102
RTVSPropertyOp17
 70
     0
102
RTVSPropertyOp18
 70
     0
102
RTVSPropertyOp19
 70
     0
102
RTVSPropertyOp20
 70
     0
102
RTVSPropertyOp21
 70
     0
102
RTVSPropertyOp22
 70
     0
102
RTVSPropertyOp23
 70
     0
102
RTVSPropertyOp24
 70
     0
102
RTVSPropertyOp25
 70
     0
102
RTVSPropertyOp26
 70
     0
102
RTVSPropertyOp27
 70
     0
102
RTVSPropertyOp28
 70
     1
102
RTVSPropertyOp29
 70
     1
102
RTVSPropertyOp30
 70
     1
102
RTVSPropertyOp31
 70
     1
102
RTVSPropertyOp32
 70
     1
  0
XRECORD
  5
2A3
102
{ACAD_REACTORS
330
2A2
102
}
330
2A2
100
AcDbXrecord
280
     1
102
RTVSPropertyOp0
 70
     1
102
RTVSPropertyOp1
 70
     1
102
RTVSPropertyOp2
 70
     1
102
RTVSPropertyOp3
 70
     1
102
RTVSPropertyOp4
 70
     1
102
RTVSPropertyOp5
 70
     1
102
RTVSPropertyOp6
 70
     1
102
RTVSPropertyOp7
 70
     1
102
RTVSPropertyOp8
 70
     1
102
RTVSPropertyOp9
 70
     1
102
RTVSPropertyOp10
 70
     1
102
RTVSPropertyOp11
 70
     1
102
RTVSPropertyOp12
 70
     1
102
RTVSPropertyOp13
 70
     1
102
RTVSPropertyOp14
 70
     1
102
RTVSPropertyOp15
 70
     1
102
RTVSPropertyOp16
 70
     1
102
RTVSPropertyOp17
 70
     1
102
RTVSPropertyOp18
 70
     1
102
RTVSPropertyOp19
 70
     1
102
RTVSPropertyOp20
 70
     1
102
RTVSPropertyOp21
 70
     1
102
RTVSPropertyOp22
 70
     1
102
RTVSPropertyOp23
 70
     1
102
RTVSPropertyOp24
 70
     1
102
RTVSPropertyOp25
 70
     1
102
RTVSPropertyOp26
 70
     1
102
RTVSPropertyOp27
 70
     1
102
RTVSPropertyOp28
 70
     1
102
RTVSPropertyOp29
 70
     1
102
RTVSPropertyOp30
 70
     1
102
RTVSPropertyOp31
 70
     1
102
RTVSPropertyOp32
 70
     1
  0
XRECORD
  5
2B9
102
{ACAD_REACTORS
330
2B8
102
}
330
2B8
100
AcDbXrecord
280
     1
102
RTVSPropertyOp0
 70
     1
102
RTVSPropertyOp1
 70
     1
102
RTVSPropertyOp2
 70
     1
102
RTVSPropertyOp3
 70
     1
102
RTVSPropertyOp4
 70
     1
102
RTVSPropertyOp5
 70
     1
102
RTVSPropertyOp6
 70
     1
102
RTVSPropertyOp7
 70
     1
102
RTVSPropertyOp8
 70
     1
102
RTVSPropertyOp9
 70
     1
102
RTVSPropertyOp10
 70
     1
102
RTVSPropertyOp11
 70
     1
102
RTVSPropertyOp12
 70
     1
102
RTVSPropertyOp13
 70
     1
102
RTVSPropertyOp14
 70
     1
102
RTVSPropertyOp15
 70
     1
102
RTVSPropertyOp16
 70
     1
102
RTVSPropertyOp17
 70
     1
102
RTVSPropertyOp18
 70
     1
102
RTVSPropertyOp19
 70
     1
102
RTVSPropertyOp20
 70
     1
102
RTVSPropertyOp21
 70
     1
102
RTVSPropertyOp22
 70
     1
102
RTVSPropertyOp23
 70
     1
102
RTVSPropertyOp24
 70
     1
102
RTVSPropertyOp25
 70
     1
102
RTVSPropertyOp26
 70
     1
102
RTVSPropertyOp27
 70
     1
102
RTVSPropertyOp28
 70
     1
102
RTVSPropertyOp29
 70
     1
102
RTVSPropertyOp30
 70
     1
102
RTVSPropertyOp31
 70
     1
102
RTVSPropertyOp32
 70
     1
  0
XRECORD
  5
2B7
102
{ACAD_REACTORS
330
2B6
102
}
330
2B6
100
AcDbXrecord
280
     1
102
RTVSPropertyOp0
 70
     1
102
RTVSPropertyOp1
 70
     1
102
RTVSPropertyOp2
 70
     1
102
RTVSPropertyOp3
 70
     1
102
RTVSPropertyOp4
 70
     1
102
RTVSPropertyOp5
 70
     1
102
RTVSPropertyOp6
 70
     1
102
RTVSPropertyOp7
 70
     1
102
RTVSPropertyOp8
 70
     1
102
RTVSPropertyOp9
 70
     1
102
RTVSPropertyOp10
 70
     1
102
RTVSPropertyOp11
 70
     1
102
RTVSPropertyOp12
 70
     1
102
RTVSPropertyOp13
 70
     1
102
RTVSPropertyOp14
 70
     1
102
RTVSPropertyOp15
 70
     1
102
RTVSPropertyOp16
 70
     1
102
RTVSPropertyOp17
 70
     1
102
RTVSPropertyOp18
 70
     1
102
RTVSPropertyOp19
 70
     1
102
RTVSPropertyOp20
 70
     1
102
RTVSPropertyOp21
 70
     1
102
RTVSPropertyOp22
 70
     1
102
RTVSPropertyOp23
 70
     1
102
RTVSPropertyOp24
 70
     1
102
RTVSPropertyOp25
 70
     1
102
RTVSPropertyOp26
 70
     1
102
RTVSPropertyOp27
 70
     1
102
RTVSPropertyOp28
 70
     1
102
RTVSPropertyOp29
 70
     1
102
RTVSPropertyOp30
 70
     1
102
RTVSPropertyOp31
 70
     1
102
RTVSPropertyOp32
 70
     1
  0
XRECORD
  5
2B1
102
{ACAD_REACTORS
330
2B0
102
}
330
2B0
100
AcDbXrecord
280
     1
102
RTVSPropertyOp0
 70
     1
102
RTVSPropertyOp1
 70
     1
102
RTVSPropertyOp2
 70
     1
102
RTVSPropertyOp3
 70
     1
102
RTVSPropertyOp4
 70
     1
102
RTVSPropertyOp5
 70
     1
102
RTVSPropertyOp6
 70
     1
102
RTVSPropertyOp7
 70
     1
102
RTVSPropertyOp8
 70
     1
102
RTVSPropertyOp9
 70
     1
102
RTVSPropertyOp10
 70
     1
102
RTVSPropertyOp11
 70
     1
102
RTVSPropertyOp12
 70
     1
102
RTVSPropertyOp13
 70
     1
102
RTVSPropertyOp14
 70
     1
102
RTVSPropertyOp15
 70
     1
102
RTVSPropertyOp16
 70
     1
102
RTVSPropertyOp17
 70
     1
102
RTVSPropertyOp18
 70
     1
102
RTVSPropertyOp19
 70
     1
102
RTVSPropertyOp20
 70
     1
102
RTVSPropertyOp21
 70
     1
102
RTVSPropertyOp22
 70
     1
102
RTVSPropertyOp23
 70
     1
102
RTVSPropertyOp24
 70
     1
102
RTVSPropertyOp25
 70
     1
102
RTVSPropertyOp26
 70
     1
102
RTVSPropertyOp27
 70
     1
102
RTVSPropertyOp28
 70
     1
102
RTVSPropertyOp29
 70
     1
102
RTVSPropertyOp30
 70
     1
102
RTVSPropertyOp31
 70
     1
102
RTVSPropertyOp32
 70
     1
  0
XRECORD
  5
2B3
102
{ACAD_REACTORS
330
2B2
102
}
330
2B2
100
AcDbXrecord
280
     1
102
RTVSPropertyOp0
 70
     1
102
RTVSPropertyOp1
 70
     1
102
RTVSPropertyOp2
 70
     1
102
RTVSPropertyOp3
 70
     1
102
RTVSPropertyOp4
 70
     1
102
RTVSPropertyOp5
 70
     1
102
RTVSPropertyOp6
 70
     1
102
RTVSPropertyOp7
 70
     1
102
RTVSPropertyOp8
 70
     1
102
RTVSPropertyOp9
 70
     1
102
RTVSPropertyOp10
 70
     1
102
RTVSPropertyOp11
 70
     1
102
RTVSPropertyOp12
 70
     1
102
RTVSPropertyOp13
 70
     1
102
RTVSPropertyOp14
 70
     1
102
RTVSPropertyOp15
 70
     1
102
RTVSPropertyOp16
 70
     1
102
RTVSPropertyOp17
 70
     1
102
RTVSPropertyOp18
 70
     1
102
RTVSPropertyOp19
 70
     1
102
RTVSPropertyOp20
 70
     1
102
RTVSPropertyOp21
 70
     1
102
RTVSPropertyOp22
 70
     1
102
RTVSPropertyOp23
 70
     1
102
RTVSPropertyOp24
 70
     1
102
RTVSPropertyOp25
 70
     1
102
RTVSPropertyOp26
 70
     1
102
RTVSPropertyOp27
 70
     1
102
RTVSPropertyOp28
 70
     1
102
RTVSPropertyOp29
 70
     1
102
RTVSPropertyOp30
 70
     1
102
RTVSPropertyOp31
 70
     1
102
RTVSPropertyOp32
 70
     1
  0
XRECORD
  5
2A9
102
{ACAD_REACTORS
330
2A8
102
}
330
2A8
100
AcDbXrecord
280
     1
102
RTVSPropertyOp0
 70
     1
102
RTVSPropertyOp1
 70
     1
102
RTVSPropertyOp2
 70
     1
102
RTVSPropertyOp3
 70
     1
102
RTVSPropertyOp4
 70
     1
102
RTVSPropertyOp5
 70
     1
102
RTVSPropertyOp6
 70
     1
102
RTVSPropertyOp7
 70
     1
102
RTVSPropertyOp8
 70
     1
102
RTVSPropertyOp9
 70
     1
102
RTVSPropertyOp10
 70
     1
102
RTVSPropertyOp11
 70
     1
102
RTVSPropertyOp12
 70
     1
102
RTVSPropertyOp13
 70
     1
102
RTVSPropertyOp14
 70
     1
102
RTVSPropertyOp15
 70
     1
102
RTVSPropertyOp16
 70
     1
102
RTVSPropertyOp17
 70
     1
102
RTVSPropertyOp18
 70
     1
102
RTVSPropertyOp19
 70
     1
102
RTVSPropertyOp20
 70
     1
102
RTVSPropertyOp21
 70
     1
102
RTVSPropertyOp22
 70
     1
102
RTVSPropertyOp23
 70
     1
102
RTVSPropertyOp24
 70
     1
102
RTVSPropertyOp25
 70
     1
102
RTVSPropertyOp26
 70
     1
102
RTVSPropertyOp27
 70
     1
102
RTVSPropertyOp28
 70
     1
102
RTVSPropertyOp29
 70
     1
102
RTVSPropertyOp30
 70
     1
102
RTVSPropertyOp31
 70
     1
102
RTVSPropertyOp32
 70
     1
  0
XRECORD
  5
29D
102
{ACAD_REACTORS
330
29C
102
}
330
29C
100
AcDbXrecord
280
     1
102
RTVSPropertyOp0
 70
     1
102
RTVSPropertyOp1
 70
     1
102
RTVSPropertyOp2
 70
     1
102
RTVSPropertyOp3
 70
     1
102
RTVSPropertyOp4
 70
     1
102
RTVSPropertyOp5
 70
     1
102
RTVSPropertyOp6
 70
     1
102
RTVSPropertyOp7
 70
     1
102
RTVSPropertyOp8
 70
     1
102
RTVSPropertyOp9
 70
     1
102
RTVSPropertyOp10
 70
     1
102
RTVSPropertyOp11
 70
     1
102
RTVSPropertyOp12
 70
     1
102
RTVSPropertyOp13
 70
     1
102
RTVSPropertyOp14
 70
     1
102
RTVSPropertyOp15
 70
     1
102
RTVSPropertyOp16
 70
     1
102
RTVSPropertyOp17
 70
     1
102
RTVSPropertyOp18
 70
     1
102
RTVSPropertyOp19
 70
     1
102
RTVSPropertyOp20
 70
     1
102
RTVSPropertyOp21
 70
     1
102
RTVSPropertyOp22
 70
     1
102
RTVSPropertyOp23
 70
     1
102
RTVSPropertyOp24
 70
     1
102
RTVSPropertyOp25
 70
     1
102
RTVSPropertyOp26
 70
     1
102
RTVSPropertyOp27
 70
     1
102
RTVSPropertyOp28
 70
     1
102
RTVSPropertyOp29
 70
     1
102
RTVSPropertyOp30
 70
     1
102
RTVSPropertyOp31
 70
     1
102
RTVSPropertyOp32
 70
     1
  0
XRECORD
  5
2B5
102
{ACAD_REACTORS
330
2B4
102
}
330
2B4
100
AcDbXrecord
280
     1
102
RTVSPropertyOp0
 70
     1
102
RTVSPropertyOp1
 70
     1
102
RTVSPropertyOp2
 70
     1
102
RTVSPropertyOp3
 70
     1
102
RTVSPropertyOp4
 70
     1
102
RTVSPropertyOp5
 70
     1
102
RTVSPropertyOp6
 70
     1
102
RTVSPropertyOp7
 70
     1
102
RTVSPropertyOp8
 70
     1
102
RTVSPropertyOp9
 70
     1
102
RTVSPropertyOp10
 70
     1
102
RTVSPropertyOp11
 70
     1
102
RTVSPropertyOp12
 70
     1
102
RTVSPropertyOp13
 70
     1
102
RTVSPropertyOp14
 70
     1
102
RTVSPropertyOp15
 70
     1
102
RTVSPropertyOp16
 70
     1
102
RTVSPropertyOp17
 70
     1
102
RTVSPropertyOp18
 70
     1
102
RTVSPropertyOp19
 70
     1
102
RTVSPropertyOp20
 70
     1
102
RTVSPropertyOp21
 70
     1
102
RTVSPropertyOp22
 70
     1
102
RTVSPropertyOp23
 70
     1
102
RTVSPropertyOp24
 70
     1
102
RTVSPropertyOp25
 70
     1
102
RTVSPropertyOp26
 70
     1
102
RTVSPropertyOp27
 70
     1
102
RTVSPropertyOp28
 70
     1
102
RTVSPropertyOp29
 70
     1
102
RTVSPropertyOp30
 70
     1
102
RTVSPropertyOp31
 70
     1
102
RTVSPropertyOp32
 70
     1
  0
ENDSEC
  0
EOF
