  0
SECTION
  2
HEADER
  9
$ACADVER
  1
AC1015
  9
$ACADMAINTVER
 70
    20
  9
$DWGCODEPAGE
  3
ANSI_1252
  9
$INSBASE
 10
0.0
 20
0.0
 30
0.0
  9
$EXTMIN
 10
0.5000000000000013
 20
0.4999999999999999
 30
0.0
  9
$EXTMAX
 10
16.5
 20
10.5
 30
0.0
  9
$LIMMIN
 10
0.0
 20
0.0
  9
$LIMMAX
 10
17.0
 20
11.0
  9
$ORTHOMODE
 70
     0
  9
$REGENMODE
 70
     1
  9
$FILLMODE
 70
     1
  9
$QTEXTMODE
 70
     0
  9
$MIRRTEXT
 70
     0
  9
$LTSCALE
 40
1.0
  9
$ATTMODE
 70
     1
  9
$TEXTSIZE
 40
0.2
  9
$TRACEWID
 40
0.05
  9
$TEXTSTYLE
  7
Standard
  9
$CLAYER
  8
0
  9
$CELTYPE
  6
ByLayer
  9
$CECOLOR
 62
   256
  9
$CELTSCALE
 40
1.0
  9
$DISPSILH
 70
     0
  9
$DIMSCALE
 40
1.0
  9
$DIMASZ
 40
0.0708661417322835
  9
$DIMEXO
 40
0.0625
  9
$DIMDLI
 40
0.38
  9
$DIMRND
 40
0.0
  9
$DIMDLE
 40
0.0
  9
$DIMEXE
 40
0.18
  9
$DIMTP
 40
0.0
  9
$DIMTM
 40
0.0
  9
$DIMTXT
 40
0.0708661417322835
  9
$DIMCEN
 40
0.09
  9
$DIMTSZ
 40
0.0
  9
$DIMTOL
 70
     0
  9
$DIMLIM
 70
     0
  9
$DIMTIH
 70
     1
  9
$DIMTOH
 70
     1
  9
$DIMSE1
 70
     0
  9
$DIMSE2
 70
     0
  9
$DIMTAD
 70
     0
  9
$DIMZIN
 70
     0
  9
$DIMBLK
  1

  9
$DIMASO
 70
     1
  9
$DIMSHO
 70
     1
  9
$DIMPOST
  1

  9
$DIMAPOST
  1

  9
$DIMALT
 70
     0
  9
$DIMALTD
 70
     2
  9
$DIMALTF
 40
25.4
  9
$DIMLFAC
 40
1.0
  9
$DIMTOFL
 70
     0
  9
$DIMTVP
 40
0.0
  9
$DIMTIX
 70
     0
  9
$DIMSOXD
 70
     0
  9
$DIMSAH
 70
     0
  9
$DIMBLK1
  1

  9
$DIMBLK2
  1

  9
$DIMSTYLE
  2
Standard
  9
$DIMCLRD
 70
     0
  9
$DIMCLRE
 70
     0
  9
$DIMCLRT
 70
     0
  9
$DIMTFAC
 40
1.0
  9
$DIMGAP
 40
0.09
  9
$DIMJUST
 70
     0
  9
$DIMSD1
 70
     0
  9
$DIMSD2
 70
     0
  9
$DIMTOLJ
 70
     1
  9
$DIMTZIN
 70
     0
  9
$DIMALTZ
 70
     0
  9
$DIMALTTZ
 70
     0
  9
$DIMUPT
 70
     0
  9
$DIMDEC
 70
     4
  9
$DIMTDEC
 70
     4
  9
$DIMALTU
 70
     2
  9
$DIMALTTD
 70
     2
  9
$DIMTXSTY
  7
Standard
  9
$DIMAUNIT
 70
     0
  9
$DIMADEC
 70
     0
  9
$DIMALTRND
 40
0.0
  9
$DIMAZIN
 70
     0
  9
$DIMDSEP
 70
    46
  9
$DIMATFIT
 70
     3
  9
$DIMFRAC
 70
     0
  9
$DIMLDRBLK
  1

  9
$DIMLUNIT
 70
     2
  9
$DIMLWD
 70
    -2
  9
$DIMLWE
 70
    -2
  9
$DIMTMOVE
 70
     0
  9
$LUNITS
 70
     2
  9
$LUPREC
 70
     4
  9
$SKETCHINC
 40
0.1
  9
$FILLETRAD
 40
0.0
  9
$AUNITS
 70
     0
  9
$AUPREC
 70
     0
  9
$MENU
  1
.
  9
$ELEVATION
 40
0.0
  9
$PELEVATION
 40
0.0
  9
$THICKNESS
 40
0.0
  9
$LIMCHECK
 70
     0
  9
$CHAMFERA
 40
0.0
  9
$CHAMFERB
 40
0.0
  9
$CHAMFERC
 40
0.0
  9
$CHAMFERD
 40
0.0
  9
$SKPOLY
 70
     0
  9
$TDCREATE
 40
2456038.560614711
  9
$TDUCREATE
 40
2456038.852281377
  9
$TDUPDATE
 40
2456038.591743553
  9
$TDUUPDATE
 40
2456038.883410220
  9
$TDINDWG
 40
0.0026186111
  9
$TDUSRTIMER
 40
0.0026186111
  9
$USRTIMER
 70
     1
  9
$ANGBASE
 50
0.0
  9
$ANGDIR
 70
     0
  9
$PDMODE
 70
     0
  9
$PDSIZE
 40
0.0
  9
$PLINEWID
 40
0.0
  9
$SPLFRAME
 70
     0
  9
$SPLINETYPE
 70
     6
  9
$SPLINESEGS
 70
     8
  9
$HANDSEED
  5
356
  9
$SURFTAB1
 70
     6
  9
$SURFTAB2
 70
     6
  9
$SURFTYPE
 70
     6
  9
$SURFU
 70
     6
  9
$SURFV
 70
     6
  9
$UCSBASE
  2

  9
$UCSNAME
  2

  9
$UCSORG
 10
0.0
 20
0.0
 30
0.0
  9
$UCSXDIR
 10
1.0
 20
0.0
 30
0.0
  9
$UCSYDIR
 10
0.0
 20
1.0
 30
0.0
  9
$UCSORTHOREF
  2

  9
$UCSORTHOVIEW
 70
     0
  9
$UCSORGTOP
 10
0.0
 20
0.0
 30
0.0
  9
$UCSORGBOTTOM
 10
0.0
 20
0.0
 30
0.0
  9
$UCSORGLEFT
 10
0.0
 20
0.0
 30
0.0
  9
$UCSORGRIGHT
 10
0.0
 20
0.0
 30
0.0
  9
$UCSORGFRONT
 10
0.0
 20
0.0
 30
0.0
  9
$UCSORGBACK
 10
0.0
 20
0.0
 30
0.0
  9
$PUCSBASE
  2

  9
$PUCSNAME
  2

  9
$PUCSORG
 10
0.0
 20
0.0
 30
0.0
  9
$PUCSXDIR
 10
1.0
 20
0.0
 30
0.0
  9
$PUCSYDIR
 10
0.0
 20
1.0
 30
0.0
  9
$PUCSORTHOREF
  2

  9
$PUCSORTHOVIEW
 70
     0
  9
$PUCSORGTOP
 10
0.0
 20
0.0
 30
0.0
  9
$PUCSORGBOTTOM
 10
0.0
 20
0.0
 30
0.0
  9
$PUCSORGLEFT
 10
0.0
 20
0.0
 30
0.0
  9
$PUCSORGRIGHT
 10
0.0
 20
0.0
 30
0.0
  9
$PUCSORGFRONT
 10
0.0
 20
0.0
 30
0.0
  9
$PUCSORGBACK
 10
0.0
 20
0.0
 30
0.0
  9
$USERI1
 70
     0
  9
$USERI2
 70
     0
  9
$USERI3
 70
     0
  9
$USERI4
 70
     0
  9
$USERI5
 70
     0
  9
$USERR1
 40
0.0
  9
$USERR2
 40
0.0
  9
$USERR3
 40
0.0
  9
$USERR4
 40
0.0
  9
$USERR5
 40
0.0
  9
$WORLDVIEW
 70
     1
  9
$SHADEDGE
 70
     3
  9
$SHADEDIF
 70
    70
  9
$TILEMODE
 70
     1
  9
$MAXACTVP
 70
    64
  9
$PINSBASE
 10
0.0
 20
0.0
 30
0.0
  9
$PLIMCHECK
 70
     0
  9
$PEXTMIN
 10
0.0
 20
0.0
 30
0.0
  9
$PEXTMAX
 10
17.0
 20
11.0
 30
0.0
  9
$PLIMMIN
 10
0.0
 20
0.0
  9
$PLIMMAX
 10
17.0
 20
11.0
  9
$UNITMODE
 70
     0
  9
$VISRETAIN
 70
     1
  9
$PLINEGEN
 70
     0
  9
$PSLTSCALE
 70
     1
  9
$TREEDEPTH
 70
  3020
  9
$CMLSTYLE
  2
Standard
  9
$CMLJUST
 70
     0
  9
$CMLSCALE
 40
1.0
  9
$PROXYGRAPHICS
 70
     1
  9
$MEASUREMENT
 70
     0
  9
$CELWEIGHT
370
    -1
  9
$ENDCAPS
280
     0
  9
$JOINSTYLE
280
     0
  9
$LWDISPLAY
290
     0
  9
$INSUNITS
 70
     1
  9
$HYPERLINKBASE
  1

  9
$STYLESHEET
  1

  9
$XEDIT
290
     1
  9
$CEPSNTYPE
380
     0
  9
$PSTYLEMODE
290
     1
  9
$FINGERPRINTGUID
  2
{A4D45202-F91B-4C73-B1E6-57FE3595B876}
  9
$VERSIONGUID
  2
{E39F54DF-BDCD-4309-8452-01B06D1E6E83}
  9
$EXTNAMES
290
     1
  9
$PSVPSCALE
 40
0.0
  9
$OLESTARTUP
290
     0
  0
ENDSEC
  0
SECTION
  2
CLASSES
  0
CLASS
  1
ACDBDICTIONARYWDFLT
  2
AcDbDictionaryWithDefault
  3
ObjectDBX Classes
 90
        0
280
     0
281
     0
  0
CLASS
  1
MATERIAL
  2
AcDbMaterial
  3
ObjectDBX Classes
 90
     1153
280
     0
281
     0
  0
CLASS
  1
VISUALSTYLE
  2
AcDbVisualStyle
  3
ObjectDBX Classes
 90
     4095
280
     0
281
     0
  0
CLASS
  1
SCALE
  2
AcDbScale
  3
ObjectDBX Classes
 90
     1153
280
     0
281
     0
  0
CLASS
  1
TABLESTYLE
  2
AcDbTableStyle
  3
ObjectDBX Classes
 90
     4095
280
     0
281
     0
  0
CLASS
  1
MLEADERSTYLE
  2
AcDbMLeaderStyle
  3
ACDB_MLEADERSTYLE_CLASS
 90
     4095
280
     0
281
     0
  0
CLASS
  1
DICTIONARYVAR
  2
AcDbDictionaryVar
  3
ObjectDBX Classes
 90
        0
280
     0
281
     0
  0
CLASS
  1
CELLSTYLEMAP
  2
AcDbCellStyleMap
  3
ObjectDBX Classes
 90
     1152
280
     0
281
     0
  0
CLASS
  1
ACDBPLACEHOLDER
  2
AcDbPlaceHolder
  3
ObjectDBX Classes
 90
        0
280
     0
281
     0
  0
CLASS
  1
LAYOUT
  2
AcDbLayout
  3
ObjectDBX Classes
 90
        0
280
     0
281
     0
  0
ENDSEC
  0
SECTION
  2
TABLES
  0
TABLE
  2
VPORT
  5
8
102
{ACAD_XDICTIONARY
360
2C9
102
}
330
0
100
AcDbSymbolTable
 70
     1
  0
VPORT
  5
57
330
8
100
AcDbSymbolTableRecord
100
AcDbViewportTableRecord
  2
*Active
 70
     0
 10
0.0
 20
0.0
 11
1.0
 21
1.0
 12
11.56649282920469
 22
5.5
 13
0.0
 23
0.0
 14
1.0
 24
1.0
 15
0.0
 25
0.0
 16
0.0
 26
0.0
 36
1.0
 17
0.0
 27
0.0
 37
0.0
 40
11.00121130518353
 41
2.102998696219035
 42
50.0
 43
0.0
 44
0.0
 50
0.0
 51
0.0
 71
     0
 72
   100
 73
     1
 74
     1
 75
     0
 76
     0
 77
     0
 78
     0
281
     0
 65
     1
110
0.0
120
0.0
130
0.0
111
1.0
121
0.0
131
0.0
112
0.0
122
1.0
132
0.0
 79
     0
146
0.0
1001
ACAD_NAV_VCDISPLAY
1070
     3
  0
ENDTAB
  0
TABLE
  2
LTYPE
  5
5
330
0
100
AcDbSymbolTable
 70
    59
  0
LTYPE
  5
5B
330
5
100
AcDbSymbolTableRecord
100
AcDbLinetypeTableRecord
  2
ByBlock
 70
     0
  3

 72
    65
 73
     0
 40
0.0
  0
LTYPE
  5
5C
330
5
100
AcDbSymbolTableRecord
100
AcDbLinetypeTableRecord
  2
ByLayer
 70
     0
  3

 72
    65
 73
     0
 40
0.0
  0
LTYPE
  5
5D
330
5
100
AcDbSymbolTableRecord
100
AcDbLinetypeTableRecord
  2
Continuous
 70
     0
  3
Solid line
 72
    65
 73
     0
 40
0.0
  0
LTYPE
  5
7C
330
5
100
AcDbSymbolTableRecord
100
AcDbLinetypeTableRecord
  2
BY_STANDARD
 70
     0
  3
By Standard ____________    ____    ____   _
 72
    65
 73
     6
 40
1.240299999999999
 49
0.6614
 74
     0
 49
-0.0827
 74
     0
 49
0.1654
 74
     0
 49
-0.0827
 74
     0
 49
0.1654
 74
     0
 49
-0.0827
 74
     0
  0
LTYPE
  5
7D
330
5
100
AcDbSymbolTableRecord
100
AcDbLinetypeTableRecord
  2
CHAIN
 70
     0
  3
Chain ____ _ ____ _ ____ _ ____ _ ____ _ ____
 72
    65
 73
     4
 40
0.7087
 49
0.4724000000000001
 74
     0
 49
-0.0591
 74
     0
 49
0.1181
 74
     0
 49
-0.0591
 74
     0
  0
LTYPE
  5
7E
330
5
100
AcDbSymbolTableRecord
100
AcDbLinetypeTableRecord
  2
DASH_DOT
 70
     0
  3
Dash dot __ . __ . __ . __ . __ . __ . __ . __
 72
    65
 73
     4
 40
0.37
 49
0.24
 74
     0
 49
-0.06
 74
     0
 49
0.01
 74
     0
 49
-0.06
 74
     0
  0
LTYPE
  5
7F
330
5
100
AcDbSymbolTableRecord
100
AcDbLinetypeTableRecord
  2
DOUBLE_DASH_DOT
 70
     0
  3
Double-Dash Dot __ __ . __ __ . __ __ . __ _
 72
    65
 73
     6
 40
0.4398
 49
0.24
 74
     0
 49
-0.06
 74
     0
 49
0.0098
 74
     0
 49
-0.06
 74
     0
 49
0.01
 74
     0
 49
-0.06
 74
     0
  0
LTYPE
  5
80
330
5
100
AcDbSymbolTableRecord
100
AcDbLinetypeTableRecord
  2
DASH_TRIPLE_DOT
 70
     0
  3
Dash Triple-Dot _ . . . _ . . . _ . . . _
 72
    65
 73
     8
 40
0.51
 49
0.24
 74
     0
 49
-0.06
 74
     0
 49
0.01
 74
     0
 49
-0.06
 74
     0
 49
0.01
 74
     0
 49
-0.06
 74
     0
 49
0.01
 74
     0
 49
-0.06
 74
     0
  0
LTYPE
  5
81
330
5
100
AcDbSymbolTableRecord
100
AcDbLinetypeTableRecord
  2
DASHED
 70
     0
  3
Dashed __ __ __ __ __ __ __ __ __ __ __ __ __ _
 72
    65
 73
     2
 40
0.2067
 49
0.1654
 74
     0
 49
-0.0413
 74
     0
  0
LTYPE
  5
82
330
5
100
AcDbSymbolTableRecord
100
AcDbLinetypeTableRecord
  2
DASH_DOUBLE_DOT
 70
     0
  3
Dash Double-Dot __ . . __ . . __ . . __ . .
 72
    65
 73
     6
 40
0.4398
 49
0.24
 74
     0
 49
-0.06
 74
     0
 49
0.0098
 74
     0
 49
-0.06
 74
     0
 49
0.01
 74
     0
 49
-0.06
 74
     0
  0
LTYPE
  5
83
330
5
100
AcDbSymbolTableRecord
100
AcDbLinetypeTableRecord
  2
DASHED_SPACE
 70
     0
  3
Dashed Space __ __ __ __ __ __ __ __ __ __ __ _
 72
    65
 73
     2
 40
0.2067
 49
0.1654
 74
     0
 49
-0.0413
 74
     0
  0
LTYPE
  5
84
330
5
100
AcDbSymbolTableRecord
100
AcDbLinetypeTableRecord
  2
DOTTED
 70
     0
  3
Dotted . . . . . . . . . . . . . . . . . . . . 
 72
    65
 73
     2
 40
0.0482
 49
0.0069
 74
     0
 49
-0.0413
 74
     0
  0
LTYPE
  5
85
330
5
100
AcDbSymbolTableRecord
100
AcDbLinetypeTableRecord
  2
DOUBLE_DASH_CHAIN
 70
     0
  3
Double-Dash Chain ______  __  __  ______  __  _
 72
    65
 73
     6
 40
1.240299999999999
 49
0.6614
 74
     0
 49
-0.0827
 74
     0
 49
0.1654
 74
     0
 49
-0.0827
 74
     0
 49
0.1654
 74
     0
 49
-0.0827
 74
     0
  0
LTYPE
  5
87
330
5
100
AcDbSymbolTableRecord
100
AcDbLinetypeTableRecord
  2
DOUBLE_DASH_DOUBLE_DOT
 70
     0
  3
Double-Dash Double-dot _ _ . . _ _ . . _
 72
    65
 73
     8
 40
0.7400000000000001
 49
0.24
 74
     0
 49
-0.06
 74
     0
 49
0.24
 74
     0
 49
-0.06
 74
     0
 49
0.01
 74
     0
 49
-0.06
 74
     0
 49
0.01
 74
     0
 49
-0.06
 74
     0
  0
LTYPE
  5
88
330
5
100
AcDbSymbolTableRecord
100
AcDbLinetypeTableRecord
  2
DOUBLE_DASH_TRIPLE_DOT
 70
     0
  3
Double Dash Triple Dot __ __ . . . __ __ . .
 72
    65
 73
    10
 40
0.8100000000000001
 49
0.24
 74
     0
 49
-0.06
 74
     0
 49
0.24
 74
     0
 49
-0.06
 74
     0
 49
0.01
 74
     0
 49
-0.06
 74
     0
 49
0.01
 74
     0
 49
-0.06
 74
     0
 49
0.01
 74
     0
 49
-0.06
 74
     0
  0
LTYPE
  5
89
330
5
100
AcDbSymbolTableRecord
100
AcDbLinetypeTableRecord
  2
LONG_DASH_DOTTED
 70
     0
  3
Long Dash Dotted ____ . ____ . ____ . ____ . _
 72
    65
 73
     4
 40
0.3543
 49
0.2362
 74
     0
 49
-0.0295
 74
     0
 49
0.0591
 74
     0
 49
-0.0295
 74
     0
  0
LTYPE
  5
8A
330
5
100
AcDbSymbolTableRecord
100
AcDbLinetypeTableRecord
  2
LONG_DASH_DOUBLE_DOT
 70
     0
  3
Long Dash Double Dot ________  .  .  ________  
 72
    65
 73
     6
 40
0.6799999999999999
 49
0.48
 74
     0
 49
-0.06
 74
     0
 49
0.01
 74
     0
 49
-0.06
 74
     0
 49
0.01
 74
     0
 49
-0.06
 74
     0
  0
LTYPE
  5
8B
330
5
100
AcDbSymbolTableRecord
100
AcDbLinetypeTableRecord
  2
LONG_DASH_TRIPLE_DOT
 70
     0
  3
Long Dash Triple Dot ____ ... ____ ... ____
 72
    65
 73
     8
 40
0.3689
 49
0.2362
 74
     0
 49
-0.0295
 74
     0
 49
0.0049
 74
     0
 49
-0.0295
 74
     0
 49
0.0049
 74
     0
 49
-0.0295
 74
     0
 49
0.0049
 74
     0
 49
-0.0295
 74
     0
  0
LTYPE
  5
8C
330
5
100
AcDbSymbolTableRecord
100
AcDbLinetypeTableRecord
  2
BORDER
 70
     0
  3
Border __ __ . __ __ . __ __ . __ __ . __ __ .
 72
    65
 73
     6
 40
1.75
 49
0.5
 74
     0
 49
-0.25
 74
     0
 49
0.5
 74
     0
 49
-0.25
 74
     0
 49
0.0
 74
     0
 49
-0.25
 74
     0
  0
LTYPE
  5
8D
330
5
100
AcDbSymbolTableRecord
100
AcDbLinetypeTableRecord
  2
BORDER2
 70
     0
  3
Border (.5x) __.__.__.__.__.__.__.__.__.__.__.
 72
    65
 73
     6
 40
0.875
 49
0.25
 74
     0
 49
-0.125
 74
     0
 49
0.25
 74
     0
 49
-0.125
 74
     0
 49
0.0
 74
     0
 49
-0.125
 74
     0
  0
LTYPE
  5
8E
330
5
100
AcDbSymbolTableRecord
100
AcDbLinetypeTableRecord
  2
BORDERX2
 70
     0
  3
Border (2x) ____  ____  .  ____  ____  .  ___
 72
    65
 73
     6
 40
3.5
 49
1.0
 74
     0
 49
-0.5
 74
     0
 49
1.0
 74
     0
 49
-0.5
 74
     0
 49
0.0
 74
     0
 49
-0.5
 74
     0
  0
LTYPE
  5
8F
330
5
100
AcDbSymbolTableRecord
100
AcDbLinetypeTableRecord
  2
CENTER
 70
     0
  3
Center ____ _ ____ _ ____ _ ____ _ ____ _ ____
 72
    65
 73
     4
 40
2.0
 49
1.25
 74
     0
 49
-0.25
 74
     0
 49
0.25
 74
     0
 49
-0.25
 74
     0
  0
LTYPE
  5
90
330
5
100
AcDbSymbolTableRecord
100
AcDbLinetypeTableRecord
  2
CENTER2
 70
     0
  3
Center (.5x) ___ _ ___ _ ___ _ ___ _ ___ _ ___
 72
    65
 73
     4
 40
1.125
 49
0.75
 74
     0
 49
-0.125
 74
     0
 49
0.125
 74
     0
 49
-0.125
 74
     0
  0
LTYPE
  5
91
330
5
100
AcDbSymbolTableRecord
100
AcDbLinetypeTableRecord
  2
CENTERX2
 70
     0
  3
Center (2x) ________  __  ________  __  _____
 72
    65
 73
     4
 40
4.0
 49
2.5
 74
     0
 49
-0.5
 74
     0
 49
0.5
 74
     0
 49
-0.5
 74
     0
  0
LTYPE
  5
92
330
5
100
AcDbSymbolTableRecord
100
AcDbLinetypeTableRecord
  2
DASHDOT2
 70
     0
  3
Dash dot (.5x) _._._._._._._._._._._._._._._.
 72
    65
 73
     4
 40
0.5
 49
0.25
 74
     0
 49
-0.125
 74
     0
 49
0.0
 74
     0
 49
-0.125
 74
     0
  0
LTYPE
  5
93
330
5
100
AcDbSymbolTableRecord
100
AcDbLinetypeTableRecord
  2
DASHDOTX2
 70
     0
  3
Dash dot (2x) ____  .  ____  .  ____  .  ___
 72
    65
 73
     4
 40
2.0
 49
1.0
 74
     0
 49
-0.5
 74
     0
 49
0.0
 74
     0
 49
-0.5
 74
     0
  0
LTYPE
  5
95
330
5
100
AcDbSymbolTableRecord
100
AcDbLinetypeTableRecord
  2
DASHED2
 70
     0
  3
Dashed (.5x) _ _ _ _ _ _ _ _ _ _ _ _ _ _ _ _ _
 72
    65
 73
     2
 40
0.375
 49
0.25
 74
     0
 49
-0.125
 74
     0
  0
LTYPE
  5
96
330
5
100
AcDbSymbolTableRecord
100
AcDbLinetypeTableRecord
  2
DASHEDX2
 70
     0
  3
Dashed (2x) ____  ____  ____  ____  ____  ___
 72
    65
 73
     2
 40
1.5
 49
1.0
 74
     0
 49
-0.5
 74
     0
  0
LTYPE
  5
97
330
5
100
AcDbSymbolTableRecord
100
AcDbLinetypeTableRecord
  2
DIVIDE
 70
     0
  3
Divide ____ . . ____ . . ____ . . ____ . . ____
 72
    65
 73
     6
 40
1.25
 49
0.5
 74
     0
 49
-0.25
 74
     0
 49
0.0
 74
     0
 49
-0.25
 74
     0
 49
0.0
 74
     0
 49
-0.25
 74
     0
  0
LTYPE
  5
98
330
5
100
AcDbSymbolTableRecord
100
AcDbLinetypeTableRecord
  2
DIVIDE2
 70
     0
  3
Divide (.5x) __..__..__..__..__..__..__..__.._
 72
    65
 73
     6
 40
0.625
 49
0.25
 74
     0
 49
-0.125
 74
     0
 49
0.0
 74
     0
 49
-0.125
 74
     0
 49
0.0
 74
     0
 49
-0.125
 74
     0
  0
LTYPE
  5
99
330
5
100
AcDbSymbolTableRecord
100
AcDbLinetypeTableRecord
  2
DIVIDEX2
 70
     0
  3
Divide (2x) ________  .  .  ________  .  .  _
 72
    65
 73
     6
 40
2.5
 49
1.0
 74
     0
 49
-0.5
 74
     0
 49
0.0
 74
     0
 49
-0.5
 74
     0
 49
0.0
 74
     0
 49
-0.5
 74
     0
  0
LTYPE
  5
9A
330
5
100
AcDbSymbolTableRecord
100
AcDbLinetypeTableRecord
  2
DOT
 70
     0
  3
Dot . . . . . . . . . . . . . . . . . . . . . .
 72
    65
 73
     2
 40
0.25
 49
0.0
 74
     0
 49
-0.25
 74
     0
  0
LTYPE
  5
9B
330
5
100
AcDbSymbolTableRecord
100
AcDbLinetypeTableRecord
  2
DOT2
 70
     0
  3
Dot (.5x) .....................................
 72
    65
 73
     2
 40
0.125
 49
0.0
 74
     0
 49
-0.125
 74
     0
  0
LTYPE
  5
9C
330
5
100
AcDbSymbolTableRecord
100
AcDbLinetypeTableRecord
  2
DOTX2
 70
     0
  3
Dot (2x) .  .  .  .  .  .  .  .  .  .  .  .  . 
 72
    65
 73
     2
 40
0.5
 49
0.0
 74
     0
 49
-0.5
 74
     0
  0
LTYPE
  5
9D
330
5
100
AcDbSymbolTableRecord
100
AcDbLinetypeTableRecord
  2
HIDDEN
 70
     0
  3
Hidden __ __ __ __ __ __ __ __ __ __ __ __ __ _
 72
    65
 73
     2
 40
0.375
 49
0.25
 74
     0
 49
-0.125
 74
     0
  0
LTYPE
  5
9E
330
5
100
AcDbSymbolTableRecord
100
AcDbLinetypeTableRecord
  2
HIDDEN2
 70
     0
  3
Hidden (.5x) _ _ _ _ _ _ _ _ _ _ _ _ _ _ _ _ _
 72
    65
 73
     2
 40
0.1875
 49
0.125
 74
     0
 49
-0.0625
 74
     0
  0
LTYPE
  5
9F
330
5
100
AcDbSymbolTableRecord
100
AcDbLinetypeTableRecord
  2
HIDDENX2
 70
     0
  3
Hidden (2x) ____ ____ ____ ____ ____ ____ ____
 72
    65
 73
     2
 40
0.75
 49
0.5
 74
     0
 49
-0.25
 74
     0
  0
LTYPE
  5
A0
330
5
100
AcDbSymbolTableRecord
100
AcDbLinetypeTableRecord
  2
PHANTOM
 70
     0
  3
Phantom ______  __  __  ______  __  __  ______
 72
    65
 73
     6
 40
2.5
 49
1.25
 74
     0
 49
-0.25
 74
     0
 49
0.25
 74
     0
 49
-0.25
 74
     0
 49
0.25
 74
     0
 49
-0.25
 74
     0
  0
LTYPE
  5
A1
330
5
100
AcDbSymbolTableRecord
100
AcDbLinetypeTableRecord
  2
PHANTOM2
 70
     0
  3
Phantom (.5x) ___ _ _ ___ _ _ ___ _ _ ___ _ _
 72
    65
 73
     6
 40
1.25
 49
0.625
 74
     0
 49
-0.125
 74
     0
 49
0.125
 74
     0
 49
-0.125
 74
     0
 49
0.125
 74
     0
 49
-0.125
 74
     0
  0
LTYPE
  5
A2
330
5
100
AcDbSymbolTableRecord
100
AcDbLinetypeTableRecord
  2
PHANTOMX2
 70
     0
  3
Phantom (2x) ____________    ____    ____   _
 72
    65
 73
     6
 40
5.0
 49
2.5
 74
     0
 49
-0.5
 74
     0
 49
0.5
 74
     0
 49
-0.5
 74
     0
 49
0.5
 74
     0
 49
-0.5
 74
     0
  0
LTYPE
  5
A3
330
5
100
AcDbSymbolTableRecord
100
AcDbLinetypeTableRecord
  2
ACAD_ISO02W100
 70
     0
  3
ISO dash __ __ __ __ __ __ __ __ __ __ __ __ __
 72
    65
 73
     2
 40
0.59
 49
0.47
 74
     0
 49
-0.12
 74
     0
  0
LTYPE
  5
A4
330
5
100
AcDbSymbolTableRecord
100
AcDbLinetypeTableRecord
  2
ACAD_ISO03W100
 70
     0
  3
ISO dash space __    __    __    __    __    __
 72
    65
 73
     2
 40
1.179999999999999
 49
0.47
 74
     0
 49
-0.71
 74
     0
  0
LTYPE
  5
A5
330
5
100
AcDbSymbolTableRecord
100
AcDbLinetypeTableRecord
  2
ACAD_ISO04W100
 70
     0
  3
ISO long-dash dot ____ . ____ . ____ . ____ . _
 72
    65
 73
     4
 40
1.179999999999999
 49
0.9399999999999998
 74
     0
 49
-0.12
 74
     0
 49
0.0
 74
     0
 49
-0.12
 74
     0
  0
LTYPE
  5
A6
330
5
100
AcDbSymbolTableRecord
100
AcDbLinetypeTableRecord
  2
ACAD_ISO05W100
 70
     0
  3
ISO long-dash double-dot ____ .. ____ .. ____ .
 72
    65
 73
     6
 40
1.299999999999999
 49
0.9399999999999998
 74
     0
 49
-0.12
 74
     0
 49
0.0
 74
     0
 49
-0.12
 74
     0
 49
0.0
 74
     0
 49
-0.12
 74
     0
  0
LTYPE
  5
A7
330
5
100
AcDbSymbolTableRecord
100
AcDbLinetypeTableRecord
  2
ACAD_ISO06W100
 70
     0
  3
ISO long-dash triple-dot ____ ... ____ ... ____
 72
    65
 73
     8
 40
1.419999999999999
 49
0.9399999999999998
 74
     0
 49
-0.12
 74
     0
 49
0.0
 74
     0
 49
-0.12
 74
     0
 49
0.0
 74
     0
 49
-0.12
 74
     0
 49
0.0
 74
     0
 49
-0.12
 74
     0
  0
LTYPE
  5
A8
330
5
100
AcDbSymbolTableRecord
100
AcDbLinetypeTableRecord
  2
ACAD_ISO07W100
 70
     0
  3
ISO dot . . . . . . . . . . . . . . . . . . . .
 72
    65
 73
     2
 40
0.12
 49
0.0
 74
     0
 49
-0.12
 74
     0
  0
LTYPE
  5
A9
330
5
100
AcDbSymbolTableRecord
100
AcDbLinetypeTableRecord
  2
ACAD_ISO08W100
 70
     0
  3
ISO long-dash short-dash ____ __ ____ __ ____ _
 72
    65
 73
     4
 40
0.95
 49
0.47
 74
     0
 49
-0.12
 74
     0
 49
0.24
 74
     0
 49
-0.12
 74
     0
  0
LTYPE
  5
AA
330
5
100
AcDbSymbolTableRecord
100
AcDbLinetypeTableRecord
  2
ACAD_ISO09W100
 70
     0
  3
ISO long-dash double-short-dash ____ __ __ ____
 72
    65
 73
     6
 40
1.31
 49
0.47
 74
     0
 49
-0.12
 74
     0
 49
0.24
 74
     0
 49
-0.12
 74
     0
 49
0.24
 74
     0
 49
-0.12
 74
     0
  0
LTYPE
  5
AB
330
5
100
AcDbSymbolTableRecord
100
AcDbLinetypeTableRecord
  2
ACAD_ISO10W100
 70
     0
  3
ISO dash dot __ . __ . __ . __ . __ . __ . __ .
 72
    65
 73
     4
 40
0.71
 49
0.47
 74
     0
 49
-0.12
 74
     0
 49
0.0
 74
     0
 49
-0.12
 74
     0
  0
LTYPE
  5
AC
330
5
100
AcDbSymbolTableRecord
100
AcDbLinetypeTableRecord
  2
ACAD_ISO11W100
 70
     0
  3
ISO double-dash dot __ __ . __ __ . __ __ . __ 
 72
    65
 73
     6
 40
1.299999999999999
 49
0.47
 74
     0
 49
-0.12
 74
     0
 49
0.47
 74
     0
 49
-0.12
 74
     0
 49
0.0
 74
     0
 49
-0.12
 74
     0
  0
LTYPE
  5
AD
330
5
100
AcDbSymbolTableRecord
100
AcDbLinetypeTableRecord
  2
ACAD_ISO12W100
 70
     0
  3
ISO dash double-dot __ . . __ . . __ . . __ . .
 72
    65
 73
     6
 40
0.8299999999999998
 49
0.47
 74
     0
 49
-0.12
 74
     0
 49
0.0
 74
     0
 49
-0.12
 74
     0
 49
0.0
 74
     0
 49
-0.12
 74
     0
  0
LTYPE
  5
AE
330
5
100
AcDbSymbolTableRecord
100
AcDbLinetypeTableRecord
  2
ACAD_ISO13W100
 70
     0
  3
ISO double-dash double-dot __ __ . . __ __ . . 
 72
    65
 73
     8
 40
1.419999999999999
 49
0.47
 74
     0
 49
-0.12
 74
     0
 49
0.47
 74
     0
 49
-0.12
 74
     0
 49
0.0
 74
     0
 49
-0.12
 74
     0
 49
0.0
 74
     0
 49
-0.12
 74
     0
  0
LTYPE
  5
AF
330
5
100
AcDbSymbolTableRecord
100
AcDbLinetypeTableRecord
  2
ACAD_ISO14W100
 70
     0
  3
ISO dash triple-dot __ . . . __ . . . __ . . . 
 72
    65
 73
     8
 40
0.95
 49
0.47
 74
     0
 49
-0.12
 74
     0
 49
0.0
 74
     0
 49
-0.12
 74
     0
 49
0.0
 74
     0
 49
-0.12
 74
     0
 49
0.0
 74
     0
 49
-0.12
 74
     0
  0
LTYPE
  5
B0
330
5
100
AcDbSymbolTableRecord
100
AcDbLinetypeTableRecord
  2
ACAD_ISO15W100
 70
     0
  3
ISO double-dash triple-dot __ __ . . . __ __ . 
 72
    65
 73
    10
 40
1.539999999999999
 49
0.47
 74
     0
 49
-0.12
 74
     0
 49
0.47
 74
     0
 49
-0.12
 74
     0
 49
0.0
 74
     0
 49
-0.12
 74
     0
 49
0.0
 74
     0
 49
-0.12
 74
     0
 49
0.0
 74
     0
 49
-0.12
 74
     0
  0
LTYPE
  5
B3
330
5
100
AcDbSymbolTableRecord
100
AcDbLinetypeTableRecord
  2
FENCELINE1
 70
     0
  3
Fenceline circle ----0-----0----0-----0----0---
 72
    65
 73
     4
 40
1.45
 49
0.25
 74
     0
 49
-0.1
 74
     4
 75
   133
340
B2
 46
0.1
 50
0.0
 44
-0.1
 45
0.0
 49
-0.1
 74
     0
 49
1.0
 74
     0
  0
LTYPE
  5
B4
330
5
100
AcDbSymbolTableRecord
100
AcDbLinetypeTableRecord
  2
FENCELINE2
 70
     0
  3
Fenceline square ----[]-----[]----[]-----[]----
 72
    65
 73
     4
 40
1.45
 49
0.25
 74
     0
 49
-0.1
 74
     4
 75
   132
340
B2
 46
0.1
 50
0.0
 44
-0.1
 45
0.0
 49
-0.1
 74
     0
 49
1.0
 74
     0
  0
LTYPE
  5
B5
330
5
100
AcDbSymbolTableRecord
100
AcDbLinetypeTableRecord
  2
TRACKS
 70
     0
  3
Tracks -|-|-|-|-|-|-|-|-|-|-|-|-|-|-|-|-|-|-|-|
 72
    65
 73
     2
 40
0.3
 49
0.15
 74
     4
 75
   130
340
B2
 46
0.25
 50
0.0
 44
0.0
 45
0.0
 49
0.15
 74
     0
  0
LTYPE
  5
B6
330
5
100
AcDbSymbolTableRecord
100
AcDbLinetypeTableRecord
  2
BATTING
 70
     0
  3
Batting SSSSSSSSSSSSSSSSSSSSSSSSSSSSSSSSSSSSSSS
 72
    65
 73
     4
 40
0.4001000000000001
 49
0.0001
 74
     0
 49
-0.1
 74
     4
 75
   134
340
B2
 46
0.1
 50
0.0
 44
-0.1
 45
0.0
 49
-0.2
 74
     4
 75
   134
340
B2
 46
0.1
 50
180.0
 44
0.1
 45
0.0
 49
-0.1
 74
     0
  0
LTYPE
  5
B7
330
5
100
AcDbSymbolTableRecord
100
AcDbLinetypeTableRecord
  2
HOT_WATER_SUPPLY
 70
     0
  3
Hot water supply ---- HW ---- HW ---- HW ----
 72
    65
 73
     3
 40
0.9
 49
0.5
 74
     0
 49
-0.2
 74
     2
 75
     0
340
55
 46
0.1
 50
0.0
 44
-0.1
 45
-0.05
  9
HW
 49
-0.2
 74
     0
  0
LTYPE
  5
B8
330
5
100
AcDbSymbolTableRecord
100
AcDbLinetypeTableRecord
  2
GAS_LINE
 70
     0
  3
Gas line ----GAS----GAS----GAS----GAS----GAS---
 72
    65
 73
     3
 40
0.95
 49
0.5
 74
     0
 49
-0.2
 74
     2
 75
     0
340
55
 46
0.1
 50
0.0
 44
-0.1
 45
-0.05
  9
GAS
 49
-0.25
 74
     0
  0
LTYPE
  5
B9
330
5
100
AcDbSymbolTableRecord
100
AcDbLinetypeTableRecord
  2
ZIGZAG
 70
     0
  3
Zig zag /\/\/\/\/\/\/\/\/\/\/\/\/\/\/\/\/\/\/\/
 72
    65
 73
     4
 40
0.8001000000000001
 49
0.0001
 74
     0
 49
-0.2
 74
     4
 75
   131
340
B2
 46
0.2
 50
0.0
 44
-0.2
 45
0.0
 49
-0.4
 74
     4
 75
   131
340
B2
 46
0.2
 50
180.0
 44
0.2
 45
0.0
 49
-0.2
 74
     0
  0
ENDTAB
  0
TABLE
  2
LAYER
  5
2
330
0
100
AcDbSymbolTable
 70
     4
  0
LAYER
  5
54
330
2
100
AcDbSymbolTableRecord
100
AcDbLayerTableRecord
  2
0
 70
     0
 62
     7
  6
Continuous
370
    -3
390
F
  0
LAYER
  5
BF
330
2
100
AcDbSymbolTableRecord
100
AcDbLayerTableRecord
  2
Border (ANSI)
 70
     0
 62
     7
  6
Continuous
370
    25
390
F
  0
LAYER
  5
D1
330
2
100
AcDbSymbolTableRecord
100
AcDbLayerTableRecord
  2
Visible (ANSI)
 70
     0
 62
     7
  6
Continuous
370
    18
390
F
  0
LAYER
  5
D2
330
2
100
AcDbSymbolTableRecord
100
AcDbLayerTableRecord
  2
Visible Narrow (ANSI)
 70
     0
 62
     7
  6
Continuous
370
     9
390
F
  0
ENDTAB
  0
TABLE
  2
STYLE
  5
3
330
0
100
AcDbSymbolTable
 70
     5
  0
STYLE
  5
55
330
3
100
AcDbSymbolTableRecord
100
AcDbTextStyleTableRecord
  2
Standard
 70
     0
 40
0.0
 41
0.899999976158142
 50
0.0
 71
     0
 42
0.2
  3
txt
  4

  0
STYLE
  5
5A
330
3
100
AcDbSymbolTableRecord
100
AcDbTextStyleTableRecord
  2
Annotative
 70
     0
 40
0.0
 41
1.0
 50
0.0
 71
     0
 42
0.2
  3
txt
  4

1001
AcadAnnotative
1000
AnnotativeData
1002
{
1070
     1
1070
     1
1002
}
  0
STYLE
  5
B2
330
3
100
AcDbSymbolTableRecord
100
AcDbTextStyleTableRecord
  2

 70
     1
 40
0.0
 41
1.0
 50
0.0
 71
     0
 42
0.2
  3
ltypeshp.shx
  4

  0
STYLE
  5
D6
330
3
100
AcDbSymbolTableRecord
100
AcDbTextStyleTableRecord
  2
Label Text (ANSI)
 70
     0
 40
0.0
 41
0.899999976158142
 50
0.0
 71
     0
 42
0.2
  3
Txt.shx
  4

  0
STYLE
  5
D7
330
3
100
AcDbSymbolTableRecord
100
AcDbTextStyleTableRecord
  2
Note Text (ANSI)
 70
     0
 40
0.0
 41
0.899999976158142
 50
0.0
 71
     0
 42
0.2
  3
Txt.shx
  4

  0
ENDTAB
  0
TABLE
  2
VIEW
  5
6
330
0
100
AcDbSymbolTable
 70
     0
  0
ENDTAB
  0
TABLE
  2
UCS
  5
7
330
0
100
AcDbSymbolTable
 70
     0
  0
ENDTAB
  0
TABLE
  2
APPID
  5
9
330
0
100
AcDbSymbolTable
 70
     4
  0
APPID
  5
56
330
9
100
AcDbSymbolTableRecord
100
AcDbRegAppTableRecord
  2
ACAD
 70
     0
  0
APPID
  5
5E
330
9
100
AcDbSymbolTableRecord
100
AcDbRegAppTableRecord
  2
AcadAnnotative
 70
     0
  0
APPID
  5
2FF
330
9
100
AcDbSymbolTableRecord
100
AcDbRegAppTableRecord
  2
ACAD_MLEADERVER
 70
     0
  0
APPID
  5
316
330
9
100
AcDbSymbolTableRecord
100
AcDbRegAppTableRecord
  2
ACAD_NAV_VCDISPLAY
 70
     0
  0
ENDTAB
  0
TABLE
  2
DIMSTYLE
  5
A
330
0
100
AcDbSymbolTable
 70
    21
100
AcDbDimStyleTable
 71
     0
  0
DIMSTYLE
105
58
330
A
100
AcDbSymbolTableRecord
100
AcDbDimStyleTableRecord
  2
Standard
 70
     0
340
55
  0
DIMSTYLE
105
59
330
A
100
AcDbSymbolTableRecord
100
AcDbDimStyleTableRecord
  2
Annotative
 70
     0
340
55
1001
AcadAnnotative
1000
AnnotativeData
1002
{
1070
     1
1070
     1
1002
}
  0
DIMSTYLE
105
D8
330
A
100
AcDbSymbolTableRecord
100
AcDbDimStyleTableRecord
  2
Architectural (ANSI)
 70
     0
 41
0.0984251946210861
 43
0.2362204724409449
 44
0.125
 45
0.00000001
 46
0.3937007874015748
 78
     3
 79
     3
140
0.0799999982118607
146
1.500000119209289
147
0.031496062992126
171
     1
176
   256
177
   256
178
     5
272
     2
274
     1
276
     2
277
     4
284
    12
285
     4
286
    12
340
D7
371
    -1
372
    -1
  0
DIMSTYLE
105
D9
330
A
100
AcDbSymbolTableRecord
100
AcDbDimStyleTableRecord
  2
Architectural (ANSI)$7
 70
     0
 41
0.0984251946210861
 43
0.2362204724409449
 44
0.125
 45
0.00000001
 46
0.3937007874015748
 78
     3
 79
     3
140
0.0799999982118607
146
1.500000119209289
147
0.031496062992126
171
     1
176
     5
177
   256
178
     5
272
     2
274
     1
276
     2
277
     4
284
    12
285
     4
286
    12
340
D7
371
    -1
372
    -1
  0
DIMSTYLE
105
DA
330
A
100
AcDbSymbolTableRecord
100
AcDbDimStyleTableRecord
  2
Default - Fraction (ANSI)
 70
     0
 41
0.0984251946210861
 43
0.2362204724409449
 44
0.125
 45
0.00000001
 46
0.3937007874015748
 79
     3
140
0.0799999982118607
146
1.500000119209289
147
0.031496062992126
171
     1
176
   256
177
   256
178
     5
272
     2
274
     1
276
     2
277
     5
284
    12
285
     4
286
    12
340
D7
371
    -1
372
    -1
  0
DIMSTYLE
105
DB
330
A
100
AcDbSymbolTableRecord
100
AcDbDimStyleTableRecord
  2
Default - Fraction (ANSI)$7
 70
     0
 41
0.0984251946210861
 43
0.2362204724409449
 44
0.125
 45
0.00000001
 46
0.3937007874015748
 79
     3
140
0.0799999982118607
146
1.500000119209289
147
0.031496062992126
171
     1
176
     5
177
   256
178
     5
272
     2
274
     1
276
     2
277
     5
284
    12
285
     4
286
    12
340
D7
371
    -1
372
    -1
  0
DIMSTYLE
105
DC
330
A
100
AcDbSymbolTableRecord
100
AcDbDimStyleTableRecord
  2
Default - mm (ANSI)
 70
     0
 41
0.0984251946210861
 42
0.063
 43
0.2362204724409449
 44
0.125
 45
0.00000001
 46
0.3937007874015748
 73
     0
 78
     4
 79
     1
140
0.0799999982118607
143
1.0
144
25.4
146
1.500000119209289
147
0.031496062992126
171
     1
176
   256
177
   256
178
     5
179
     1
271
     2
272
     2
274
     1
284
     4
285
     4
340
D7
371
    -1
372
    -1
  0
DIMSTYLE
105
DD
330
A
100
AcDbSymbolTableRecord
100
AcDbDimStyleTableRecord
  2
Default - mm (ANSI)$7
 70
     0
 41
0.0984251946210861
 42
0.063
 43
0.2362204724409449
 44
0.125
 45
0.00000001
 46
0.3937007874015748
 73
     0
 78
     4
 79
     1
140
0.0799999982118607
143
1.0
144
25.4
146
1.500000119209289
147
0.031496062992126
171
     1
176
     5
177
   256
178
     5
179
     1
271
     2
272
     2
274
     1
284
     4
285
     4
340
D7
371
    -1
372
    -1
  0
DIMSTYLE
105
DE
330
A
100
AcDbSymbolTableRecord
100
AcDbDimStyleTableRecord
  2
Default - mm [in] (ANSI)
 70
     0
  4
 in
 41
0.0984251946210861
 42
0.063
 43
0.25
 44
0.125
 45
0.00000001
 46
0.3937007874015748
 73
     0
 78
     4
 79
     1
140
0.0799999982118607
143
0.03937
144
25.4
146
1.500000119209289
147
0.031496062992126
170
     1
171
     3
176
   256
177
   256
178
     5
179
     1
271
     2
272
     2
274
     3
284
     4
285
     4
286
     4
340
D7
371
    -1
372
    -1
  0
DIMSTYLE
105
DF
330
A
100
AcDbSymbolTableRecord
100
AcDbDimStyleTableRecord
  2
Default - mm [in] (ANSI)$7
 70
     0
  4
 in
 41
0.0984251946210861
 42
0.063
 43
0.25
 44
0.125
 45
0.00000001
 46
0.3937007874015748
 73
     0
 78
     4
 79
     1
140
0.0799999982118607
143
0.03937
144
25.4
146
1.500000119209289
147
0.031496062992126
170
     1
171
     3
176
     5
177
   256
178
     5
179
     1
271
     2
272
     2
274
     3
284
     4
285
     4
286
     4
340
D7
371
    -1
372
    -1
  0
DIMSTYLE
105
E0
330
A
100
AcDbSymbolTableRecord
100
AcDbDimStyleTableRecord
  2
Default (ANSI)
 70
     0
 41
0.0984251946210861
 43
0.2362204724409449
 44
0.125
 45
0.00000001
 46
0.3937007874015748
 78
     4
 79
     1
140
0.0799999982118607
146
1.500000119209289
147
0.031496062992126
171
     1
176
   256
177
   256
178
     5
271
     2
272
     2
274
     1
284
     4
285
     4
340
D7
371
    -1
372
    -1
  0
DIMSTYLE
105
E1
330
A
100
AcDbSymbolTableRecord
100
AcDbDimStyleTableRecord
  2
Default (ANSI)$7
 70
     0
 41
0.0984251946210861
 43
0.2362204724409449
 44
0.125
 45
0.00000001
 46
0.3937007874015748
 78
     4
 79
     1
140
0.0799999982118607
146
1.500000119209289
147
0.031496062992126
171
     1
176
     5
177
   256
178
     5
271
     2
272
     2
274
     1
284
     4
285
     4
340
D7
371
    -1
372
    -1
  0
DIMSTYLE
105
E2
330
A
100
AcDbSymbolTableRecord
100
AcDbDimStyleTableRecord
  2
SST-STANDARD DIMEN
 70
     0
 41
0.0984251946210861
 43
0.2362204724409449
 44
0.062
 45
0.00000001
 46
0.3937007874015748
140
0.0799999982118607
147
0.031496062992126
171
     1
176
     5
177
     5
178
     5
271
     3
272
     3
274
     1
286
    12
340
D7
371
     9
372
     9
  0
DIMSTYLE
105
E3
330
A
100
AcDbSymbolTableRecord
100
AcDbDimStyleTableRecord
  2
SST-STANDARD DIMEN$7
 70
     0
 41
0.0984251946210861
 43
0.2362204724409449
 44
0.062
 45
0.00000001
 46
0.3937007874015748
140
0.0799999982118607
147
0.031496062992126
171
     1
176
     5
177
     5
178
     5
271
     3
272
     3
274
     1
286
    12
340
D7
371
    -1
372
     9
  0
DIMSTYLE
105
E4
330
A
100
AcDbSymbolTableRecord
100
AcDbDimStyleTableRecord
  2
SST-STANDARD DIMENSION-METRIC
 70
     0
 41
0.0984251946210861
 43
0.2362204724409449
 44
0.062
 45
0.00000001
 46
0.3937007874015748
140
0.0799999982118607
143
0.03937
144
25.4
147
0.031496062992126
171
     3
176
     5
177
     5
178
     5
271
     1
272
     1
274
     3
286
    12
340
D7
371
    25
372
    25
  0
DIMSTYLE
105
E5
330
A
100
AcDbSymbolTableRecord
100
AcDbDimStyleTableRecord
  2
SST-STANDARD DIMENSION-METRIC$7
 70
     0
 41
0.0984251946210861
 43
0.2362204724409449
 44
0.062
 45
0.00000001
 46
0.3937007874015748
140
0.0799999982118607
143
0.03937
144
25.4
147
0.031496062992126
171
     3
176
     5
177
     5
178
     5
271
     1
272
     1
274
     3
286
    12
340
D7
371
    -1
372
    25
  0
DIMSTYLE
105
E6
330
A
100
AcDbSymbolTableRecord
100
AcDbDimStyleTableRecord
  2
SST-STANDARD DIMENSIONS-FRACTION
 70
     0
 41
0.0984251946210861
 43
0.2362204724409449
 44
0.062
 45
0.00000001
 46
0.3937007874015748
 78
     1
140
0.0799999982118607
147
0.031496062992126
171
     1
176
     5
177
     5
178
     5
271
     5
272
     3
274
     1
276
     2
277
     5
286
    12
340
D7
371
     9
372
     9
  0
DIMSTYLE
105
E7
330
A
100
AcDbSymbolTableRecord
100
AcDbDimStyleTableRecord
  2
SST-STANDARD DIMENSIONS-FRACTION$7
 70
     0
 41
0.0984251946210861
 43
0.2362204724409449
 44
0.062
 45
0.00000001
 46
0.3937007874015748
 78
     1
140
0.0799999982118607
147
0.031496062992126
171
     1
176
     5
177
     5
178
     5
271
     5
272
     3
274
     1
276
     2
277
     5
286
    12
340
D7
371
    -1
372
     9
  0
DIMSTYLE
105
E8
330
A
100
AcDbSymbolTableRecord
100
AcDbDimStyleTableRecord
  2
Alternate (ANSI)
 70
     0
 41
0.0979999974370003
340
55
342
E9
  0
DIMSTYLE
105
FB
330
A
100
AcDbSymbolTableRecord
100
AcDbDimStyleTableRecord
  2
Datum (ANSI)
 70
     0
 41
0.0979999974370003
340
55
342
E9
  0
DIMSTYLE
105
10A
330
A
100
AcDbSymbolTableRecord
100
AcDbDimStyleTableRecord
  2
Large (ANSI)
 70
     0
 41
0.1959999948740005
340
55
342
E9
  0
ENDTAB
  0
TABLE
  2
BLOCK_RECORD
  5
1
330
0
100
AcDbSymbolTable
 70
     5
  0
BLOCK_RECORD
  5
6C
330
1
100
AcDbSymbolTableRecord
100
AcDbBlockTableRecord
  2
*Model_Space
340
6F
  0
BLOCK_RECORD
  5
68
330
1
100
AcDbSymbolTableRecord
100
AcDbBlockTableRecord
  2
*Paper_Space
340
6B
  0
BLOCK_RECORD
  5
70
330
1
100
AcDbSymbolTableRecord
100
AcDbBlockTableRecord
  2
*Paper_Space0
340
73
  0
BLOCK_RECORD
  5
E9
330
1
100
AcDbSymbolTableRecord
100
AcDbBlockTableRecord
  2
_Closed
340
0
  0
BLOCK_RECORD
  5
F0
330
1
100
AcDbSymbolTableRecord
100
AcDbBlockTableRecord
  2
DatumFilled45
340
0
  0
BLOCK_RECORD
  5
FC
330
1
100
AcDbSymbolTableRecord
100
AcDbBlockTableRecord
  2
Filled-1
340
0
  0
BLOCK_RECORD
  5
10B
330
1
100
AcDbSymbolTableRecord
100
AcDbBlockTableRecord
  2
Borders SST-LAND
340
0
102
{BLKREFS
331
112
102
}
  0
ENDTAB
  0
ENDSEC
  0
SECTION
  2
BLOCKS
  0
BLOCK
  5
6D
330
6C
100
AcDbEntity
  8
0
100
AcDbBlockBegin
  2
*Model_Space
 70
     0
 10
0.0
 20
0.0
 30
0.0
  3
*Model_Space
  1

  0
ENDBLK
  5
6E
330
6C
100
AcDbEntity
  8
0
100
AcDbBlockEnd
  0
BLOCK
  5
69
330
68
100
AcDbEntity
 67
     1
  8
0
100
AcDbBlockBegin
  2
*Paper_Space
 70
     0
 10
0.0
 20
0.0
 30
0.0
  3
*Paper_Space
  1

  0
ENDBLK
  5
6A
330
68
100
AcDbEntity
 67
     1
  8
0
100
AcDbBlockEnd
  0
BLOCK
  5
71
330
70
100
AcDbEntity
 67
     1
  8
0
100
AcDbBlockBegin
  2
*Paper_Space0
 70
     0
 10
0.0
 20
0.0
 30
0.0
  3
*Paper_Space0
  1

  0
ENDBLK
  5
72
330
70
100
AcDbEntity
 67
     1
  8
0
100
AcDbBlockEnd
  0
BLOCK
  5
EE
330
E9
100
AcDbEntity
  8
0
100
AcDbBlockBegin
  2
_Closed
 70
     0
 10
0.0
 20
0.0
 30
0.0
  3
_Closed
  1

  0
LINE
  5
EA
330
E9
100
AcDbEntity
  8
0
  6
ByBlock
 62
     0
370
    -2
100
AcDbLine
 10
-1.0
 20
0.1666666666666666
 30
0.0
 11
0.0
 21
0.0
 31
0.0
  0
LINE
  5
EB
330
E9
100
AcDbEntity
  8
0
  6
ByBlock
 62
     0
370
    -2
100
AcDbLine
 10
0.0
 20
0.0
 30
0.0
 11
-1.0
 21
-0.1666666666666666
 31
0.0
  0
LINE
  5
EC
330
E9
100
AcDbEntity
  8
0
  6
ByBlock
 62
     0
370
    -2
100
AcDbLine
 10
-1.0
 20
0.1666666666666666
 30
0.0
 11
-1.0
 21
-0.1666666666666666
 31
0.0
  0
LINE
  5
ED
330
E9
100
AcDbEntity
  8
0
  6
ByBlock
 62
     0
370
    -2
100
AcDbLine
 10
0.0
 20
0.0
 30
0.0
 11
-1.0
 21
0.0
 31
0.0
  0
ENDBLK
  5
EF
330
E9
100
AcDbEntity
  8
0
100
AcDbBlockEnd
  0
BLOCK
  5
F1
330
F0
100
AcDbEntity
  8
0
100
AcDbBlockBegin
  2
DatumFilled45
 70
     0
 10
0.0
 20
0.0
 30
0.0
  3
DatumFilled45
  1

  0
POLYLINE
  5
F3
330
F0
100
AcDbEntity
  8
0
 62
     0
100
AcDb2dPolyline
 66
     1
 10
0.0
 20
0.0
 30
0.0
 70
   128
  0
VERTEX
  5
F4
330
F3
100
AcDbEntity
  8
0
 62
     0
100
AcDbVertex
100
AcDb2dVertex
 10
0.0
 20
0.9999999999999998
 30
0.0
  0
VERTEX
  5
F5
330
F3
100
AcDbEntity
  8
0
 62
     0
100
AcDbVertex
100
AcDb2dVertex
 10
0.0
 20
-0.9999999999999998
 30
0.0
  0
VERTEX
  5
F7
330
F3
100
AcDbEntity
  8
0
 62
     0
100
AcDbVertex
100
AcDb2dVertex
 10
-0.9999999999999998
 20
0.0
 30
0.0
  0
VERTEX
  5
F8
330
F3
100
AcDbEntity
  8
0
 62
     0
100
AcDbVertex
100
AcDb2dVertex
 10
0.0
 20
0.9999999999999998
 30
0.0
  0
SEQEND
  5
F6
330
F3
100
AcDbEntity
  8
0
 62
     0
  0
SOLID
  5
FA
330
F0
100
AcDbEntity
  8
0
 62
     0
100
AcDbTrace
 10
0.0
 20
0.9999999999999998
 30
0.0
 11
0.0
 21
-0.9999999999999998
 31
0.0
 12
-0.9999999999999998
 22
0.0
 32
0.0
 13
0.0
 23
0.9999999999999998
 33
0.0
  0
ENDBLK
  5
F2
330
F0
100
AcDbEntity
  8
0
100
AcDbBlockEnd
  0
BLOCK
  5
FD
330
FC
100
AcDbEntity
  8
0
100
AcDbBlockBegin
  2
Filled-1
 70
     0
 10
0.0
 20
0.0
 30
0.0
  3
Filled-1
  1

  0
LINE
  5
FF
330
FC
100
AcDbEntity
  8
0
 62
     0
100
AcDbLine
 10
-0.9999999999999998
 20
0.0
 30
0.0
 11
0.0
 21
0.0
 31
0.0
  0
POLYLINE
  5
100
330
FC
100
AcDbEntity
  8
0
 62
     0
100
AcDb2dPolyline
 66
     1
 10
0.0
 20
0.0
 30
0.0
 70
   128
  0
VERTEX
  5
101
330
100
100
AcDbEntity
  8
0
 62
     0
100
AcDbVertex
100
AcDb2dVertex
 10
-0.9999999999999998
 20
-0.0994897959183674
 30
0.0
  0
VERTEX
  5
102
330
100
100
AcDbEntity
  8
0
 62
     0
100
AcDbVertex
100
AcDb2dVertex
 10
0.0
 20
0.0
 30
0.0
  0
VERTEX
  5
104
330
100
100
AcDbEntity
  8
0
 62
     0
100
AcDbVertex
100
AcDb2dVertex
 10
-0.9999999999999998
 20
0.0994897959183674
 30
0.0
  0
VERTEX
  5
105
330
100
100
AcDbEntity
  8
0
 62
     0
100
AcDbVertex
100
AcDb2dVertex
 10
-0.9999999999999998
 20
-0.0994897959183674
 30
0.0
  0
SEQEND
  5
103
330
100
100
AcDbEntity
  8
0
 62
     0
  0
SOLID
  5
106
330
FC
100
AcDbEntity
  8
0
 62
     0
100
AcDbTrace
 10
-0.9999999999999998
 20
-0.0994897959183674
 30
0.0
 11
0.0
 21
0.0
 31
0.0
 12
-0.9999999999999998
 22
0.0994897959183674
 32
0.0
 13
-0.9999999999999998
 23
-0.0994897959183674
 33
0.0
  0
LINE
  5
107
330
FC
100
AcDbEntity
  8
0
 62
     0
100
AcDbLine
 10
-0.9999999999999998
 20
-0.0994897959183674
 30
0.0
 11
0.0
 21
0.0
 31
0.0
  0
LINE
  5
108
330
FC
100
AcDbEntity
  8
0
 62
     0
100
AcDbLine
 10
0.0
 20
0.0
 30
0.0
 11
-0.9999999999999998
 21
0.0994897959183674
 31
0.0
  0
LINE
  5
109
330
FC
100
AcDbEntity
  8
0
 62
     0
100
AcDbLine
 10
-0.9999999999999998
 20
0.0994897959183674
 30
0.0
 11
-0.9999999999999998
 21
-0.0994897959183674
 31
0.0
  0
ENDBLK
  5
FE
330
FC
100
AcDbEntity
  8
0
100
AcDbBlockEnd
  0
BLOCK
  5
10C
330
10B
100
AcDbEntity
  8
0
100
AcDbBlockBegin
  2
Borders SST-LAND
 70
     0
 10
0.0
 20
0.0
 30
0.0
  3
Borders SST-LAND
  1

  0
LINE
  5
10E
330
10B
100
AcDbEntity
  8
Border (ANSI)
 62
     7
370
    50
100
AcDbLine
 10
0.5000000000000013
 20
10.5
 30
0.0
 11
0.500000000000005
 21
0.4999999999999999
 31
0.0
  0
LINE
  5
10F
330
10B
100
AcDbEntity
  8
Border (ANSI)
 62
     7
370
    50
100
AcDbLine
 10
16.49999999999999
 20
10.5
 30
0.0
 11
0.5000000000000013
 21
10.5
 31
0.0
  0
LINE
  5
110
330
10B
100
AcDbEntity
  8
Border (ANSI)
 62
     7
370
    50
100
AcDbLine
 10
16.5
 20
0.4999999999999999
 30
0.0
 11
16.49999999999999
 21
10.5
 31
0.0
  0
LINE
  5
111
330
10B
100
AcDbEntity
  8
Border (ANSI)
 62
     7
370
    50
100
AcDbLine
 10
0.500000000000005
 20
0.4999999999999999
 30
0.0
 11
16.5
 21
0.4999999999999999
 31
0.0
  0
ENDBLK
  5
10D
330
10B
100
AcDbEntity
  8
0
100
AcDbBlockEnd
  0
ENDSEC
  0
SECTION
  2
ENTITIES
  0
INSERT
  5
112
330
6C
100
AcDbEntity
  8
0
100
AcDbBlockReference
  2
Borders SST-LAND
 10
0.0
 20
0.0
 30
0.0
  0
SPLINE
  5
113
330
6C
100
AcDbEntity
  8
Visible (ANSI)
100
AcDbSpline
210
0.0
220
0.0
230
1.0
 70
     8
 71
     3
 72
    12
 73
     8
 74
     0
 42
0.0000000001
 43
0.0000000001
 40
0.2150237208386169
 40
0.2150237208386169
 40
0.2150237208386169
 40
0.2150237208386169
 40
0.2750881306779169
 40
0.2750881306779169
 40
0.3422257193795591
 40
0.3422257193795591
 40
0.3591123932700079
 40
0.3591123932700079
 40
0.3591123932700079
 40
0.3591123932700079
 10
7.307625866750472
 20
5.420132887216307
 30
0.0
 10
7.304603874822739
 20
5.420132887216306
 30
0.0
 10
7.300380538366456
 20
5.421452307046083
 30
0.0
 10
7.290713323276045
 20
5.426013060289887
 30
0.0
 10
7.284274844583368
 20
5.429812956469585
 30
0.0
 10
7.275363917454433
 20
5.435468466643456
 30
0.0
 10
7.273532011605957
 20
5.436647556180076
 30
0.0
 10
7.27167510324626
 20
5.437852902003904
 30
0.0
  0
SPLINE
  5
114
330
6C
100
AcDbEntity
  8
Visible (ANSI)
100
AcDbSpline
210
0.0
220
0.0
230
1.0
 70
     8
 71
     3
 72
    12
 73
     8
 74
     0
 42
0.0000000001
 43
0.0000000001
 40
2.466043470986136
 40
2.466043470986136
 40
2.466043470986136
 40
2.466043470986136
 40
2.486042468447039
 40
2.486042468447039
 40
2.556409122047479
 40
2.556409122047479
 40
2.610533610399095
 40
2.610533610399095
 40
2.610533610399095
 40
2.610533610399095
 10
7.271675103246294
 20
5.92866287242872
 30
0.0
 10
7.273866838028015
 20
5.930085558880796
 30
0.0
 10
7.27602369244363
 20
5.931471642620261
 30
0.0
 10
7.285498087232519
 20
5.937452072665586
 30
0.0
 10
7.292095658279705
 20
5.941279858664302
 30
0.0
 10
7.301204213915325
 20
5.945321303866123
 30
0.0
 10
7.304864775250667
 20
5.946382887216307
 30
0.0
 10
7.307625866750481
 20
5.946382887216307
 30
0.0
  0
LINE
  5
115
330
6C
100
AcDbEntity
  8
Visible (ANSI)
100
AcDbLine
 10
7.162330312367463
 20
5.77931220573402
 30
0.0
 11
7.205015044541662
 21
5.856382887216306
 31
0.0
  0
ELLIPSE
  5
116
330
6C
100
AcDbEntity
  8
Visible (ANSI)
100
AcDbEllipse
 10
7.270899617222862
 20
5.856382887216306
 30
0.0
 11
0.0717872913680572
 21
0.0827067049141022
 31
0.0
210
0.0
220
0.0
230
1.0
 40
0.4943891428362592
 41
1.043650780137469
 42
1.976148980263001
  0
ELLIPSE
  5
117
330
6C
100
AcDbEntity
  8
Visible (ANSI)
100
AcDbEllipse
 10
7.232037449240861
 20
5.683257887216174
 30
0.0
 11
0.0
 21
-0.1459999999999999
 31
0.0
210
0.0
220
0.0
230
1.0
 40
0.6339745962155615
 41
3.994353728665634
 42
5.430424232103748
  0
ELLIPSE
  5
118
330
6C
100
AcDbEntity
  8
Visible (ANSI)
100
AcDbEllipse
 10
7.270899617222782
 20
5.510132887216307
 30
0.0
 11
0.0717872913681336
 21
-0.0827067049140993
 31
0.0
210
0.0
220
0.0
230
1.0
 40
0.494389142835828
 41
4.307036326916495
 42
5.239534527041805
  0
LINE
  5
119
330
6C
100
AcDbEntity
  8
Visible (ANSI)
100
AcDbLine
 10
7.205015044541583
 20
5.510132887216307
 30
0.0
 11
7.162330312367463
 21
5.587203568698328
 31
0.0
  0
ELLIPSE
  5
11A
330
6C
100
AcDbEntity
  8
Visible (ANSI)
100
AcDbEllipse
 10
7.35371178638903
 20
5.856382887216306
 30
0.0
 11
0.000000000000001
 21
0.09
 31
0.0
210
0.0
220
0.0
230
0.9999999999999998
 40
0.7320508075688768
 41
0.511240054695624
 42
0.6710477983060486
  0
LINE
  5
11B
330
6C
100
AcDbEntity
  8
Visible (ANSI)
100
AcDbLine
 10
7.307625866750481
 20
5.946382887216307
 30
0.0
 11
7.32147715819339
 21
5.946382887216307
 31
0.0
  0
LINE
  5
11C
330
6C
100
AcDbEntity
  8
Visible Narrow (ANSI)
100
AcDbLine
 10
7.205015044541662
 20
5.856382887216306
 30
0.0
 11
7.248789692881437
 21
5.856382887216306
 31
0.0
  0
ELLIPSE
  5
11D
330
6C
100
AcDbEntity
  8
Visible (ANSI)
100
AcDbEllipse
 10
7.314674265562636
 20
5.856382887216306
 30
0.0
 11
0.0717872913680572
 21
0.0827067049141022
 31
0.0
210
0.0
220
0.0
230
1.0
 40
0.4943891428362592
 41
1.076400451774013
 42
1.976148980263001
  0
LINE
  5
11E
330
6C
100
AcDbEntity
  8
Visible (ANSI)
100
AcDbLine
 10
7.32147715819339
 20
5.926868238305985
 30
0.0
 11
7.312744302317091
 21
5.926868238305985
 31
0.0
  0
LINE
  5
11F
330
6C
100
AcDbEntity
  8
Visible (ANSI)
100
AcDbLine
 10
7.248789692881437
 20
5.856382887216306
 30
0.0
 11
7.187157511801894
 21
5.745101078590804
 31
0.0
  0
LINE
  5
120
330
6C
100
AcDbEntity
  8
Visible Narrow (ANSI)
100
AcDbLine
 10
7.32147715819339
 20
5.745101078590804
 30
0.0
 11
7.187157511801894
 21
5.745101078590804
 31
0.0
  0
LINE
  5
121
330
6C
100
AcDbEntity
  8
Visible Narrow (ANSI)
100
AcDbLine
 10
7.248789692881388
 20
5.510132887216307
 30
0.0
 11
7.205015044541583
 21
5.510132887216307
 31
0.0
  0
LINE
  5
122
330
6C
100
AcDbEntity
  8
Visible (ANSI)
100
AcDbLine
 10
7.187157511801855
 20
5.621414695841615
 30
0.0
 11
7.248789692881388
 21
5.510132887216307
 31
0.0
  0
ELLIPSE
  5
123
330
6C
100
AcDbEntity
  8
Visible (ANSI)
100
AcDbEllipse
 10
7.232037449240861
 20
5.683257887216174
 30
0.0
 11
0.0
 21
-0.094
 31
0.0
210
0.0
220
0.0
230
1.0
 40
0.6339745962155616
 41
3.994353728663833
 42
5.430424232104542
  0
LINE
  5
124
330
6C
100
AcDbEntity
  8
Visible (ANSI)
100
AcDbLine
 10
7.307625866750469
 20
5.420132887216307
 30
0.0
 11
7.32147715819339
 21
5.420132887216307
 31
0.0
  0
ELLIPSE
  5
125
330
6C
100
AcDbEntity
  8
Visible (ANSI)
100
AcDbEllipse
 10
7.35371178638903
 20
5.510132887216307
 30
0.0
 11
0.0
 21
0.09
 31
0.0
210
0.0
220
0.0
230
0.9999999999999998
 40
0.7320508075688769
 41
2.470544855284094
 42
2.630352598894202
  0
ELLIPSE
  5
126
330
6C
100
AcDbEntity
  8
Visible (ANSI)
100
AcDbEllipse
 10
7.314674265562587
 20
5.510132887216307
 30
0.0
 11
0.0717872913681335
 21
-0.0827067049140993
 31
0.0
210
0.0
220
0.0
230
1.0
 40
0.4943891428358281
 41
4.307036326916495
 42
5.206784855405688
  0
LINE
  5
127
330
6C
100
AcDbEntity
  8
Visible Narrow (ANSI)
100
AcDbLine
 10
7.32147715819339
 20
5.621414695841615
 30
0.0
 11
7.187157511801855
 21
5.621414695841615
 31
0.0
  0
LINE
  5
128
330
6C
100
AcDbEntity
  8
Visible (ANSI)
100
AcDbLine
 10
7.32147715819339
 20
5.43964753612661
 30
0.0
 11
7.312744302317108
 21
5.43964753612661
 31
0.0
  0
LINE
  5
129
330
6C
100
AcDbEntity
  8
Visible (ANSI)
100
AcDbLine
 10
7.37347715819339
 20
8.52785199391584
 30
0.0
 11
7.37347715819339
 21
8.745665478989215
 31
0.0
  0
LINE
  5
12A
330
6C
100
AcDbEntity
  8
Visible (ANSI)
100
AcDbLine
 10
7.37347715819339
 20
8.258957887216496
 30
0.0
 11
7.37347715819339
 21
8.52785199391584
 31
0.0
  0
LINE
  5
12B
330
6C
100
AcDbEntity
  8
Visible (ANSI)
100
AcDbLine
 10
7.37347715819339
 20
7.895743049503774
 30
0.0
 11
7.37347715819339
 21
8.258957887216496
 31
0.0
  0
LINE
  5
12C
330
6C
100
AcDbEntity
  8
Visible (ANSI)
100
AcDbLine
 10
7.37347715819339
 20
7.843840731111222
 30
0.0
 11
7.37347715819339
 21
7.895743049503774
 31
0.0
  0
LINE
  5
12D
330
6C
100
AcDbEntity
  8
Visible (ANSI)
100
AcDbLine
 10
7.37347715819339
 20
7.843840731111222
 30
0.0
 11
7.37347715819339
 21
7.482557887216307
 31
0.0
  0
LINE
  5
12E
330
6C
100
AcDbEntity
  8
Visible (ANSI)
100
AcDbLine
 10
7.37347715819339
 20
7.383957887216307
 30
0.0
 11
7.37347715819339
 21
7.482557887216307
 31
0.0
  0
LINE
  5
12F
330
6C
100
AcDbEntity
  8
Visible (ANSI)
100
AcDbLine
 10
7.37347715819339
 20
7.383957887216307
 30
0.0
 11
7.37347715819339
 21
7.022675043321363
 31
0.0
  0
LINE
  5
130
330
6C
100
AcDbEntity
  8
Visible (ANSI)
100
AcDbLine
 10
7.37347715819339
 20
6.970772724928828
 30
0.0
 11
7.37347715819339
 21
7.022675043321409
 31
0.0
  0
LINE
  5
131
330
6C
100
AcDbEntity
  8
Visible (ANSI)
100
AcDbLine
 10
7.37347715819339
 20
6.607557887216307
 30
0.0
 11
7.37347715819339
 21
6.970772724928826
 31
0.0
  0
LINE
  5
132
330
6C
100
AcDbEntity
  8
Visible (ANSI)
100
AcDbLine
 10
7.37347715819339
 20
6.508957887216308
 30
0.0
 11
7.37347715819339
 21
6.607557887216307
 31
0.0
  0
LINE
  5
133
330
6C
100
AcDbEntity
  8
Visible (ANSI)
100
AcDbLine
 10
7.37347715819339
 20
6.145500906284839
 30
0.0
 11
7.37347715819339
 21
6.508957887216308
 31
0.0
  0
LINE
  5
134
330
6C
100
AcDbEntity
  8
Visible (ANSI)
100
AcDbLine
 10
7.37347715819339
 20
6.094564906794023
 30
0.0
 11
7.37347715819339
 21
6.145500906258009
 31
0.0
  0
LINE
  5
135
330
6C
100
AcDbEntity
  8
Visible (ANSI)
100
AcDbLine
 10
7.37347715819339
 20
6.094564906794007
 30
0.0
 11
7.37347715819339
 21
5.732557887216254
 31
0.0
  0
LINE
  5
136
330
6C
100
AcDbEntity
  8
Visible (ANSI)
100
AcDbLine
 10
7.37347715819339
 20
5.370257887216256
 30
0.0
 11
7.37347715819339
 21
5.732557887216254
 31
0.0
  0
LINE
  5
137
330
6C
100
AcDbEntity
  8
Visible (ANSI)
100
AcDbLine
 10
7.37347715819339
 20
5.245757887216306
 30
0.0
 11
7.37347715819339
 21
5.370257887216256
 31
0.0
  0
LINE
  5
138
330
6C
100
AcDbEntity
  8
Visible (ANSI)
100
AcDbLine
 10
7.37347715819339
 20
5.219106414488247
 30
0.0
 11
7.37347715819339
 21
5.245757887216306
 31
0.0
  0
LINE
  5
139
330
6C
100
AcDbEntity
  8
Visible (ANSI)
100
AcDbLine
 10
7.37347715819339
 20
4.70990935994437
 30
0.0
 11
7.37347715819339
 21
5.219106414488247
 31
0.0
  0
LINE
  5
13A
330
6C
100
AcDbEntity
  8
Visible (ANSI)
100
AcDbLine
 10
7.37347715819339
 20
4.709909359944377
 30
0.0
 11
7.37347715819339
 21
4.683257887216307
 31
0.0
  0
LINE
  5
13B
330
6C
100
AcDbEntity
  8
Visible (ANSI)
100
AcDbLine
 10
7.37347715819339
 20
4.680161544834199
 30
0.0
 11
7.37347715819339
 21
4.683257887216307
 31
0.0
  0
LINE
  5
13C
330
6C
100
AcDbEntity
  8
Visible (ANSI)
100
AcDbLine
 10
7.32147715819339
 20
4.683257887216307
 30
0.0
 11
7.32147715819339
 21
4.680161544834199
 31
0.0
  0
LINE
  5
13D
330
6C
100
AcDbEntity
  8
Visible (ANSI)
100
AcDbLine
 10
7.32147715819339
 20
4.683257887216307
 30
0.0
 11
7.32147715819339
 21
4.709909359944376
 31
0.0
  0
LINE
  5
13E
330
6C
100
AcDbEntity
  8
Visible (ANSI)
100
AcDbLine
 10
7.32147715819339
 20
5.219106414488247
 30
0.0
 11
7.32147715819339
 21
4.70990935994437
 31
0.0
  0
LINE
  5
13F
330
6C
100
AcDbEntity
  8
Visible (ANSI)
100
AcDbLine
 10
7.32147715819339
 20
5.245757887216305
 30
0.0
 11
7.32147715819339
 21
5.219106414488247
 31
0.0
  0
LINE
  5
140
330
6C
100
AcDbEntity
  8
Visible (ANSI)
100
AcDbLine
 10
7.32147715819339
 20
5.370257887216256
 30
0.0
 11
7.32147715819339
 21
5.245757887216306
 31
0.0
  0
LINE
  5
141
330
6C
100
AcDbEntity
  8
Visible (ANSI)
100
AcDbLine
 10
7.32147715819339
 20
5.732557887216254
 30
0.0
 11
7.32147715819339
 21
5.370257887216256
 31
0.0
  0
LINE
  5
142
330
6C
100
AcDbEntity
  8
Visible (ANSI)
100
AcDbLine
 10
7.32147715819339
 20
5.732557887216255
 30
0.0
 11
7.32147715819339
 21
6.094564906794007
 31
0.0
  0
LINE
  5
143
330
6C
100
AcDbEntity
  8
Visible (ANSI)
100
AcDbLine
 10
7.32147715819339
 20
6.145500906258009
 30
0.0
 11
7.32147715819339
 21
6.094564906794023
 31
0.0
  0
LINE
  5
144
330
6C
100
AcDbEntity
  8
Visible (ANSI)
100
AcDbLine
 10
7.32147715819339
 20
6.508957887216308
 30
0.0
 11
7.32147715819339
 21
6.145500906284839
 31
0.0
  0
LINE
  5
145
330
6C
100
AcDbEntity
  8
Visible (ANSI)
100
AcDbLine
 10
7.32147715819339
 20
6.607557887216307
 30
0.0
 11
7.32147715819339
 21
6.508957887216308
 31
0.0
  0
LINE
  5
146
330
6C
100
AcDbEntity
  8
Visible (ANSI)
100
AcDbLine
 10
7.32147715819339
 20
6.970772724928826
 30
0.0
 11
7.32147715819339
 21
6.607557887216309
 31
0.0
  0
LINE
  5
147
330
6C
100
AcDbEntity
  8
Visible (ANSI)
100
AcDbLine
 10
7.32147715819339
 20
7.022675043321409
 30
0.0
 11
7.32147715819339
 21
6.970772724928828
 31
0.0
  0
LINE
  5
148
330
6C
100
AcDbEntity
  8
Visible (ANSI)
100
AcDbLine
 10
7.32147715819339
 20
7.022675043321363
 30
0.0
 11
7.32147715819339
 21
7.383957887216307
 31
0.0
  0
LINE
  5
149
330
6C
100
AcDbEntity
  8
Visible (ANSI)
100
AcDbLine
 10
7.32147715819339
 20
7.482557887216307
 30
0.0
 11
7.32147715819339
 21
7.383957887216307
 31
0.0
  0
LINE
  5
14A
330
6C
100
AcDbEntity
  8
Visible (ANSI)
100
AcDbLine
 10
7.321477158193388
 20
7.482557887216309
 30
0.0
 11
7.321477158193388
 21
7.843840731111222
 31
0.0
  0
LINE
  5
14B
330
6C
100
AcDbEntity
  8
Visible (ANSI)
100
AcDbLine
 10
7.321477158193388
 20
7.895743049503774
 30
0.0
 11
7.321477158193388
 21
7.843840731111222
 31
0.0
  0
LINE
  5
14C
330
6C
100
AcDbEntity
  8
Visible (ANSI)
100
AcDbLine
 10
7.321477158193388
 20
8.258957887216498
 30
0.0
 11
7.321477158193388
 21
7.895743049503774
 31
0.0
  0
LINE
  5
14D
330
6C
100
AcDbEntity
  8
Visible (ANSI)
100
AcDbLine
 10
7.321477158193388
 20
8.52785199391584
 30
0.0
 11
7.321477158193388
 21
8.258957887216496
 31
0.0
  0
LINE
  5
14E
330
6C
100
AcDbEntity
  8
Visible (ANSI)
100
AcDbLine
 10
7.321477158193388
 20
8.745665478989215
 30
0.0
 11
7.321477158193388
 21
8.52785199391584
 31
0.0
  0
LINE
  5
14F
330
6C
100
AcDbEntity
  8
Visible (ANSI)
100
AcDbLine
 10
8.941392636732059
 20
4.683257887216307
 30
0.0
 11
8.941392636732059
 21
4.679980740701054
 31
0.0
  0
LINE
  5
150
330
6C
100
AcDbEntity
  8
Visible (ANSI)
100
AcDbLine
 10
8.941392636732059
 20
4.683257887216307
 30
0.0
 11
8.941392636732059
 21
4.740310653294579
 31
0.0
  0
LINE
  5
151
330
6C
100
AcDbEntity
  8
Visible (ANSI)
100
AcDbLine
 10
8.941392636732059
 20
5.206489150167223
 30
0.0
 11
8.941392636732059
 21
4.74031065329458
 31
0.0
  0
LINE
  5
152
330
6C
100
AcDbEntity
  8
Visible (ANSI)
100
AcDbLine
 10
8.941392636732059
 20
5.245236090069652
 30
0.0
 11
8.941392636732059
 21
5.206489150167222
 31
0.0
  0
LINE
  5
153
330
6C
100
AcDbEntity
  8
Visible (ANSI)
100
AcDbLine
 10
8.941392636732059
 20
5.370257887216355
 30
0.0
 11
8.941392636732059
 21
5.245236090069653
 31
0.0
  0
LINE
  5
154
330
6C
100
AcDbEntity
  8
Visible (ANSI)
100
AcDbLine
 10
8.941392636732059
 20
5.732038608591007
 30
0.0
 11
8.941392636732059
 21
5.370257887216355
 31
0.0
  0
LINE
  5
155
330
6C
100
AcDbEntity
  8
Visible (ANSI)
100
AcDbLine
 10
8.941392636732059
 20
6.095772724928826
 30
0.0
 11
8.941392636732059
 21
5.732038608591007
 31
0.0
  0
LINE
  5
156
330
6C
100
AcDbEntity
  8
Visible (ANSI)
100
AcDbLine
 10
8.941392636732059
 20
6.147675043321408
 30
0.0
 11
8.941392636732059
 21
6.095772724928828
 31
0.0
  0
LINE
  5
157
330
6C
100
AcDbEntity
  8
Visible (ANSI)
100
AcDbLine
 10
8.941392636732059
 20
6.147675043321407
 30
0.0
 11
8.941392636732059
 21
6.508957887216307
 31
0.0
  0
LINE
  5
158
330
6C
100
AcDbEntity
  8
Visible (ANSI)
100
AcDbLine
 10
8.941392636732059
 20
6.607557887216307
 30
0.0
 11
8.941392636732059
 21
6.508957887216308
 31
0.0
  0
LINE
  5
159
330
6C
100
AcDbEntity
  8
Visible (ANSI)
100
AcDbLine
 10
8.941392636732059
 20
6.607557887216307
 30
0.0
 11
8.941392636732059
 21
6.968840731111206
 31
0.0
  0
LINE
  5
15A
330
6C
100
AcDbEntity
  8
Visible (ANSI)
100
AcDbLine
 10
8.941392636732059
 20
7.020743049503787
 30
0.0
 11
8.941392636732059
 21
6.968840731111208
 31
0.0
  0
LINE
  5
15B
330
6C
100
AcDbEntity
  8
Visible (ANSI)
100
AcDbLine
 10
8.941392636732059
 20
7.383957887216308
 30
0.0
 11
8.941392636732059
 21
7.020743049503745
 31
0.0
  0
LINE
  5
15C
330
6C
100
AcDbEntity
  8
Visible (ANSI)
100
AcDbLine
 10
8.941392636732059
 20
7.482557887216307
 30
0.0
 11
8.941392636732059
 21
7.383957887216307
 31
0.0
  0
LINE
  5
15D
330
6C
100
AcDbEntity
  8
Visible (ANSI)
100
AcDbLine
 10
8.941392636732059
 20
7.845772724928842
 30
0.0
 11
8.941392636732059
 21
7.482557887216307
 31
0.0
  0
LINE
  5
15E
330
6C
100
AcDbEntity
  8
Visible (ANSI)
100
AcDbLine
 10
8.941392636732059
 20
7.897675043321392
 30
0.0
 11
8.941392636732059
 21
7.845772724928843
 31
0.0
  0
LINE
  5
15F
330
6C
100
AcDbEntity
  8
Visible (ANSI)
100
AcDbLine
 10
8.941392636732059
 20
7.897675043321393
 30
0.0
 11
8.941392636732059
 21
8.258957887217695
 31
0.0
  0
LINE
  5
160
330
6C
100
AcDbEntity
  8
Visible (ANSI)
100
AcDbLine
 10
8.941392636732059
 20
8.527851993915584
 30
0.0
 11
8.941392636732059
 21
8.258957887217695
 31
0.0
  0
LINE
  5
161
330
6C
100
AcDbEntity
  8
Visible (ANSI)
100
AcDbLine
 10
8.941392636732059
 20
8.745665478989932
 30
0.0
 11
8.941392636732059
 21
8.527851993915584
 31
0.0
  0
LINE
  5
162
330
6C
100
AcDbEntity
  8
Visible (ANSI)
100
AcDbLine
 10
8.993392636732059
 20
8.527851993915584
 30
0.0
 11
8.993392636732059
 21
8.745665478989932
 31
0.0
  0
LINE
  5
163
330
6C
100
AcDbEntity
  8
Visible (ANSI)
100
AcDbLine
 10
8.993392636732059
 20
8.258957887217695
 30
0.0
 11
8.993392636732059
 21
8.527851993915584
 31
0.0
  0
LINE
  5
164
330
6C
100
AcDbEntity
  8
Visible (ANSI)
100
AcDbLine
 10
8.993392636732059
 20
8.258957887217695
 30
0.0
 11
8.993392636732059
 21
7.897675043321393
 31
0.0
  0
LINE
  5
165
330
6C
100
AcDbEntity
  8
Visible (ANSI)
100
AcDbLine
 10
8.993392636732059
 20
7.845772724928843
 30
0.0
 11
8.993392636732059
 21
7.897675043321392
 31
0.0
  0
LINE
  5
166
330
6C
100
AcDbEntity
  8
Visible (ANSI)
100
AcDbLine
 10
8.993392636732059
 20
7.482557887216307
 30
0.0
 11
8.993392636732059
 21
7.845772724928842
 31
0.0
  0
LINE
  5
167
330
6C
100
AcDbEntity
  8
Visible (ANSI)
100
AcDbLine
 10
8.993392636732059
 20
7.383957887216307
 30
0.0
 11
8.993392636732059
 21
7.482557887216307
 31
0.0
  0
LINE
  5
168
330
6C
100
AcDbEntity
  8
Visible (ANSI)
100
AcDbLine
 10
8.993392636732059
 20
7.020743049503742
 30
0.0
 11
8.993392636732059
 21
7.383957887216307
 31
0.0
  0
LINE
  5
169
330
6C
100
AcDbEntity
  8
Visible (ANSI)
100
AcDbLine
 10
8.993392636732059
 20
6.968840731111208
 30
0.0
 11
8.993392636732059
 21
7.020743049503787
 31
0.0
  0
LINE
  5
16A
330
6C
100
AcDbEntity
  8
Visible (ANSI)
100
AcDbLine
 10
8.993392636732059
 20
6.968840731111206
 30
0.0
 11
8.993392636732059
 21
6.607557887216307
 31
0.0
  0
LINE
  5
16B
330
6C
100
AcDbEntity
  8
Visible (ANSI)
100
AcDbLine
 10
8.993392636732059
 20
6.508957887216308
 30
0.0
 11
8.993392636732059
 21
6.607557887216307
 31
0.0
  0
LINE
  5
16C
330
6C
100
AcDbEntity
  8
Visible (ANSI)
100
AcDbLine
 10
8.993392636732059
 20
6.508957887216307
 30
0.0
 11
8.993392636732059
 21
6.147675043321407
 31
0.0
  0
LINE
  5
16D
330
6C
100
AcDbEntity
  8
Visible (ANSI)
100
AcDbLine
 10
8.993392636732059
 20
6.095772724928828
 30
0.0
 11
8.993392636732059
 21
6.147675043321408
 31
0.0
  0
LINE
  5
16E
330
6C
100
AcDbEntity
  8
Visible (ANSI)
100
AcDbLine
 10
8.993392636732059
 20
5.732038608591007
 30
0.0
 11
8.993392636732059
 21
6.095772724928826
 31
0.0
  0
LINE
  5
16F
330
6C
100
AcDbEntity
  8
Visible (ANSI)
100
AcDbLine
 10
8.993392636732059
 20
5.370257887216355
 30
0.0
 11
8.993392636732059
 21
5.732038608591007
 31
0.0
  0
LINE
  5
170
330
6C
100
AcDbEntity
  8
Visible (ANSI)
100
AcDbLine
 10
8.993392636732059
 20
5.245236090069653
 30
0.0
 11
8.993392636732059
 21
5.370257887216355
 31
0.0
  0
LINE
  5
171
330
6C
100
AcDbEntity
  8
Visible (ANSI)
100
AcDbLine
 10
8.993392636732059
 20
5.206489150167223
 30
0.0
 11
8.993392636732059
 21
5.245236090069653
 31
0.0
  0
LINE
  5
172
330
6C
100
AcDbEntity
  8
Visible (ANSI)
100
AcDbLine
 10
8.993392636732059
 20
4.74031065329458
 30
0.0
 11
8.993392636732059
 21
5.206489150167223
 31
0.0
  0
LINE
  5
173
330
6C
100
AcDbEntity
  8
Visible (ANSI)
100
AcDbLine
 10
8.993392636732059
 20
4.740310653294579
 30
0.0
 11
8.993392636732059
 21
4.683257887216307
 31
0.0
  0
LINE
  5
174
330
6C
100
AcDbEntity
  8
Visible (ANSI)
100
AcDbLine
 10
8.99339263673206
 20
4.679980740701054
 30
0.0
 11
8.99339263673206
 21
4.683257887216307
 31
0.0
  0
LINE
  5
175
330
6C
100
AcDbEntity
  8
Visible (ANSI)
100
AcDbLine
 10
7.34435715819339
 20
4.680161544834199
 30
0.0
 11
7.37347715819339
 21
4.680161544834199
 31
0.0
  0
LINE
  5
176
330
6C
100
AcDbEntity
  8
Visible (ANSI)
100
AcDbLine
 10
7.32147715819339
 20
4.680161544834199
 30
0.0
 11
7.34435715819339
 21
4.680161544834199
 31
0.0
  0
LINE
  5
177
330
6C
100
AcDbEntity
  8
Visible Narrow (ANSI)
100
AcDbLine
 10
7.28247715819339
 20
4.564370827879742
 30
0.0
 11
7.28247715819339
 21
5.43101113597534
 31
0.0
  0
LINE
  5
178
330
6C
100
AcDbEntity
  8
Visible Narrow (ANSI)
100
AcDbLine
 10
7.28247715819339
 20
5.935504638457265
 30
0.0
 11
7.28247715819339
 21
7.18101113597534
 31
0.0
  0
LINE
  5
179
330
6C
100
AcDbEntity
  8
Visible Narrow (ANSI)
100
AcDbLine
 10
7.28247715819339
 20
7.685504638457265
 30
0.0
 11
7.28247715819339
 21
8.745665478988755
 31
0.0
  0
LINE
  5
17A
330
6C
100
AcDbEntity
  8
Visible (ANSI)
100
AcDbLine
 10
6.720131857396549
 20
6.206257778429891
 30
0.0
 11
6.798995466370127
 21
6.206257778429891
 31
0.0
  0
ARC
  5
17B
330
6C
100
AcDbEntity
  8
Visible (ANSI)
100
AcDbCircle
 10
6.798995466370127
 20
6.120757778429891
 30
0.0
 40
0.0855000000000001
100
AcDbArc
 50
270.0
 51
90.0
  0
LINE
  5
17C
330
6C
100
AcDbEntity
  8
Visible (ANSI)
100
AcDbLine
 10
6.798995466370127
 20
6.035257778429891
 30
0.0
 11
6.720131857396549
 21
6.035257778429891
 31
0.0
  0
ARC
  5
17D
330
6C
100
AcDbEntity
  8
Visible (ANSI)
100
AcDbCircle
 10
6.720131857396549
 20
6.120757778429891
 30
0.0
 40
0.0855000000000001
100
AcDbArc
 50
90.0
 51
270.0
  0
ARC
  5
17E
330
6C
100
AcDbEntity
  8
Visible (ANSI)
100
AcDbCircle
 10
6.720131857396549
 20
7.683257887216308
 30
0.0
 40
0.0854999999999998
100
AcDbArc
 50
90.0
 51
270.0
  0
LINE
  5
17F
330
6C
100
AcDbEntity
  8
Visible (ANSI)
100
AcDbLine
 10
6.720131857396549
 20
7.768757887216307
 30
0.0
 11
6.798995466370127
 21
7.768757887216307
 31
0.0
  0
ARC
  5
180
330
6C
100
AcDbEntity
  8
Visible (ANSI)
100
AcDbCircle
 10
6.798995466370127
 20
7.683257887216308
 30
0.0
 40
0.0854999999999998
100
AcDbArc
 50
270.0
 51
90.0
  0
LINE
  5
181
330
6C
100
AcDbEntity
  8
Visible (ANSI)
100
AcDbLine
 10
6.798995466370127
 20
7.597757887216308
 30
0.0
 11
6.720131857396549
 21
7.59775788721631
 31
0.0
  0
LINE
  5
182
330
6C
100
AcDbEntity
  8
Visible (ANSI)
100
AcDbLine
 10
6.626289444190197
 20
8.745665478987676
 30
0.0
 11
7.28247715819339
 21
8.745665478988755
 31
0.0
  0
LINE
  5
183
330
6C
100
AcDbEntity
  8
Visible (ANSI)
100
AcDbLine
 10
6.407631857396906
 20
8.527007892195916
 30
0.0
 11
6.626289444190197
 21
8.745665478987676
 31
0.0
  0
LINE
  5
184
330
6C
100
AcDbEntity
  8
Visible (ANSI)
100
AcDbLine
 10
6.407631857396908
 20
7.433257892195926
 30
0.0
 11
6.407631857396906
 21
8.527007892195916
 31
0.0
  0
ARC
  5
185
330
6C
100
AcDbEntity
  8
Visible (ANSI)
100
AcDbCircle
 10
6.407631857396908
 20
7.245757892195926
 30
0.0
 40
0.1875000000000001
100
AcDbArc
 50
270.0
 51
90.0
  0
LINE
  5
186
330
6C
100
AcDbEntity
  8
Visible (ANSI)
100
AcDbLine
 10
6.407631857396908
 20
5.245757842857586
 30
0.0
 11
6.407631857396908
 21
7.058257892195926
 31
0.0
  0
ARC
  5
187
330
6C
100
AcDbEntity
  8
Visible (ANSI)
100
AcDbCircle
 10
6.407631857396912
 20
5.160257387688416
 30
0.0
 40
0.08550045516917
100
AcDbArc
 50
0.0
 51
90.00000000000188
  0
LINE
  5
188
330
6C
100
AcDbEntity
  8
Visible (ANSI)
100
AcDbLine
 10
6.493132312566078
 20
5.110315750757434
 30
0.0
 11
6.493132312566082
 21
5.160257387688417
 31
0.0
  0
ARC
  5
189
330
6C
100
AcDbEntity
  8
Visible (ANSI)
100
AcDbCircle
 10
6.407631857396912
 20
5.110315750757434
 30
0.0
 40
0.0855004551691701
100
AcDbArc
 50
269.7961075238967
 51
0.0
  0
LINE
  5
18A
330
6C
100
AcDbEntity
  8
Visible (ANSI)
100
AcDbLine
 10
6.407327596544424
 20
3.525289075819395
 30
0.0
 11
6.407327596544424
 21
5.024815836959414
 31
0.0
  0
LINE
  5
18B
330
6C
100
AcDbEntity
  8
Visible (ANSI)
100
AcDbLine
 10
7.331077596544436
 20
3.683257887216307
 30
0.0
 11
7.331077596544436
 21
3.525289075819395
 31
0.0
  0
ARC
  5
18C
330
6C
100
AcDbEntity
  8
Visible (ANSI)
100
AcDbCircle
 10
7.081077596544524
 20
3.68325788721618
 30
0.0
 40
0.2499999999999118
100
AcDbArc
 50
0.0
 51
5.000000000030791
  0
LINE
  5
18D
330
6C
100
AcDbEntity
  8
Visible (ANSI)
100
AcDbLine
 10
7.283278922021487
 20
4.240514472743265
 30
0.0
 11
7.330126271067361
 21
3.705046822903221
 31
0.0
  0
ARC
  5
18E
330
6C
100
AcDbEntity
  8
Visible (ANSI)
100
AcDbCircle
 10
7.532327596544488
 20
4.262303408430181
 30
0.0
 40
0.2500000000000651
100
AcDbArc
 50
180.0
 51
184.9999999999989
  0
LINE
  5
18F
330
6C
100
AcDbEntity
  8
Visible (ANSI)
100
AcDbLine
 10
7.282327596544424
 20
4.558257887216307
 30
0.0
 11
7.282327596544424
 21
4.262303408430178
 31
0.0
  0
ARC
  5
190
330
6C
100
AcDbEntity
  8
Visible (ANSI)
100
AcDbCircle
 10
7.407327596544049
 20
4.558257887216315
 30
0.0
 40
0.1249999999996245
100
AcDbArc
 50
177.1969163505308
 51
180.0
  0
LINE
  5
191
330
6C
100
AcDbEntity
  8
Visible (ANSI)
100
AcDbLine
 10
9.031392636732059
 20
8.745665478991622
 30
0.0
 11
9.689106204309513
 21
8.745665478992698
 31
0.0
  0
ARC
  5
192
330
6C
100
AcDbEntity
  8
Visible (ANSI)
100
AcDbCircle
 10
9.515827596544413
 20
8.058257887216308
 30
0.0
 40
0.0854999999999998
100
AcDbArc
 50
90.0
 51
270.0
  0
LINE
  5
193
330
6C
100
AcDbEntity
  8
Visible (ANSI)
100
AcDbLine
 10
9.515827596544413
 20
8.143757887216308
 30
0.0
 11
9.594827596544421
 21
8.143757887216308
 31
0.0
  0
ARC
  5
194
330
6C
100
AcDbEntity
  8
Visible (ANSI)
100
AcDbCircle
 10
9.594827596544421
 20
8.058257887216308
 30
0.0
 40
0.0854999999999998
100
AcDbArc
 50
270.0
 51
90.0
  0
LINE
  5
195
330
6C
100
AcDbEntity
  8
Visible (ANSI)
100
AcDbLine
 10
9.594827596544421
 20
7.972757887216308
 30
0.0
 11
9.515827596544413
 21
7.972757887216308
 31
0.0
  0
ARC
  5
196
330
6C
100
AcDbEntity
  8
Visible (ANSI)
100
AcDbCircle
 10
9.515827596544413
 20
6.80825788721631
 30
0.0
 40
0.0854999999999998
100
AcDbArc
 50
90.0
 51
270.0
  0
LINE
  5
197
330
6C
100
AcDbEntity
  8
Visible (ANSI)
100
AcDbLine
 10
9.515827596544413
 20
6.89375788721631
 30
0.0
 11
9.594827596544421
 21
6.89375788721631
 31
0.0
  0
ARC
  5
198
330
6C
100
AcDbEntity
  8
Visible (ANSI)
100
AcDbCircle
 10
9.594827596544421
 20
6.80825788721631
 30
0.0
 40
0.0854999999999844
100
AcDbArc
 50
270.0
 51
90.0
  0
LINE
  5
199
330
6C
100
AcDbEntity
  8
Visible (ANSI)
100
AcDbLine
 10
9.594827596544421
 20
6.72275788721631
 30
0.0
 11
9.515827596544413
 21
6.72275788721631
 31
0.0
  0
ARC
  5
19A
330
6C
100
AcDbEntity
  8
Visible (ANSI)
100
AcDbCircle
 10
8.907327596544442
 20
4.558257887216307
 30
0.0
 40
0.1249999999999807
100
AcDbArc
 50
0.0
 51
7.012133345802534
  0
LINE
  5
19B
330
6C
100
AcDbEntity
  8
Visible (ANSI)
100
AcDbLine
 10
9.032327596544423
 20
4.262303408430178
 30
0.0
 11
9.032327596544423
 21
4.558257887216307
 31
0.0
  0
ARC
  5
19C
330
6C
100
AcDbEntity
  8
Visible (ANSI)
100
AcDbCircle
 10
8.782327596544408
 20
4.262303408430179
 30
0.0
 40
0.2500000000000146
100
AcDbArc
 50
355.0000000000002
 51
0.0
  0
LINE
  5
19D
330
6C
100
AcDbEntity
  8
Visible (ANSI)
100
AcDbLine
 10
8.984528922021485
 20
3.705046822903221
 30
0.0
 11
9.031376271067358
 21
4.240514472743265
 31
0.0
  0
ARC
  5
19E
330
6C
100
AcDbEntity
  8
Visible (ANSI)
100
AcDbCircle
 10
9.233577596544414
 20
3.683257887216174
 30
0.0
 40
0.2500000000000035
100
AcDbArc
 50
174.9999999999698
 51
180.0
  0
LINE
  5
19F
330
6C
100
AcDbEntity
  8
Visible (ANSI)
100
AcDbLine
 10
8.983577596544428
 20
3.525289075819395
 30
0.0
 11
8.98357759654441
 21
3.683257887216307
 31
0.0
  0
LINE
  5
1A0
330
6C
100
AcDbEntity
  8
Visible (ANSI)
100
AcDbLine
 10
9.907327596544424
 20
5.024815836959414
 30
0.0
 11
9.907327596544424
 21
3.525289075819395
 31
0.0
  0
ARC
  5
1A1
330
6C
100
AcDbEntity
  8
Visible (ANSI)
100
AcDbCircle
 10
9.907327596544423
 20
5.110316292128584
 30
0.0
 40
0.0855004551691693
100
AcDbArc
 50
180.0
 51
270.0
  0
LINE
  5
1A2
330
6C
100
AcDbEntity
  8
Visible (ANSI)
100
AcDbLine
 10
9.821827141375253
 20
5.160257387688417
 30
0.0
 11
9.821827141375253
 21
5.110316292128585
 31
0.0
  0
ARC
  5
1A3
330
6C
100
AcDbEntity
  8
Visible (ANSI)
100
AcDbCircle
 10
9.907327596544423
 20
5.160257387688417
 30
0.0
 40
0.0855004551691697
100
AcDbArc
 50
90.00000000004122
 51
180.0
  0
LINE
  5
1A4
330
6C
100
AcDbEntity
  8
Visible (ANSI)
100
AcDbLine
 10
9.907327596544361
 20
7.058257889651342
 30
0.0
 11
9.907327596544362
 21
5.245757842857586
 31
0.0
  0
ARC
  5
1A5
330
6C
100
AcDbEntity
  8
Visible (ANSI)
100
AcDbCircle
 10
9.907327596544361
 20
7.245757889651342
 30
0.0
 40
0.1875000000000001
100
AcDbArc
 50
90.0
 51
270.0
  0
LINE
  5
1A6
330
6C
100
AcDbEntity
  8
Visible (ANSI)
100
AcDbLine
 10
9.907327596544481
 20
8.52744408675235
 30
0.0
 11
9.907327596544361
 21
7.433257889651343
 31
0.0
  0
LINE
  5
1A7
330
6C
100
AcDbEntity
  8
Visible (ANSI)
100
AcDbLine
 10
9.689106204309513
 20
8.745665478992698
 30
0.0
 11
9.907327596544481
 21
8.52744408675235
 31
0.0
  0
LINE
  5
1A8
330
6C
100
AcDbEntity
  8
Visible (ANSI)
100
AcDbLine
 10
9.376577596544423
 20
2.456341206594346
 30
0.0
 11
9.907327596544424
 21
2.831638130709105
 31
0.0
  0
LINE
  5
1A9
330
6C
100
AcDbEntity
  8
Visible (ANSI)
100
AcDbLine
 10
9.024076134543619
 20
2.456341206594346
 30
0.0
 11
9.376577596544423
 21
2.456341206594346
 31
0.0
  0
ELLIPSE
  5
1AA
330
6C
100
AcDbEntity
  8
Visible (ANSI)
100
AcDbEllipse
 10
8.938577596544424
 20
2.455987653203752
 30
0.0
 11
-0.0855000000000006
 21
-0.0000000000000002
 31
0.0
210
0.0
220
0.0
230
1.0
 40
0.7071067811865446
 41
4.795063415280253
 42
5.974198515998638
  0
ELLIPSE
  5
1AB
330
6C
100
AcDbEntity
  8
Visible (ANSI)
100
AcDbEllipse
 10
8.938577596544424
 20
2.455987653203753
 30
0.0
 11
0.085499999999999
 21
0.0000000000000001
 31
0.0
210
0.0
220
0.0
230
1.0
 40
0.7071067811865485
 41
0.0058479865487975
 42
1.01736804225189
  0
LINE
  5
1AC
330
6C
100
AcDbEntity
  8
Visible (ANSI)
100
AcDbLine
 10
7.435138211019626
 20
1.969851741138001
 30
0.0
 11
8.879516982069223
 21
1.969851741138001
 31
0.0
  0
ELLIPSE
  5
1AD
330
6C
100
AcDbEntity
  8
Visible (ANSI)
100
AcDbEllipse
 10
7.376077596544425
 20
2.455987653203752
 30
0.0
 11
-0.085500000000001
 21
0.0
 31
0.0
210
0.0
220
0.0
230
1.0
 40
0.7071067811865476
 41
5.265817264927679
 42
6.277337320630769
  0
ELLIPSE
  5
1AE
330
6C
100
AcDbEntity
  8
Visible (ANSI)
100
AcDbEllipse
 10
7.376077596544424
 20
2.455987653203753
 30
0.0
 11
0.0854999999999997
 21
0.0
 31
0.0
210
0.0
220
0.0
230
1.0
 40
0.7071067811865485
 41
0.3089867911809367
 42
1.488121891899312
  0
LINE
  5
1AF
330
6C
100
AcDbEntity
  8
Visible (ANSI)
100
AcDbLine
 10
6.938077596544424
 20
2.456341206594346
 30
0.0
 11
7.290579058545228
 21
2.456341206594346
 31
0.0
  0
LINE
  5
1B0
330
6C
100
AcDbEntity
  8
Visible (ANSI)
100
AcDbLine
 10
6.407327596544424
 20
2.831638130709105
 30
0.0
 11
6.938077596544424
 21
2.456341206594346
 31
0.0
  0
ELLIPSE
  5
1B1
330
6C
100
AcDbEntity
  8
Visible (ANSI)
100
AcDbEllipse
 10
8.157327596544424
 20
2.235016784082956
 30
0.0
 11
0.0855
 21
-0.0000000000000001
 31
0.0
210
0.0
220
0.0
230
1.0
 40
0.7071067811865461
 41
0.3089867911809396
 42
2.832605862408856
  0
LINE
  5
1B2
330
6C
100
AcDbEntity
  8
Visible (ANSI)
100
AcDbLine
 10
9.907327596544424
 20
3.488519523197695
 30
0.0
 11
9.907327596544424
 21
2.868407683330806
 31
0.0
  0
LINE
  5
1B3
330
6C
100
AcDbEntity
  8
Visible (ANSI)
100
AcDbLine
 10
9.907327596544424
 20
2.831638130709105
 30
0.0
 11
9.907327596544424
 21
2.868407683330806
 31
0.0
  0
LINE
  5
1B4
330
6C
100
AcDbEntity
  8
Visible (ANSI)
100
AcDbLine
 10
8.879516982069223
 20
2.006621293759701
 30
0.0
 11
7.435138211019626
 21
2.006621293759701
 31
0.0
  0
LINE
  5
1B5
330
6C
100
AcDbEntity
  8
Visible Narrow (ANSI)
100
AcDbLine
 10
7.435138211019626
 20
2.006621293759701
 30
0.0
 11
7.435138211019626
 21
1.969851741138001
 31
0.0
  0
LINE
  5
1B6
330
6C
100
AcDbEntity
  8
Visible Narrow (ANSI)
100
AcDbLine
 10
7.331138211019625
 20
2.043390846381401
 30
0.0
 11
7.383138211019624
 21
2.043390846381401
 31
0.0
  0
LINE
  5
1B7
330
6C
100
AcDbEntity
  8
Visible Narrow (ANSI)
100
AcDbLine
 10
7.435138211019626
 20
2.449041683308779
 30
0.0
 11
7.435138211019626
 21
2.006621293759701
 31
0.0
  0
ELLIPSE
  5
1B8
330
6C
100
AcDbEntity
  8
Visible (ANSI)
100
AcDbEllipse
 10
7.376077596544424
 20
2.492757205825453
 30
0.0
 11
0.0855000000000001
 21
0.0000000000000001
 31
0.0
210
0.0
220
0.0
230
1.0
 40
0.7071067811865469
 41
5.474938822285903
 42
7.771307199078897
  0
ELLIPSE
  5
1B9
330
6C
100
AcDbEntity
  8
Visible (ANSI)
100
AcDbEllipse
 10
7.376077596544425
 20
2.492757205825452
 30
0.0
 11
-0.085500000000001
 21
0.0
 31
0.0
210
0.0
220
0.0
230
0.9999999999999998
 40
0.7071067811865478
 41
5.265817264927679
 42
6.277337320630769
  0
LINE
  5
1BA
330
6C
100
AcDbEntity
  8
Visible (ANSI)
100
AcDbLine
 10
7.290579058545228
 20
2.456341206594346
 30
0.0
 11
7.290579058545228
 21
2.493110759216046
 31
0.0
  0
ELLIPSE
  5
1BB
330
6C
100
AcDbEntity
  8
Visible (ANSI)
100
AcDbEllipse
 10
8.157327596544424
 20
2.271786336704657
 30
0.0
 11
0.0855
 21
0.0
 31
0.0
210
0.0
220
0.0
230
1.0
 40
0.7071067811865474
 41
0.0
 42
6.283185307179586
  0
LINE
  5
1BC
330
6C
100
AcDbEntity
  8
Visible (ANSI)
100
AcDbLine
 10
6.407327596544424
 20
2.831638130709105
 30
0.0
 11
6.407327596544424
 21
2.868407683330806
 31
0.0
  0
LINE
  5
1BD
330
6C
100
AcDbEntity
  8
Visible (ANSI)
100
AcDbLine
 10
6.407327596544424
 20
2.868407683330806
 30
0.0
 11
6.407327596544424
 21
3.488519523197695
 31
0.0
  0
LINE
  5
1BE
330
6C
100
AcDbEntity
  8
Visible (ANSI)
100
AcDbLine
 10
7.331077596544436
 20
3.488519523197695
 30
0.0
 11
7.331077596544436
 21
3.465029029956956
 31
0.0
  0
ELLIPSE
  5
1BF
330
6C
100
AcDbEntity
  8
Visible (ANSI)
100
AcDbEllipse
 10
7.456077596544436
 20
3.465029029956955
 30
0.0
 11
-0.125
 21
0.0
 31
0.0
210
0.0
220
0.0
230
1.0
 40
0.7071067811865478
 41
0.0000000000000001
 42
1.570796326794672
  0
LINE
  5
1C0
330
6C
100
AcDbEntity
  8
Visible (ANSI)
100
AcDbLine
 10
7.456077596544408
 20
3.376640682308637
 30
0.0
 11
8.858577596544439
 21
3.376640682308637
 31
0.0
  0
ELLIPSE
  5
1C1
330
6C
100
AcDbEntity
  8
Visible (ANSI)
100
AcDbEllipse
 10
8.858577596544439
 20
3.465029029956956
 30
0.0
 11
0.125
 21
0.0000000000000001
 31
0.0
210
0.0
220
0.0
230
1.0
 40
0.7071067811865475
 41
4.712388980384689
 42
6.283185307179584
  0
LINE
  5
1C2
330
6C
100
AcDbEntity
  8
Visible (ANSI)
100
AcDbLine
 10
8.983577596544439
 20
3.465029029956956
 30
0.0
 11
8.983577596544435
 21
3.488519523197695
 31
0.0
  0
LINE
  5
1C3
330
6C
100
AcDbEntity
  8
Visible (ANSI)
100
AcDbLine
 10
9.907327596544424
 20
2.868407683330806
 30
0.0
 11
9.376577596544423
 21
2.493110759216046
 31
0.0
  0
LINE
  5
1C4
330
6C
100
AcDbEntity
  8
Visible (ANSI)
100
AcDbLine
 10
9.376577596544423
 20
2.456341206594346
 30
0.0
 11
9.376577596544423
 21
2.493110759216046
 31
0.0
  0
LINE
  5
1C5
330
6C
100
AcDbEntity
  8
Visible (ANSI)
100
AcDbLine
 10
9.376577596544423
 20
2.493110759216046
 30
0.0
 11
9.024076134543619
 21
2.493110759216046
 31
0.0
  0
LINE
  5
1C6
330
6C
100
AcDbEntity
  8
Visible (ANSI)
100
AcDbLine
 10
9.024076134543619
 20
2.456341206594346
 30
0.0
 11
9.024076134543619
 21
2.493110759216046
 31
0.0
  0
ELLIPSE
  5
1C7
330
6C
100
AcDbEntity
  8
Visible (ANSI)
100
AcDbEllipse
 10
8.938577596544424
 20
2.492757205825453
 30
0.0
 11
0.0854999999999994
 21
0.0
 31
0.0
210
0.0
220
0.0
230
0.9999999999999998
 40
0.7071067811865478
 41
0.0058479865488114
 42
1.017368042251895
  0
ELLIPSE
  5
1C8
330
6C
100
AcDbEntity
  8
Visible (ANSI)
100
AcDbEllipse
 10
8.938577596544423
 20
2.492757205825453
 30
0.0
 11
-0.0854999999999999
 21
-0.0000000000000001
 31
0.0
210
0.0
220
0.0
230
1.0
 40
0.7071067811865466
 41
4.795063415280256
 42
7.091431792073286
  0
LINE
  5
1C9
330
6C
100
AcDbEntity
  8
Visible (ANSI)
100
AcDbLine
 10
7.290579058545228
 20
2.493110759216046
 30
0.0
 11
6.938077596544424
 21
2.493110759216046
 31
0.0
  0
LINE
  5
1CA
330
6C
100
AcDbEntity
  8
Visible (ANSI)
100
AcDbLine
 10
6.938077596544424
 20
2.456341206594346
 30
0.0
 11
6.938077596544424
 21
2.493110759216046
 31
0.0
  0
LINE
  5
1CB
330
6C
100
AcDbEntity
  8
Visible (ANSI)
100
AcDbLine
 10
6.938077596544424
 20
2.493110759216046
 30
0.0
 11
6.407327596544424
 21
2.868407683330806
 31
0.0
  0
LINE
  5
1CC
330
6C
100
AcDbEntity
  8
Visible (ANSI)
100
AcDbLine
 10
7.331138211019625
 20
2.797477367610402
 30
0.0
 11
7.383138211019624
 21
2.797477367610402
 31
0.0
  0
LINE
  5
1CD
330
6C
100
AcDbEntity
  8
Visible (ANSI)
100
AcDbLine
 10
7.383138211019624
 20
2.488118150841288
 30
0.0
 11
7.383138211019624
 21
2.797477367610402
 31
0.0
  0
LINE
  5
1CE
330
6C
100
AcDbEntity
  8
Visible (ANSI)
100
AcDbLine
 10
7.331138211019625
 20
2.797477367610402
 30
0.0
 11
7.331138211019625
 21
2.488118150841288
 31
0.0
  0
LINE
  5
1CF
330
6C
100
AcDbEntity
  8
Visible (ANSI)
100
AcDbLine
 10
7.331138211019625
 20
2.488118150841288
 30
0.0
 11
7.383138211019624
 21
2.488118150841288
 31
0.0
  0
LINE
  5
1D0
330
6C
100
AcDbEntity
  8
Visible (ANSI)
100
AcDbLine
 10
7.383138211019624
 20
2.311341455544651
 30
0.0
 11
7.383138211019624
 21
2.488118150841288
 31
0.0
  0
LINE
  5
1D1
330
6C
100
AcDbEntity
  8
Visible (ANSI)
100
AcDbLine
 10
7.331138211019625
 20
2.488118150841288
 30
0.0
 11
7.331138211019625
 21
2.311341455544651
 31
0.0
  0
LINE
  5
1D2
330
6C
100
AcDbEntity
  8
Visible (ANSI)
100
AcDbLine
 10
7.331138211019625
 20
2.311341455544651
 30
0.0
 11
7.383138211019624
 21
2.311341455544651
 31
0.0
  0
LINE
  5
1D3
330
6C
100
AcDbEntity
  8
Visible (ANSI)
100
AcDbLine
 10
7.383138211019624
 20
2.043390846381401
 30
0.0
 11
7.383138211019624
 21
2.311341455544651
 31
0.0
  0
LINE
  5
1D4
330
6C
100
AcDbEntity
  8
Visible (ANSI)
100
AcDbLine
 10
7.331138211019625
 20
2.311341455544651
 30
0.0
 11
7.331138211019625
 21
2.043390846381401
 31
0.0
  0
LINE
  5
1D5
330
6C
100
AcDbEntity
  8
Visible (ANSI)
100
AcDbLine
 10
8.931516982069222
 20
2.488118150841287
 30
0.0
 11
8.931516982069222
 21
2.31134145554465
 31
0.0
  0
LINE
  5
1D6
330
6C
100
AcDbEntity
  8
Visible (ANSI)
100
AcDbLine
 10
8.983516982069223
 20
2.31134145554465
 30
0.0
 11
8.931516982069222
 21
2.31134145554465
 31
0.0
  0
LINE
  5
1D7
330
6C
100
AcDbEntity
  8
Visible (ANSI)
100
AcDbLine
 10
8.983516982069223
 20
2.31134145554465
 30
0.0
 11
8.983516982069223
 21
2.488118150841287
 31
0.0
  0
LINE
  5
1D8
330
6C
100
AcDbEntity
  8
Visible (ANSI)
100
AcDbLine
 10
8.983516982069223
 20
2.488118150841287
 30
0.0
 11
8.931516982069222
 21
2.488118150841287
 31
0.0
  0
LINE
  5
1D9
330
6C
100
AcDbEntity
  8
Visible (ANSI)
100
AcDbLine
 10
8.931516982069222
 20
2.797477367610401
 30
0.0
 11
8.931516982069222
 21
2.488118150841287
 31
0.0
  0
LINE
  5
1DA
330
6C
100
AcDbEntity
  8
Visible (ANSI)
100
AcDbLine
 10
8.983516982069223
 20
2.488118150841287
 30
0.0
 11
8.983516982069223
 21
2.797477367610401
 31
0.0
  0
LINE
  5
1DB
330
6C
100
AcDbEntity
  8
Visible (ANSI)
100
AcDbLine
 10
8.983516982069223
 20
2.797477367610401
 30
0.0
 11
8.931516982069222
 21
2.797477367610401
 31
0.0
  0
LINE
  5
1DC
330
6C
100
AcDbEntity
  8
Visible (ANSI)
100
AcDbLine
 10
8.983516982069223
 20
2.043390846381402
 30
0.0
 11
8.983516982069223
 21
2.31134145554465
 31
0.0
  0
LINE
  5
1DD
330
6C
100
AcDbEntity
  8
Visible (ANSI)
100
AcDbLine
 10
8.931516982069222
 20
2.31134145554465
 30
0.0
 11
8.931516982069222
 21
2.043390846381402
 31
0.0
  0
LINE
  5
1DE
330
6C
100
AcDbEntity
  8
Visible (ANSI)
100
AcDbLine
 10
8.941392636732059
 20
8.745665478989932
 30
0.0
 11
8.993392636732059
 21
8.745665478989932
 31
0.0
  0
LINE
  5
1DF
330
6C
100
AcDbEntity
  8
Visible (ANSI)
100
AcDbLine
 10
8.941392636732059
 20
8.527851993915584
 30
0.0
 11
8.993392636732059
 21
8.527851993915584
 31
0.0
  0
LINE
  5
1E0
330
6C
100
AcDbEntity
  8
Visible Narrow (ANSI)
100
AcDbLine
 10
8.941392636732059
 20
8.258957887217695
 30
0.0
 11
8.993392636732059
 21
8.258957887217695
 31
0.0
  0
LINE
  5
1E1
330
6C
100
AcDbEntity
  8
Visible Narrow (ANSI)
100
AcDbLine
 10
8.941392636732059
 20
7.897675043321392
 30
0.0
 11
8.993392636732059
 21
7.897675043321392
 31
0.0
  0
LINE
  5
1E2
330
6C
100
AcDbEntity
  8
Visible Narrow (ANSI)
100
AcDbLine
 10
8.941392636732059
 20
7.845772724928843
 30
0.0
 11
8.993392636732059
 21
7.845772724928843
 31
0.0
  0
LINE
  5
1E3
330
6C
100
AcDbEntity
  8
Visible Narrow (ANSI)
100
AcDbLine
 10
8.941392636732059
 20
7.482557887216307
 30
0.0
 11
8.993392636732059
 21
7.482557887216307
 31
0.0
  0
LINE
  5
1E4
330
6C
100
AcDbEntity
  8
Visible Narrow (ANSI)
100
AcDbLine
 10
8.941392636732059
 20
7.383957887216307
 30
0.0
 11
8.993392636732059
 21
7.383957887216307
 31
0.0
  0
LINE
  5
1E5
330
6C
100
AcDbEntity
  8
Visible Narrow (ANSI)
100
AcDbLine
 10
8.941392636732059
 20
7.020743049503787
 30
0.0
 11
8.993392636732059
 21
7.020743049503787
 31
0.0
  0
LINE
  5
1E6
330
6C
100
AcDbEntity
  8
Visible Narrow (ANSI)
100
AcDbLine
 10
8.941392636732059
 20
6.968840731111208
 30
0.0
 11
8.993392636732059
 21
6.968840731111208
 31
0.0
  0
LINE
  5
1E7
330
6C
100
AcDbEntity
  8
Visible Narrow (ANSI)
100
AcDbLine
 10
8.941392636732059
 20
6.607557887216307
 30
0.0
 11
8.993392636732059
 21
6.607557887216307
 31
0.0
  0
LINE
  5
1E8
330
6C
100
AcDbEntity
  8
Visible Narrow (ANSI)
100
AcDbLine
 10
8.941392636732059
 20
6.508957887216308
 30
0.0
 11
8.993392636732059
 21
6.508957887216308
 31
0.0
  0
LINE
  5
1E9
330
6C
100
AcDbEntity
  8
Visible Narrow (ANSI)
100
AcDbLine
 10
8.941392636732059
 20
6.147675043321408
 30
0.0
 11
8.993392636732059
 21
6.147675043321408
 31
0.0
  0
LINE
  5
1EA
330
6C
100
AcDbEntity
  8
Visible Narrow (ANSI)
100
AcDbLine
 10
8.941392636732059
 20
6.095772724928828
 30
0.0
 11
8.993392636732059
 21
6.095772724928828
 31
0.0
  0
LINE
  5
1EB
330
6C
100
AcDbEntity
  8
Visible Narrow (ANSI)
100
AcDbLine
 10
8.941392636732059
 20
5.732038608591007
 30
0.0
 11
8.993392636732059
 21
5.732038608591007
 31
0.0
  0
LINE
  5
1EC
330
6C
100
AcDbEntity
  8
Visible (ANSI)
100
AcDbLine
 10
8.941392636732059
 20
5.370257887216355
 30
0.0
 11
8.993392636732059
 21
5.370257887216355
 31
0.0
  0
LINE
  5
1ED
330
6C
100
AcDbEntity
  8
Visible Narrow (ANSI)
100
AcDbLine
 10
8.941392636732059
 20
5.245236090069653
 30
0.0
 11
8.993392636732059
 21
5.245236090069653
 31
0.0
  0
LINE
  5
1EE
330
6C
100
AcDbEntity
  8
Visible Narrow (ANSI)
100
AcDbLine
 10
8.941392636732059
 20
5.206489150167223
 30
0.0
 11
8.993392636732059
 21
5.206489150167223
 31
0.0
  0
LINE
  5
1EF
330
6C
100
AcDbEntity
  8
Visible Narrow (ANSI)
100
AcDbLine
 10
8.941392636732059
 20
4.74031065329458
 30
0.0
 11
8.993392636732059
 21
4.74031065329458
 31
0.0
  0
LINE
  5
1F0
330
6C
100
AcDbEntity
  8
Visible (ANSI)
100
AcDbLine
 10
8.941392636732059
 20
4.683257887216307
 30
0.0
 11
8.993392636732059
 21
4.683257887216307
 31
0.0
  0
LINE
  5
1F1
330
6C
100
AcDbEntity
  8
Visible (ANSI)
100
AcDbLine
 10
7.37347715819339
 20
8.745665478989215
 30
0.0
 11
7.321477158193388
 21
8.745665478989215
 31
0.0
  0
LINE
  5
1F2
330
6C
100
AcDbEntity
  8
Visible (ANSI)
100
AcDbLine
 10
7.37347715819339
 20
8.52785199391584
 30
0.0
 11
7.321477158193388
 21
8.52785199391584
 31
0.0
  0
LINE
  5
1F3
330
6C
100
AcDbEntity
  8
Visible Narrow (ANSI)
100
AcDbLine
 10
7.37347715819339
 20
8.258957887216496
 30
0.0
 11
7.321477158193388
 21
8.258957887216496
 31
0.0
  0
LINE
  5
1F4
330
6C
100
AcDbEntity
  8
Visible Narrow (ANSI)
100
AcDbLine
 10
7.37347715819339
 20
7.895743049503774
 30
0.0
 11
7.321477158193388
 21
7.895743049503774
 31
0.0
  0
LINE
  5
1F5
330
6C
100
AcDbEntity
  8
Visible Narrow (ANSI)
100
AcDbLine
 10
7.37347715819339
 20
7.843840731111222
 30
0.0
 11
7.321477158193388
 21
7.843840731111222
 31
0.0
  0
LINE
  5
1F6
330
6C
100
AcDbEntity
  8
Visible Narrow (ANSI)
100
AcDbLine
 10
7.37347715819339
 20
7.482557887216307
 30
0.0
 11
7.32147715819339
 21
7.482557887216307
 31
0.0
  0
LINE
  5
1F7
330
6C
100
AcDbEntity
  8
Visible Narrow (ANSI)
100
AcDbLine
 10
7.37347715819339
 20
7.383957887216307
 30
0.0
 11
7.32147715819339
 21
7.383957887216307
 31
0.0
  0
LINE
  5
1F8
330
6C
100
AcDbEntity
  8
Visible Narrow (ANSI)
100
AcDbLine
 10
7.37347715819339
 20
7.022675043321409
 30
0.0
 11
7.32147715819339
 21
7.022675043321409
 31
0.0
  0
LINE
  5
1F9
330
6C
100
AcDbEntity
  8
Visible Narrow (ANSI)
100
AcDbLine
 10
7.37347715819339
 20
6.970772724928828
 30
0.0
 11
7.32147715819339
 21
6.970772724928828
 31
0.0
  0
LINE
  5
1FA
330
6C
100
AcDbEntity
  8
Visible Narrow (ANSI)
100
AcDbLine
 10
7.37347715819339
 20
6.607557887216307
 30
0.0
 11
7.32147715819339
 21
6.607557887216307
 31
0.0
  0
LINE
  5
1FB
330
6C
100
AcDbEntity
  8
Visible Narrow (ANSI)
100
AcDbLine
 10
7.37347715819339
 20
6.508957887216308
 30
0.0
 11
7.32147715819339
 21
6.508957887216308
 31
0.0
  0
LINE
  5
1FC
330
6C
100
AcDbEntity
  8
Visible Narrow (ANSI)
100
AcDbLine
 10
7.37347715819339
 20
6.145500906258009
 30
0.0
 11
7.32147715819339
 21
6.145500906258009
 31
0.0
  0
LINE
  5
1FD
330
6C
100
AcDbEntity
  8
Visible Narrow (ANSI)
100
AcDbLine
 10
7.37347715819339
 20
6.094564906794023
 30
0.0
 11
7.32147715819339
 21
6.094564906794023
 31
0.0
  0
LINE
  5
1FE
330
6C
100
AcDbEntity
  8
Visible Narrow (ANSI)
100
AcDbLine
 10
7.37347715819339
 20
5.732557887216254
 30
0.0
 11
7.32147715819339
 21
5.732557887216254
 31
0.0
  0
LINE
  5
1FF
330
6C
100
AcDbEntity
  8
Visible (ANSI)
100
AcDbLine
 10
7.37347715819339
 20
5.370257887216256
 30
0.0
 11
7.32147715819339
 21
5.370257887216256
 31
0.0
  0
LINE
  5
200
330
6C
100
AcDbEntity
  8
Visible (ANSI)
100
AcDbLine
 10
7.37347715819339
 20
5.245757887216306
 30
0.0
 11
7.32147715819339
 21
5.245757887216306
 31
0.0
  0
LINE
  5
201
330
6C
100
AcDbEntity
  8
Visible Narrow (ANSI)
100
AcDbLine
 10
7.37347715819339
 20
5.219106414488247
 30
0.0
 11
7.32147715819339
 21
5.219106414488247
 31
0.0
  0
LINE
  5
202
330
6C
100
AcDbEntity
  8
Visible Narrow (ANSI)
100
AcDbLine
 10
7.37347715819339
 20
4.70990935994437
 30
0.0
 11
7.32147715819339
 21
4.70990935994437
 31
0.0
  0
LINE
  5
203
330
6C
100
AcDbEntity
  8
Visible (ANSI)
100
AcDbLine
 10
7.37347715819339
 20
4.683257887216296
 30
0.0
 11
7.32147715819339
 21
4.683257887216296
 31
0.0
  0
SPLINE
  5
204
330
6C
100
AcDbEntity
  8
Visible (ANSI)
100
AcDbSpline
210
0.0
220
0.0
230
1.0
 70
     8
 71
     3
 72
    12
 73
     8
 74
     0
 42
0.0000000001
 43
0.0000000001
 40
0.2150237208386152
 40
0.2150237208386152
 40
0.2150237208386152
 40
0.2150237208386152
 40
0.275088130677916
 40
0.275088130677916
 40
0.3422257193795579
 40
0.3422257193795579
 40
0.359112393270005
 40
0.359112393270005
 40
0.359112393270005
 40
0.359112393270005
 10
7.307625866750471
 20
7.170132887216307
 30
0.0
 10
7.304603874822739
 20
7.170132887216307
 30
0.0
 10
7.300380538366456
 20
7.171452307046083
 30
0.0
 10
7.290713323276044
 20
7.176013060289887
 30
0.0
 10
7.284274844583368
 20
7.179812956469585
 30
0.0
 10
7.275363917454433
 20
7.185468466643454
 30
0.0
 10
7.273532011605957
 20
7.186647556180076
 30
0.0
 10
7.27167510324626
 20
7.187852902003903
 30
0.0
  0
SPLINE
  5
205
330
6C
100
AcDbEntity
  8
Visible (ANSI)
100
AcDbSpline
210
0.0
220
0.0
230
1.0
 70
     8
 71
     3
 72
    12
 73
     8
 74
     0
 42
0.0000000001
 43
0.0000000001
 40
2.466043470986131
 40
2.466043470986131
 40
2.466043470986131
 40
2.466043470986131
 40
2.486042468447033
 40
2.486042468447033
 40
2.556409122047473
 40
2.556409122047473
 40
2.610533610399087
 40
2.610533610399087
 40
2.610533610399087
 40
2.610533610399087
 10
7.271675103246292
 20
7.67866287242872
 30
0.0
 10
7.273866838028015
 20
7.680085558880797
 30
0.0
 10
7.27602369244363
 20
7.68147164262026
 30
0.0
 10
7.285498087232517
 20
7.687452072665586
 30
0.0
 10
7.292095658279705
 20
7.691279858664302
 30
0.0
 10
7.301204213915325
 20
7.695321303866123
 30
0.0
 10
7.304864775250667
 20
7.696382887216307
 30
0.0
 10
7.30762586675048
 20
7.696382887216307
 30
0.0
  0
LINE
  5
206
330
6C
100
AcDbEntity
  8
Visible (ANSI)
100
AcDbLine
 10
7.162330312367462
 20
7.52931220573402
 30
0.0
 11
7.205015044541662
 21
7.606382887216306
 31
0.0
  0
ELLIPSE
  5
207
330
6C
100
AcDbEntity
  8
Visible (ANSI)
100
AcDbEllipse
 10
7.232037449240861
 20
7.433257887216174
 30
0.0
 11
0.0
 21
-0.1459999999999999
 31
0.0
210
0.0
220
0.0
230
1.0
 40
0.6339745962155615
 41
3.994353728665634
 42
5.430424232103744
  0
LINE
  5
208
330
6C
100
AcDbEntity
  8
Visible (ANSI)
100
AcDbLine
 10
7.205015044541582
 20
7.260132887216307
 30
0.0
 11
7.162330312367463
 21
7.337203568698327
 31
0.0
  0
LINE
  5
209
330
6C
100
AcDbEntity
  8
Visible (ANSI)
100
AcDbLine
 10
7.187157511801855
 20
7.371414695841615
 30
0.0
 11
7.248789692881388
 21
7.260132887216307
 31
0.0
  0
LINE
  5
20A
330
6C
100
AcDbEntity
  8
Visible (ANSI)
100
AcDbLine
 10
7.248789692881437
 20
7.606382887216306
 30
0.0
 11
7.187157511801894
 21
7.495101078590805
 31
0.0
  0
ELLIPSE
  5
20B
330
6C
100
AcDbEntity
  8
Visible (ANSI)
100
AcDbEllipse
 10
7.232037449240861
 20
7.433257887216174
 30
0.0
 11
0.0
 21
-0.094
 31
0.0
210
0.0
220
0.0
230
1.0
 40
0.6339745962155616
 41
3.994353728663838
 42
5.430424232104535
  0
ELLIPSE
  5
20C
330
6C
100
AcDbEntity
  8
Visible (ANSI)
100
AcDbEllipse
 10
7.27089961722286
 20
7.606382887216306
 30
0.0
 11
0.0717872913680572
 21
0.0827067049141022
 31
0.0
210
0.0
220
0.0
230
1.0
 40
0.4943891428362592
 41
1.043650780137469
 42
1.976148980262993
  0
ELLIPSE
  5
20D
330
6C
100
AcDbEntity
  8
Visible (ANSI)
100
AcDbEllipse
 10
7.270899617222782
 20
7.260132887216307
 30
0.0
 11
0.0717872913681336
 21
-0.0827067049140993
 31
0.0
210
0.0
220
0.0
230
1.0
 40
0.494389142835828
 41
4.307036326916495
 42
5.239534527041805
  0
ELLIPSE
  5
20E
330
6C
100
AcDbEntity
  8
Visible (ANSI)
100
AcDbEllipse
 10
7.314674265562587
 20
7.260132887216307
 30
0.0
 11
0.0717872913681335
 21
-0.0827067049140993
 31
0.0
210
0.0
220
0.0
230
1.0
 40
0.4943891428358281
 41
4.307036326916495
 42
5.206784855405688
  0
ELLIPSE
  5
20F
330
6C
100
AcDbEntity
  8
Visible (ANSI)
100
AcDbEllipse
 10
7.314674265562636
 20
7.606382887216306
 30
0.0
 11
0.0717872913680572
 21
0.0827067049141022
 31
0.0
210
0.0
220
0.0
230
1.0
 40
0.4943891428362592
 41
1.076400451774013
 42
1.976148980262994
  0
LINE
  5
210
330
6C
100
AcDbEntity
  8
Visible Narrow (ANSI)
100
AcDbLine
 10
7.205015044541662
 20
7.606382887216306
 30
0.0
 11
7.248789692881437
 21
7.606382887216306
 31
0.0
  0
LINE
  5
211
330
6C
100
AcDbEntity
  8
Visible Narrow (ANSI)
100
AcDbLine
 10
7.248789692881388
 20
7.260132887216307
 30
0.0
 11
7.205015044541582
 21
7.260132887216307
 31
0.0
  0
LINE
  5
212
330
6C
100
AcDbEntity
  8
Visible Narrow (ANSI)
100
AcDbLine
 10
7.321477158193388
 20
7.371414695841615
 30
0.0
 11
7.187157511801855
 21
7.371414695841615
 31
0.0
  0
LINE
  5
213
330
6C
100
AcDbEntity
  8
Visible Narrow (ANSI)
100
AcDbLine
 10
7.321477158193388
 20
7.495101078590805
 30
0.0
 11
7.187157511801894
 21
7.495101078590805
 31
0.0
  0
LINE
  5
214
330
6C
100
AcDbEntity
  8
Visible (ANSI)
100
AcDbLine
 10
7.32147715819339
 20
7.189647536126609
 30
0.0
 11
7.312744302317108
 21
7.189647536126609
 31
0.0
  0
LINE
  5
215
330
6C
100
AcDbEntity
  8
Visible (ANSI)
100
AcDbLine
 10
7.321477158193388
 20
7.676868238305984
 30
0.0
 11
7.312744302317091
 21
7.676868238305984
 31
0.0
  0
ELLIPSE
  5
216
330
6C
100
AcDbEntity
  8
Visible (ANSI)
100
AcDbEllipse
 10
7.35371178638903
 20
7.606382887216306
 30
0.0
 11
0.000000000000001
 21
0.09
 31
0.0
210
0.0
220
0.0
230
0.9999999999999998
 40
0.7320508075688768
 41
0.5112400546956204
 42
0.6710477983060486
  0
LINE
  5
217
330
6C
100
AcDbEntity
  8
Visible (ANSI)
100
AcDbLine
 10
7.30762586675048
 20
7.696382887216307
 30
0.0
 11
7.321477158193388
 21
7.696382887216307
 31
0.0
  0
LINE
  5
218
330
6C
100
AcDbEntity
  8
Visible (ANSI)
100
AcDbLine
 10
7.307625866750469
 20
7.170132887216307
 30
0.0
 11
7.32147715819339
 21
7.170132887216307
 31
0.0
  0
ELLIPSE
  5
219
330
6C
100
AcDbEntity
  8
Visible (ANSI)
100
AcDbEllipse
 10
7.35371178638903
 20
7.260132887216307
 30
0.0
 11
0.0
 21
0.09
 31
0.0
210
0.0
220
0.0
230
0.9999999999999998
 40
0.7320508075688769
 41
2.470544855284099
 42
2.630352598894198
  0
SPLINE
  5
21A
330
6C
100
AcDbEntity
  8
Visible (ANSI)
100
AcDbSpline
210
0.0
220
0.0
230
1.0
 70
     8
 71
     3
 72
    12
 73
     8
 74
     0
 42
0.0000000001
 43
0.0000000001
 40
0.2150359196812374
 40
0.2150359196812374
 40
0.2150359196812374
 40
0.2150359196812374
 40
0.2751313054490047
 40
0.2751313054490047
 40
0.342284028160712
 40
0.342284028160712
 40
0.3592374510640837
 40
0.3592374510640837
 40
0.3592374510640837
 40
0.3592374510640837
 10
9.007223498464039
 20
6.821382887216308
 30
0.0
 10
9.010244627814756
 20
6.821382887216308
 30
0.0
 10
9.014467995475486
 20
6.820062213083642
 30
0.0
 10
9.024135453378779
 20
6.815497449279448
 30
0.0
 10
9.030573704154415
 20
6.811695060683696
 30
0.0
 10
9.039491409143636
 20
6.806031726240611
 30
0.0
 10
9.041330337209782
 20
6.804847336031584
 30
0.0
 10
9.043194406743253
 20
6.803636540807811
 30
0.0
  0
SPLINE
  5
21B
330
6C
100
AcDbEntity
  8
Visible (ANSI)
100
AcDbSpline
210
0.0
220
0.0
230
1.0
 70
     8
 71
     3
 72
    12
 73
     8
 74
     0
 42
0.0000000001
 43
0.0000000001
 40
2.468104024838319
 40
2.468104024838319
 40
2.468104024838319
 40
2.468104024838319
 40
2.488398773592427
 40
2.488398773592427
 40
2.558831865433243
 40
2.558831865433243
 40
2.613093010735829
 40
2.613093010735829
 40
2.613093010735829
 40
2.613093010735829
 10
9.043194406743255
 20
6.312969268866321
 30
0.0
 10
9.040971184212878
 20
6.311521950621634
 30
0.0
 10
9.038783526388082
 20
6.31011196079505
 30
0.0
 10
9.029280137595675
 20
6.304096651108875
 30
0.0
 10
9.022684044468048
 20
6.300257744154296
 30
0.0
 10
9.013574569626079
 20
6.296199542899356
 30
0.0
 10
9.00991294299999
 20
6.295132887217444
 30
0.0
 10
9.007154473214137
 20
6.295132887216309
 30
0.0
  0
LINE
  5
21C
330
6C
100
AcDbEntity
  8
Visible (ANSI)
100
AcDbLine
 10
9.15242869592536
 20
6.462329316097627
 30
0.0
 11
9.109674906518266
 21
6.385132887216308
 31
0.0
  0
ELLIPSE
  5
21D
330
6C
100
AcDbEntity
  8
Visible (ANSI)
100
AcDbEllipse
 10
9.043790333837067
 20
6.385132887216308
 30
0.0
 11
-0.0717866343523217
 21
-0.0827067297331838
 31
0.0
210
0.0
220
0.0
230
1.0
 40
0.4943928619663837
 41
1.045816943500156
 42
1.976148280953297
  0
ELLIPSE
  5
21E
330
6C
100
AcDbEntity
  8
Visible (ANSI)
100
AcDbEllipse
 10
9.082721145116158
 20
6.558382887216306
 30
0.0
 11
-0.0000000000000011
 21
0.1459999999999999
 31
0.0
210
0.0
220
0.0
230
1.0
 40
0.6339745962155604
 41
3.99436052611419
 42
5.43041743465514
  0
ELLIPSE
  5
21F
330
6C
100
AcDbEntity
  8
Visible (ANSI)
100
AcDbEllipse
 10
9.043928791632417
 20
6.731382887216308
 30
0.0
 11
-0.0717866343523201
 21
0.0827067297331836
 31
0.0
210
0.0
220
0.0
230
1.0
 40
0.494392861966401
 41
4.307037026226299
 42
5.239044353016145
  0
LINE
  5
220
330
6C
100
AcDbEntity
  8
Visible (ANSI)
100
AcDbLine
 10
9.109813364313616
 20
6.731382887216308
 30
0.0
 11
9.152428695925362
 21
6.654436458334981
 31
0.0
  0
ELLIPSE
  5
221
330
6C
100
AcDbEntity
  8
Visible (ANSI)
100
AcDbEllipse
 10
8.961117306303336
 20
6.385132887216308
 30
0.0
 11
-0.0000000000000005
 21
-0.09
 31
0.0
210
0.0
220
0.0
230
0.9999999999999998
 40
0.7320508075688734
 41
0.5119485474465355
 42
0.6754990000548453
  0
LINE
  5
222
330
6C
100
AcDbEntity
  8
Visible (ANSI)
100
AcDbLine
 10
9.007154473214137
 20
6.295132887216309
 30
0.0
 11
8.993392636732059
 21
6.295132887216309
 31
0.0
  0
LINE
  5
223
330
6C
100
AcDbEntity
  8
Visible Narrow (ANSI)
100
AcDbLine
 10
9.109674906518266
 20
6.385132887216308
 30
0.0
 11
9.06590051812012
 21
6.385132887216308
 31
0.0
  0
ELLIPSE
  5
224
330
6C
100
AcDbEntity
  8
Visible (ANSI)
100
AcDbEllipse
 10
9.000015945438921
 20
6.385132887216308
 30
0.0
 11
-0.0717866343523215
 21
-0.0827067297331838
 31
0.0
210
0.0
220
0.0
230
1.0
 40
0.4943928619663848
 41
1.080850954213221
 42
1.976148280953296
  0
LINE
  5
225
330
6C
100
AcDbEntity
  8
Visible (ANSI)
100
AcDbLine
 10
8.993392636732059
 20
6.314897334502658
 30
0.0
 11
9.002314060696889
 21
6.314897334502658
 31
0.0
  0
LINE
  5
226
330
6C
100
AcDbEntity
  8
Visible (ANSI)
100
AcDbLine
 10
9.06590051812012
 20
6.385132887216308
 30
0.0
 11
9.127601349061809
 21
6.496540177044007
 31
0.0
  0
LINE
  5
227
330
6C
100
AcDbEntity
  8
Visible Narrow (ANSI)
100
AcDbLine
 10
9.127601349061809
 20
6.496540177044007
 30
0.0
 11
8.993392636732059
 21
6.496540177044004
 31
0.0
  0
LINE
  5
228
330
6C
100
AcDbEntity
  8
Visible Narrow (ANSI)
100
AcDbLine
 10
9.06603897591547
 20
6.731382887216308
 30
0.0
 11
9.109813364313616
 21
6.731382887216308
 31
0.0
  0
LINE
  5
229
330
6C
100
AcDbEntity
  8
Visible (ANSI)
100
AcDbLine
 10
9.127601349061809
 20
6.620225597388604
 30
0.0
 11
9.06603897591547
 21
6.731382887216308
 31
0.0
  0
ELLIPSE
  5
22A
330
6C
100
AcDbEntity
  8
Visible (ANSI)
100
AcDbEllipse
 10
9.082721145116158
 20
6.558382887216306
 30
0.0
 11
-0.0000000000000007
 21
0.094
 31
0.0
210
0.0
220
0.0
230
1.0
 40
0.6339745962155602
 41
3.994360526114174
 42
5.430417434655111
  0
LINE
  5
22B
330
6C
100
AcDbEntity
  8
Visible (ANSI)
100
AcDbLine
 10
9.007223498464039
 20
6.821382887216307
 30
0.0
 11
8.993392636732059
 21
6.821382887216308
 31
0.0
  0
ELLIPSE
  5
22C
330
6C
100
AcDbEntity
  8
Visible (ANSI)
100
AcDbEllipse
 10
8.961117306303338
 20
6.731382887216308
 30
0.0
 11
-0.0000000000000004
 21
-0.09
 31
0.0
210
0.0
220
0.0
230
0.9999999999999998
 40
0.7320508075688733
 41
2.47054845812471
 42
2.629644106143288
  0
ELLIPSE
  5
22D
330
6C
100
AcDbEntity
  8
Visible (ANSI)
100
AcDbEllipse
 10
9.000154403234271
 20
6.731382887216308
 30
0.0
 11
-0.07178663435232
 21
0.0827067297331836
 31
0.0
210
0.0
220
0.0
230
0.9999999999999998
 40
0.494392861966402
 41
4.307037026226298
 42
5.206789157556112
  0
LINE
  5
22E
330
6C
100
AcDbEntity
  8
Visible Narrow (ANSI)
100
AcDbLine
 10
9.127601349061809
 20
6.620225597388604
 30
0.0
 11
8.993392636732059
 21
6.620225597388602
 31
0.0
  0
LINE
  5
22F
330
6C
100
AcDbEntity
  8
Visible (ANSI)
100
AcDbLine
 10
8.993392636732059
 20
6.801868439929961
 30
0.0
 11
9.002084604472532
 21
6.801868439929961
 31
0.0
  0
SPLINE
  5
230
330
6C
100
AcDbEntity
  8
Visible (ANSI)
100
AcDbSpline
210
0.0
220
0.0
230
1.0
 70
     8
 71
     3
 72
    12
 73
     8
 74
     0
 42
0.0000000001
 43
0.0000000001
 40
0.2150359196811882
 40
0.2150359196811882
 40
0.2150359196811882
 40
0.2150359196811882
 40
0.2751313054488063
 40
0.2751313054488063
 40
0.342284028160444
 40
0.342284028160444
 40
0.3592374510635031
 40
0.3592374510635031
 40
0.3592374510635031
 40
0.3592374510635031
 10
9.007223498464133
 20
8.571382887216309
 30
0.0
 10
9.010244627814856
 20
8.571382887216309
 30
0.0
 10
9.014467995475586
 20
8.570062213083646
 30
0.0
 10
9.024135453378876
 20
8.565497449279472
 30
0.0
 10
9.030573704154514
 20
8.561695060683733
 30
0.0
 10
9.039491409143703
 20
8.556031726240684
 30
0.0
 10
9.041330337209815
 20
8.554847336031681
 30
0.0
 10
9.043194406743255
 20
8.553636540807936
 30
0.0
  0
SPLINE
  5
231
330
6C
100
AcDbEntity
  8
Visible (ANSI)
100
AcDbSpline
210
0.0
220
0.0
230
1.0
 70
     8
 71
     3
 72
    12
 73
     8
 74
     0
 42
0.0000000001
 43
0.0000000001
 40
2.468104024836129
 40
2.468104024836129
 40
2.468104024836129
 40
2.468104024836129
 40
2.48839877358992
 40
2.48839877358992
 40
2.558831865430665
 40
2.558831865430665
 40
2.613093010733106
 40
2.613093010733106
 40
2.613093010733106
 40
2.613093010733106
 10
9.043194406743255
 20
8.062969268866197
 30
0.0
 10
9.040971184212912
 20
8.061521950621536
 30
0.0
 10
9.038783526388147
 20
8.060111960794978
 30
0.0
 10
9.029280137595772
 20
8.05409665110884
 30
0.0
 10
9.022684044468142
 20
8.050257744154272
 30
0.0
 10
9.013574569626177
 20
8.04619954289935
 30
0.0
 10
9.00991294300009
 20
8.045132887217445
 30
0.0
 10
9.007154473214233
 20
8.045132887216308
 30
0.0
  0
LINE
  5
232
330
6C
100
AcDbEntity
  8
Visible (ANSI)
100
AcDbLine
 10
9.152428695925552
 20
8.212329316097626
 30
0.0
 11
9.109674906518458
 21
8.135132887216308
 31
0.0
  0
ELLIPSE
  5
233
330
6C
100
AcDbEntity
  8
Visible (ANSI)
100
AcDbEllipse
 10
9.08272114511635
 20
8.308382887216305
 30
0.0
 11
-0.0000000000000011
 21
0.1459999999999999
 31
0.0
210
0.0
220
0.0
230
1.0
 40
0.6339745962155604
 41
3.99436052611419
 42
5.43041743465514
  0
LINE
  5
234
330
6C
100
AcDbEntity
  8
Visible (ANSI)
100
AcDbLine
 10
9.109813364313808
 20
8.481382887216307
 30
0.0
 11
9.152428695925554
 21
8.404436458334982
 31
0.0
  0
LINE
  5
235
330
6C
100
AcDbEntity
  8
Visible (ANSI)
100
AcDbLine
 10
9.127601349062
 20
8.370225597388605
 30
0.0
 11
9.066038975915661
 21
8.481382887216307
 31
0.0
  0
LINE
  5
236
330
6C
100
AcDbEntity
  8
Visible (ANSI)
100
AcDbLine
 10
9.065900518120312
 20
8.135132887216308
 30
0.0
 11
9.127601349062
 21
8.246540177044007
 31
0.0
  0
ELLIPSE
  5
237
330
6C
100
AcDbEntity
  8
Visible (ANSI)
100
AcDbEllipse
 10
9.08272114511635
 20
8.308382887216305
 30
0.0
 11
-0.0000000000000007
 21
0.094
 31
0.0
210
0.0
220
0.0
230
1.0
 40
0.6339745962155602
 41
3.994360526114174
 42
5.430417434655111
  0
ELLIPSE
  5
238
330
6C
100
AcDbEntity
  8
Visible (ANSI)
100
AcDbEllipse
 10
9.043790333837259
 20
8.135132887216308
 30
0.0
 11
-0.0717866343523217
 21
-0.0827067297331838
 31
0.0
210
0.0
220
0.0
230
1.0
 40
0.4943928619663837
 41
1.045816943497837
 42
1.976148280953297
  0
ELLIPSE
  5
239
330
6C
100
AcDbEntity
  8
Visible (ANSI)
100
AcDbEllipse
 10
9.043928791632609
 20
8.481382887216307
 30
0.0
 11
-0.0717866343523201
 21
0.0827067297331836
 31
0.0
210
0.0
220
0.0
230
1.0
 40
0.494392861966401
 41
4.307037026226299
 42
5.239044353018464
  0
ELLIPSE
  5
23A
330
6C
100
AcDbEntity
  8
Visible (ANSI)
100
AcDbEllipse
 10
9.000154403234461
 20
8.481382887216307
 30
0.0
 11
-0.07178663435232
 21
0.0827067297331836
 31
0.0
210
0.0
220
0.0
230
0.9999999999999998
 40
0.494392861966402
 41
4.307037026226298
 42
5.206789157556112
  0
ELLIPSE
  5
23B
330
6C
100
AcDbEntity
  8
Visible (ANSI)
100
AcDbEllipse
 10
9.000015945439113
 20
8.135132887216308
 30
0.0
 11
-0.0717866343523232
 21
-0.0827067297331834
 31
0.0
210
0.0
220
0.0
230
1.0
 40
0.4943928619663873
 41
1.080850954213214
 42
1.976148280953278
  0
ELLIPSE
  5
23C
330
6C
100
AcDbEntity
  8
Visible (ANSI)
100
AcDbEllipse
 10
8.961117306303528
 20
8.135132887216308
 30
0.0
 11
-0.0000000000000005
 21
-0.09
 31
0.0
210
0.0
220
0.0
230
0.9999999999999998
 40
0.7320508075688734
 41
0.5119485474432004
 42
0.6754990000548453
  0
LINE
  5
23D
330
6C
100
AcDbEntity
  8
Visible (ANSI)
100
AcDbLine
 10
9.007154473214233
 20
8.045132887216308
 30
0.0
 11
8.993392636732059
 21
8.045132887216308
 31
0.0
  0
LINE
  5
23E
330
6C
100
AcDbEntity
  8
Visible Narrow (ANSI)
100
AcDbLine
 10
9.109674906518458
 20
8.135132887216308
 30
0.0
 11
9.065900518120312
 21
8.135132887216308
 31
0.0
  0
LINE
  5
23F
330
6C
100
AcDbEntity
  8
Visible Narrow (ANSI)
100
AcDbLine
 10
9.066038975915661
 20
8.481382887216307
 30
0.0
 11
9.109813364313808
 21
8.481382887216307
 31
0.0
  0
LINE
  5
240
330
6C
100
AcDbEntity
  8
Visible (ANSI)
100
AcDbLine
 10
9.007223498464137
 20
8.571382887216309
 30
0.0
 11
8.993392636732059
 21
8.571382887216307
 31
0.0
  0
ELLIPSE
  5
241
330
6C
100
AcDbEntity
  8
Visible (ANSI)
100
AcDbEllipse
 10
8.961117306303529
 20
8.481382887216307
 30
0.0
 11
-0.0000000000000004
 21
-0.09
 31
0.0
210
0.0
220
0.0
230
0.9999999999999998
 40
0.7320508075688733
 41
2.47054845812471
 42
2.629644106146624
  0
LINE
  5
242
330
6C
100
AcDbEntity
  8
Visible Narrow (ANSI)
100
AcDbLine
 10
9.127601349062
 20
8.370225597388605
 30
0.0
 11
8.993392636732059
 21
8.370225597388602
 31
0.0
  0
LINE
  5
243
330
6C
100
AcDbEntity
  8
Visible Narrow (ANSI)
100
AcDbLine
 10
9.127601349062
 20
8.246540177044007
 30
0.0
 11
8.993392636732059
 21
8.246540177044003
 31
0.0
  0
LINE
  5
244
330
6C
100
AcDbEntity
  8
Visible (ANSI)
100
AcDbLine
 10
8.993392636732059
 20
8.551868439929961
 30
0.0
 11
9.002084604472722
 21
8.551868439929961
 31
0.0
  0
LINE
  5
245
330
6C
100
AcDbEntity
  8
Visible (ANSI)
100
AcDbLine
 10
8.993392636732059
 20
8.064897334502658
 30
0.0
 11
9.002314060697081
 21
8.064897334502658
 31
0.0
  0
SPLINE
  5
246
330
6C
100
AcDbEntity
  8
Visible (ANSI)
100
AcDbSpline
210
0.0
220
0.0
230
1.0
 70
     8
 71
     3
 72
    18
 73
    14
 74
     0
 42
0.0000000001
 43
0.0000000001
 40
0.0
 40
0.0
 40
0.0
 40
0.0
 40
0.0881869190644389
 40
0.0881869190644389
 40
0.1801127479292781
 40
0.1801127479292781
 40
0.2806248460126899
 40
0.2806248460126899
 40
0.3811281995645559
 40
0.3811281995645559
 40
0.4389668742853556
 40
0.4389668742853556
 40
0.5294326630655153
 40
0.5294326630655153
 40
0.5294326630655153
 40
0.5294326630655153
 10
7.37347715819339
 20
4.680161544834199
 30
0.0
 10
7.37347715819339
 20
4.678388936934504
 30
0.0
 10
7.371322123660521
 20
4.67591236367294
 30
0.0
 10
7.363171356281918
 20
4.669133123222129
 30
0.0
 10
7.357129428716533
 20
4.664861455902542
 30
0.0
 10
7.341934900742706
 20
4.653742568955546
 30
0.0
 10
7.332837336526401
 20
4.646906167705864
 30
0.0
 10
7.314612936828737
 20
4.630343865193589
 30
0.0
 10
7.30588698557823
 20
4.620962697212159
 30
0.0
 10
7.294593233414384
 20
4.603834487098672
 30
0.0
 10
7.291064224876854
 20
4.597189222753612
 30
0.0
 10
7.28408757618691
 20
4.579183158795707
 30
0.0
 10
7.282887173839015
 20
4.570059567644777
 30
0.0
 10
7.28247715819339
 20
4.564370827879742
 30
0.0
  0
SPLINE
  5
247
330
6C
100
AcDbEntity
  8
Visible (ANSI)
100
AcDbSpline
210
0.0
220
0.0
230
1.0
 70
     8
 71
     3
 72
    20
 73
    16
 74
     0
 42
0.0000000001
 43
0.0000000001
 40
0.0
 40
0.0
 40
0.0
 40
0.0
 40
0.0828978750234086
 40
0.0828978750234086
 40
0.1443472269795042
 40
0.1443472269795042
 40
0.1972601260406772
 40
0.1972601260406772
 40
0.2795039605267574
 40
0.2795039605267574
 40
0.3319584474081649
 40
0.3319584474081649
 40
0.3557496596443155
 40
0.3557496596443155
 40
0.3783712599642327
 40
0.3783712599642327
 40
0.3783712599642327
 40
0.3783712599642327
 10
7.28247715819339
 20
4.564370827879742
 30
0.0
 10
7.282812877231717
 20
4.575244632824627
 30
0.0
 10
7.284083164134705
 20
4.586462298920407
 30
0.0
 10
7.287974368483231
 20
4.605332546308368
 30
0.0
 10
7.290153132637914
 20
4.613188522678346
 30
0.0
 10
7.295150256877843
 20
4.627411213837278
 30
0.0
 10
7.297830206515786
 20
4.633796267176442
 30
0.0
 10
7.305335587759448
 20
4.649423925402726
 30
0.0
 10
7.30983891757799
 20
4.656979196444656
 30
0.0
 10
7.31580075773086
 20
4.667085426702838
 30
0.0
 10
7.317887320381657
 20
4.670617725146567
 30
0.0
 10
7.320035906107288
 20
4.674996890322117
 30
0.0
 10
7.320574081635588
 20
4.676245917246782
 30
0.0
 10
7.321287493870112
 20
4.678425119967045
 30
0.0
 10
7.32147715819339
 20
4.679355706321224
 30
0.0
 10
7.32147715819339
 20
4.680161544834198
 30
0.0
  0
LINE
  5
248
330
6C
100
AcDbEntity
  8
Visible (ANSI)
100
AcDbLine
 10
7.32147715819339
 20
8.745665478988774
 30
0.0
 11
7.28247715819339
 21
8.745665478988753
 31
0.0
  0
ARC
  5
249
330
6C
100
AcDbEntity
  8
Visible (ANSI)
100
AcDbCircle
 10
6.996077596544435
 20
4.897007887216306
 30
0.0
 40
0.1299999999999907
100
AcDbArc
 50
0.0
 51
90.0
  0
LINE
  5
24A
330
6C
100
AcDbEntity
  8
Visible (ANSI)
100
AcDbLine
 10
7.126077596544439
 20
4.897007887216305
 30
0.0
 11
7.126077596544424
 21
3.719507887216307
 31
0.0
  0
ARC
  5
24B
330
6C
100
AcDbEntity
  8
Visible (ANSI)
100
AcDbCircle
 10
6.996077596544435
 20
3.719507887216308
 30
0.0
 40
0.1299999999999909
100
AcDbArc
 50
270.0
 51
0.0
  0
LINE
  5
24C
330
6C
100
AcDbEntity
  8
Visible (ANSI)
100
AcDbLine
 10
6.996077596544435
 20
3.589507887216309
 30
0.0
 11
6.756077596544427
 21
3.589507887216291
 31
0.0
  0
ARC
  5
24D
330
6C
100
AcDbEntity
  8
Visible (ANSI)
100
AcDbCircle
 10
6.756077596544427
 20
3.719507887216308
 30
0.0
 40
0.1300000000000002
100
AcDbArc
 50
180.0
 51
270.0
  0
LINE
  5
24E
330
6C
100
AcDbEntity
  8
Visible (ANSI)
100
AcDbLine
 10
6.626077596544409
 20
3.71950788721631
 30
0.0
 11
6.626077596544424
 21
4.897007887216308
 31
0.0
  0
ARC
  5
24F
330
6C
100
AcDbEntity
  8
Visible (ANSI)
100
AcDbCircle
 10
6.756077596544427
 20
4.897007887216306
 30
0.0
 40
0.13
100
AcDbArc
 50
89.99999999999939
 51
180.0
  0
LINE
  5
250
330
6C
100
AcDbEntity
  8
Visible (ANSI)
100
AcDbLine
 10
6.756077596544427
 20
5.0270078872163
 30
0.0
 11
6.996077596544435
 21
5.0270078872163
 31
0.0
  0
ARC
  5
251
330
6C
100
AcDbEntity
  8
Visible (ANSI)
100
AcDbCircle
 10
9.55857759654442
 20
3.719507887216308
 30
0.0
 40
0.1300000000000002
100
AcDbArc
 50
270.0
 51
0.0
  0
LINE
  5
252
330
6C
100
AcDbEntity
  8
Visible (ANSI)
100
AcDbLine
 10
9.55857759654442
 20
3.589507887216291
 30
0.0
 11
9.318577596544413
 21
3.589507887216309
 31
0.0
  0
ARC
  5
253
330
6C
100
AcDbEntity
  8
Visible (ANSI)
100
AcDbCircle
 10
9.318577596544413
 20
3.719507887216308
 30
0.0
 40
0.1299999999999908
100
AcDbArc
 50
180.0
 51
270.0
  0
LINE
  5
254
330
6C
100
AcDbEntity
  8
Visible (ANSI)
100
AcDbLine
 10
9.188577596544423
 20
3.719507887216307
 30
0.0
 11
9.188577596544408
 21
4.897007887216305
 31
0.0
  0
ARC
  5
255
330
6C
100
AcDbEntity
  8
Visible (ANSI)
100
AcDbCircle
 10
9.318577596544413
 20
4.897007887216306
 30
0.0
 40
0.1299999999999907
100
AcDbArc
 50
90.0
 51
180.0
  0
LINE
  5
256
330
6C
100
AcDbEntity
  8
Visible (ANSI)
100
AcDbLine
 10
9.318577596544413
 20
5.0270078872163
 30
0.0
 11
9.55857759654442
 21
5.0270078872163
 31
0.0
  0
ARC
  5
257
330
6C
100
AcDbEntity
  8
Visible (ANSI)
100
AcDbCircle
 10
9.55857759654442
 20
4.897007887216306
 30
0.0
 40
0.13
100
AcDbArc
 50
0.0
 51
90.0
  0
LINE
  5
258
330
6C
100
AcDbEntity
  8
Visible (ANSI)
100
AcDbLine
 10
9.688577596544423
 20
4.897007887216308
 30
0.0
 11
9.688577596544439
 21
3.71950788721631
 31
0.0
  0
ARC
  5
259
330
6C
100
AcDbEntity
  8
Visible Narrow (ANSI)
100
AcDbCircle
 10
6.996077596544435
 20
3.719507887216308
 30
0.0
 40
0.0779999999999909
100
AcDbArc
 50
270.0
 51
0.0
  0
LINE
  5
25A
330
6C
100
AcDbEntity
  8
Visible Narrow (ANSI)
100
AcDbLine
 10
7.074077596544437
 20
4.897007887216306
 30
0.0
 11
7.074077596544425
 21
3.719507887216307
 31
0.0
  0
ARC
  5
25B
330
6C
100
AcDbEntity
  8
Visible Narrow (ANSI)
100
AcDbCircle
 10
6.996077596544435
 20
4.897007887216306
 30
0.0
 40
0.0779999999999912
100
AcDbArc
 50
0.0
 51
90.0
  0
LINE
  5
25C
330
6C
100
AcDbEntity
  8
Visible Narrow (ANSI)
100
AcDbLine
 10
6.756077596544427
 20
4.9750078872163
 30
0.0
 11
6.996077596544435
 21
4.975007887216297
 31
0.0
  0
ARC
  5
25D
330
6C
100
AcDbEntity
  8
Visible Narrow (ANSI)
100
AcDbCircle
 10
6.756077596544427
 20
4.897007887216307
 30
0.0
 40
0.0779999999999996
100
AcDbArc
 50
89.99999999999898
 51
180.0
  0
LINE
  5
25E
330
6C
100
AcDbEntity
  8
Visible Narrow (ANSI)
100
AcDbLine
 10
6.678077596544409
 20
3.719507887216309
 30
0.0
 11
6.678077596544427
 21
4.897007887216308
 31
0.0
  0
ARC
  5
25F
330
6C
100
AcDbEntity
  8
Visible Narrow (ANSI)
100
AcDbCircle
 10
6.756077596544427
 20
3.719507887216308
 30
0.0
 40
0.0780000000000004
100
AcDbArc
 50
180.0
 51
270.0
  0
LINE
  5
260
330
6C
100
AcDbEntity
  8
Visible Narrow (ANSI)
100
AcDbLine
 10
6.996077596544435
 20
3.641507887216317
 30
0.0
 11
6.756077596544427
 21
3.641507887216308
 31
0.0
  0
LINE
  5
261
330
6C
100
AcDbEntity
  8
Visible Narrow (ANSI)
100
AcDbLine
 10
6.756077596544427
 20
3.641507887216308
 30
0.0
 11
6.756077596544427
 21
3.589507887216291
 31
0.0
  0
LINE
  5
262
330
6C
100
AcDbEntity
  8
Visible Narrow (ANSI)
100
AcDbLine
 10
6.996077596544435
 20
3.589507887216317
 30
0.0
 11
6.996077596544435
 21
3.641507887216317
 31
0.0
  0
LINE
  5
263
330
6C
100
AcDbEntity
  8
Visible Narrow (ANSI)
100
AcDbLine
 10
6.67807759654441
 20
3.719507887216309
 30
0.0
 11
6.626077596544409
 21
3.71950788721631
 31
0.0
  0
LINE
  5
264
330
6C
100
AcDbEntity
  8
Visible Narrow (ANSI)
100
AcDbLine
 10
6.678077596544427
 20
4.897007887216307
 30
0.0
 11
6.626077596544424
 21
4.897007887216308
 31
0.0
  0
LINE
  5
265
330
6C
100
AcDbEntity
  8
Visible Narrow (ANSI)
100
AcDbLine
 10
6.756077596544427
 20
4.9750078872163
 30
0.0
 11
6.756077596544427
 21
5.0270078872163
 31
0.0
  0
LINE
  5
266
330
6C
100
AcDbEntity
  8
Visible Narrow (ANSI)
100
AcDbLine
 10
6.996077596544435
 20
4.975007887216297
 30
0.0
 11
6.996077596544435
 21
5.0270078872163
 31
0.0
  0
LINE
  5
267
330
6C
100
AcDbEntity
  8
Visible Narrow (ANSI)
100
AcDbLine
 10
7.074077596544437
 20
4.897007887216306
 30
0.0
 11
7.126077596544439
 21
4.897007887216305
 31
0.0
  0
LINE
  5
268
330
6C
100
AcDbEntity
  8
Visible Narrow (ANSI)
100
AcDbLine
 10
7.074077596544425
 20
3.719507887216307
 30
0.0
 11
7.126077596544423
 21
3.719507887216307
 31
0.0
  0
LINE
  5
269
330
6C
100
AcDbEntity
  8
Visible Narrow (ANSI)
100
AcDbLine
 10
9.558577596544427
 20
2.780019335682493
 30
0.0
 11
9.558577596544425
 21
2.853558440925895
 31
0.0
  0
ELLIPSE
  5
26A
330
6C
100
AcDbEntity
  8
Visible (ANSI)
100
AcDbEllipse
 10
9.558577596544424
 20
2.871943217236738
 30
0.0
 11
0.1299999999999906
 21
-0.0000000000000019
 31
0.0
210
0.0
220
0.0
230
1.0
 40
0.7071067811865476
 41
4.712388980384753
 42
6.283185307179624
  0
ELLIPSE
  5
26B
330
6C
100
AcDbEntity
  8
Visible Narrow (ANSI)
100
AcDbEllipse
 10
9.636577596544414
 20
2.871943217236737
 30
0.0
 11
0.052000000000009
 21
-0.0000000000000007
 31
0.0
210
0.0
220
0.0
230
0.9999999999999998
 40
0.7071067811865461
 41
0.0
 42
1.570796326794878
  0
ELLIPSE
  5
26C
330
6C
100
AcDbEntity
  8
Visible Narrow (ANSI)
100
AcDbEllipse
 10
9.558577596544424
 20
2.908712769858439
 30
0.0
 11
0.077999999999991
 21
-0.0000000000000014
 31
0.0
210
0.0
220
0.0
230
0.9999999999999998
 40
0.7071067811865476
 41
4.712388980384774
 42
6.283185307179636
  0
LINE
  5
26D
330
6C
100
AcDbEntity
  8
Visible (ANSI)
100
AcDbLine
 10
9.688577596544442
 20
3.35100806149062
 30
0.0
 11
9.688577596544423
 21
2.871943217236736
 31
0.0
  0
ELLIPSE
  5
26E
330
6C
100
AcDbEntity
  8
Visible Narrow (ANSI)
100
AcDbEllipse
 10
9.636577596544441
 20
3.351008061490621
 30
0.0
 11
0.0520000000000003
 21
-0.000000000000001
 31
0.0
210
0.0
220
0.0
230
0.9999999999999998
 40
0.7071067811865479
 41
0.0
 42
1.570796326794883
  0
LINE
  5
26F
330
6C
100
AcDbEntity
  8
Visible Narrow (ANSI)
100
AcDbLine
 10
9.636577596544441
 20
3.387777614112322
 30
0.0
 11
9.636577596544414
 21
2.908712769858438
 31
0.0
  0
LINE
  5
270
330
6C
100
AcDbEntity
  8
Visible Narrow (ANSI)
100
AcDbLine
 10
9.558577596544433
 20
3.442931943044875
 30
0.0
 11
9.558577596544429
 21
3.458162390423178
 31
0.0
  0
ELLIPSE
  5
271
330
6C
100
AcDbEntity
  8
Visible Narrow (ANSI)
100
AcDbEllipse
 10
9.558577596544441
 20
3.387777614112325
 30
0.0
 11
0.077999999999991
 21
0.0000000000000058
 31
0.0
210
0.0
220
0.0
230
1.0
 40
0.7071067811865472
 41
0.0
 42
1.570796326795005
  0
LINE
  5
272
330
6C
100
AcDbEntity
  8
Visible Narrow (ANSI)
100
AcDbLine
 10
9.31857759654442
 20
3.442931943044875
 30
0.0
 11
9.31857759654442
 21
3.458162390423175
 31
0.0
  0
LINE
  5
273
330
6C
100
AcDbEntity
  8
Visible Narrow (ANSI)
100
AcDbLine
 10
9.31857759654442
 20
3.442931943044876
 30
0.0
 11
9.558577596544433
 21
3.44293194304487
 31
0.0
  0
ELLIPSE
  5
274
330
6C
100
AcDbEntity
  8
Visible Narrow (ANSI)
100
AcDbEllipse
 10
9.240577596544429
 20
3.351008061490625
 30
0.0
 11
-0.0520000000000101
 21
0.000000000000001
 31
0.0
210
0.0
220
0.0
230
1.0
 40
0.7071067811865474
 41
4.712388980384676
 42
6.283185307179549
  0
ELLIPSE
  5
275
330
6C
100
AcDbEntity
  8
Visible Narrow (ANSI)
100
AcDbEllipse
 10
9.31857759654442
 20
3.387777614112325
 30
0.0
 11
-0.0779999999999905
 21
0.0000000000000014
 31
0.0
210
0.0
220
0.0
230
1.0
 40
0.7071067811865475
 41
4.712388980384737
 42
6.283185307179635
  0
LINE
  5
276
330
6C
100
AcDbEntity
  8
Visible (ANSI)
100
AcDbLine
 10
9.18857759654441
 20
2.871943217236741
 30
0.0
 11
9.188577596544419
 21
3.351008061490627
 31
0.0
  0
ELLIPSE
  5
277
330
6C
100
AcDbEntity
  8
Visible Narrow (ANSI)
100
AcDbEllipse
 10
9.24057759654441
 20
2.871943217236741
 30
0.0
 11
-0.0520000000000003
 21
0.0000000000000005
 31
0.0
210
0.0
220
0.0
230
0.9999999999999998
 40
0.7071067811865465
 41
4.712388980384696
 42
6.283185307179581
  0
LINE
  5
278
330
6C
100
AcDbEntity
  8
Visible Narrow (ANSI)
100
AcDbLine
 10
9.24057759654441
 20
2.908712769858442
 30
0.0
 11
9.240577596544428
 21
3.387777614112326
 31
0.0
  0
ELLIPSE
  5
279
330
6C
100
AcDbEntity
  8
Visible (ANSI)
100
AcDbEllipse
 10
9.318577596544409
 20
2.871943217236738
 30
0.0
 11
-0.1299999999999907
 21
-0.0000000000000045
 31
0.0
210
0.0
220
0.0
230
1.0
 40
0.7071067811865476
 41
0.0
 42
1.570796326794937
  0
LINE
  5
27A
330
6C
100
AcDbEntity
  8
Visible Narrow (ANSI)
100
AcDbLine
 10
9.318577596544413
 20
2.853558440925901
 30
0.0
 11
9.318577596544416
 21
2.780019335682487
 31
0.0
  0
ELLIPSE
  5
27B
330
6C
100
AcDbEntity
  8
Visible Narrow (ANSI)
100
AcDbEllipse
 10
9.318577596544409
 20
2.908712769858439
 30
0.0
 11
-0.0779999999999905
 21
-0.000000000000003
 31
0.0
210
0.0
220
0.0
230
1.0
 40
0.7071067811865476
 41
0.0
 42
1.57079632679494
  0
LINE
  5
27C
330
6C
100
AcDbEntity
  8
Visible (ANSI)
100
AcDbLine
 10
9.558577596544427
 20
2.780019335682487
 30
0.0
 11
9.318577596544415
 21
2.780019335682487
 31
0.0
  0
LINE
  5
27D
330
6C
100
AcDbEntity
  8
Visible Narrow (ANSI)
100
AcDbLine
 10
9.558577596544425
 20
2.853558440925895
 30
0.0
 11
9.318577596544413
 21
2.853558440925895
 31
0.0
  0
LINE
  5
27E
330
6C
100
AcDbEntity
  8
Visible Narrow (ANSI)
100
AcDbLine
 10
6.996077596544431
 20
2.780019335682493
 30
0.0
 11
6.996077596544433
 21
2.853558440925895
 31
0.0
  0
ELLIPSE
  5
27F
330
6C
100
AcDbEntity
  8
Visible (ANSI)
100
AcDbEllipse
 10
6.996077596544438
 20
2.871943217236738
 30
0.0
 11
0.1299999999999907
 21
0.000000000000003
 31
0.0
210
0.0
220
0.0
230
1.0
 40
0.7071067811865478
 41
4.712388980384587
 42
6.283185307179517
  0
ELLIPSE
  5
280
330
6C
100
AcDbEntity
  8
Visible Narrow (ANSI)
100
AcDbEllipse
 10
7.074077596544429
 20
2.87194321723674
 30
0.0
 11
0.052000000000009
 21
0.0000000000000012
 31
0.0
210
0.0
220
0.0
230
0.9999999999999998
 40
0.707106781186548
 41
0.0000000000000571
 42
1.570796326794906
  0
ELLIPSE
  5
281
330
6C
100
AcDbEntity
  8
Visible Narrow (ANSI)
100
AcDbEllipse
 10
6.996077596544438
 20
2.908712769858439
 30
0.0
 11
0.0779999999999905
 21
0.0000000000000019
 31
0.0
210
0.0
220
0.0
230
1.0
 40
0.7071067811865476
 41
4.712388980384582
 42
6.283185307179509
  0
LINE
  5
282
330
6C
100
AcDbEntity
  8
Visible (ANSI)
100
AcDbLine
 10
7.126077596544429
 20
3.351008061490627
 30
0.0
 11
7.126077596544437
 21
2.871943217236741
 31
0.0
  0
ELLIPSE
  5
283
330
6C
100
AcDbEntity
  8
Visible Narrow (ANSI)
100
AcDbEllipse
 10
7.074077596544428
 20
3.351008061490626
 30
0.0
 11
0.0520000000000003
 21
0.0000000000000005
 31
0.0
210
0.0
220
0.0
230
0.9999999999999998
 40
0.7071067811865472
 41
0.0000000000000357
 42
1.570796326794889
  0
LINE
  5
284
330
6C
100
AcDbEntity
  8
Visible Narrow (ANSI)
100
AcDbLine
 10
7.074077596544428
 20
3.387777614112327
 30
0.0
 11
7.074077596544429
 21
2.908712769858441
 31
0.0
  0
LINE
  5
285
330
6C
100
AcDbEntity
  8
Visible Narrow (ANSI)
100
AcDbLine
 10
6.996077596544428
 20
3.442931943044875
 30
0.0
 11
6.996077596544428
 21
3.458162390423178
 31
0.0
  0
ELLIPSE
  5
286
330
6C
100
AcDbEntity
  8
Visible Narrow (ANSI)
100
AcDbEllipse
 10
6.996077596544428
 20
3.387777614112325
 30
0.0
 11
0.0779999999999904
 21
0.0000000000000002
 31
0.0
210
0.0
220
0.0
230
1.0
 40
0.7071067811865471
 41
0.0
 42
1.570796326794894
  0
LINE
  5
287
330
6C
100
AcDbEntity
  8
Visible Narrow (ANSI)
100
AcDbLine
 10
6.75607759654442
 20
3.442931943044875
 30
0.0
 11
6.75607759654442
 21
3.458162390423175
 31
0.0
  0
LINE
  5
288
330
6C
100
AcDbEntity
  8
Visible Narrow (ANSI)
100
AcDbLine
 10
6.75607759654442
 20
3.442931943044876
 30
0.0
 11
6.996077596544428
 21
3.442931943044869
 31
0.0
  0
ELLIPSE
  5
289
330
6C
100
AcDbEntity
  8
Visible Narrow (ANSI)
100
AcDbEllipse
 10
6.678077596544414
 20
3.351008061490622
 30
0.0
 11
-0.0520000000000092
 21
-0.0000000000000018
 31
0.0
210
0.0
220
0.0
230
0.9999999999999998
 40
0.7071067811865475
 41
4.712388980384719
 42
6.2831853071797
  0
ELLIPSE
  5
28A
330
6C
100
AcDbEntity
  8
Visible Narrow (ANSI)
100
AcDbEllipse
 10
6.756077596544406
 20
3.387777614112326
 30
0.0
 11
-0.0779999999999903
 21
-0.000000000000003
 31
0.0
210
0.0
220
0.0
230
1.0
 40
0.7071067811865471
 41
4.712388980384429
 42
6.283185307179481
  0
LINE
  5
28B
330
6C
100
AcDbEntity
  8
Visible (ANSI)
100
AcDbLine
 10
6.626077596544424
 20
2.871943217236736
 30
0.0
 11
6.626077596544405
 21
3.35100806149062
 31
0.0
  0
ELLIPSE
  5
28C
330
6C
100
AcDbEntity
  8
Visible Narrow (ANSI)
100
AcDbEllipse
 10
6.678077596544424
 20
2.871943217236738
 30
0.0
 11
-0.0520000000000003
 21
-0.000000000000001
 31
0.0
210
0.0
220
0.0
230
0.9999999999999998
 40
0.7071067811865466
 41
4.712388980384702
 42
6.283185307179641
  0
LINE
  5
28D
330
6C
100
AcDbEntity
  8
Visible Narrow (ANSI)
100
AcDbLine
 10
6.678077596544424
 20
2.908712769858438
 30
0.0
 11
6.678077596544414
 21
3.387777614112323
 31
0.0
  0
ELLIPSE
  5
28E
330
6C
100
AcDbEntity
  8
Visible (ANSI)
100
AcDbEllipse
 10
6.756077596544423
 20
2.871943217236738
 30
0.0
 11
-0.1299999999999906
 21
0.0000000000000028
 31
0.0
210
0.0
220
0.0
230
1.0
 40
0.7071067811865476
 41
0.0
 42
1.570796326794858
  0
LINE
  5
28F
330
6C
100
AcDbEntity
  8
Visible Narrow (ANSI)
100
AcDbLine
 10
6.756077596544421
 20
2.853558440925901
 30
0.0
 11
6.75607759654442
 21
2.780019335682487
 31
0.0
  0
ELLIPSE
  5
290
330
6C
100
AcDbEntity
  8
Visible Narrow (ANSI)
100
AcDbEllipse
 10
6.756077596544423
 20
2.908712769858439
 30
0.0
 11
-0.077999999999991
 21
0.0000000000000019
 31
0.0
210
0.0
220
0.0
230
0.9999999999999998
 40
0.7071067811865471
 41
0.0
 42
1.57079632679486
  0
LINE
  5
291
330
6C
100
AcDbEntity
  8
Visible (ANSI)
100
AcDbLine
 10
6.996077596544433
 20
2.780019335682487
 30
0.0
 11
6.75607759654442
 21
2.780019335682487
 31
0.0
  0
LINE
  5
292
330
6C
100
AcDbEntity
  8
Visible Narrow (ANSI)
100
AcDbLine
 10
6.996077596544433
 20
2.853558440925895
 30
0.0
 11
6.756077596544421
 21
2.853558440925895
 31
0.0
  0
LINE
  5
293
330
6C
100
AcDbEntity
  8
Visible Narrow (ANSI)
100
AcDbLine
 10
9.55857759654442
 20
3.589507887216307
 30
0.0
 11
9.55857759654442
 21
3.641507887216308
 31
0.0
  0
LINE
  5
294
330
6C
100
AcDbEntity
  8
Visible Narrow (ANSI)
100
AcDbLine
 10
9.63657759654442
 20
3.719507887216309
 30
0.0
 11
9.688577596544439
 21
3.71950788721631
 31
0.0
  0
ARC
  5
295
330
6C
100
AcDbEntity
  8
Visible Narrow (ANSI)
100
AcDbCircle
 10
9.55857759654442
 20
3.719507887216308
 30
0.0
 40
0.0780000000000003
100
AcDbArc
 50
270.000000000001
 51
0.0
  0
LINE
  5
296
330
6C
100
AcDbEntity
  8
Visible Narrow (ANSI)
100
AcDbLine
 10
9.636577596544423
 20
4.897007887216308
 30
0.0
 11
9.688577596544424
 21
4.897007887216308
 31
0.0
  0
LINE
  5
297
330
6C
100
AcDbEntity
  8
Visible Narrow (ANSI)
100
AcDbLine
 10
9.636577596544423
 20
4.897007887216308
 30
0.0
 11
9.63657759654442
 21
3.719507887216309
 31
0.0
  0
LINE
  5
298
330
6C
100
AcDbEntity
  8
Visible Narrow (ANSI)
100
AcDbLine
 10
9.55857759654442
 20
4.975007887216306
 30
0.0
 11
9.55857759654442
 21
5.0270078872163
 31
0.0
  0
ARC
  5
299
330
6C
100
AcDbEntity
  8
Visible Narrow (ANSI)
100
AcDbCircle
 10
9.55857759654442
 20
4.897007887216306
 30
0.0
 40
0.0780000000000005
100
AcDbArc
 50
0.0
 51
90.0
  0
LINE
  5
29A
330
6C
100
AcDbEntity
  8
Visible Narrow (ANSI)
100
AcDbLine
 10
9.318577596544413
 20
4.9750078872163
 30
0.0
 11
9.318577596544413
 21
5.0270078872163
 31
0.0
  0
LINE
  5
29B
330
6C
100
AcDbEntity
  8
Visible Narrow (ANSI)
100
AcDbLine
 10
9.318577596544413
 20
4.9750078872163
 30
0.0
 11
9.55857759654442
 21
4.975007887216307
 31
0.0
  0
LINE
  5
29C
330
6C
100
AcDbEntity
  8
Visible Narrow (ANSI)
100
AcDbLine
 10
9.240577596544421
 20
4.897007887216306
 30
0.0
 11
9.188577596544408
 21
4.897007887216305
 31
0.0
  0
ARC
  5
29D
330
6C
100
AcDbEntity
  8
Visible Narrow (ANSI)
100
AcDbCircle
 10
9.318577596544413
 20
4.897007887216306
 30
0.0
 40
0.077999999999991
100
AcDbArc
 50
90.0
 51
180.0
  0
LINE
  5
29E
330
6C
100
AcDbEntity
  8
Visible Narrow (ANSI)
100
AcDbLine
 10
9.240577596544424
 20
3.719507887216307
 30
0.0
 11
9.188577596544423
 21
3.719507887216307
 31
0.0
  0
LINE
  5
29F
330
6C
100
AcDbEntity
  8
Visible Narrow (ANSI)
100
AcDbLine
 10
9.240577596544424
 20
3.719507887216307
 30
0.0
 11
9.240577596544422
 21
4.897007887216306
 31
0.0
  0
LINE
  5
2A0
330
6C
100
AcDbEntity
  8
Visible Narrow (ANSI)
100
AcDbLine
 10
9.318577596544413
 20
3.641507887216317
 30
0.0
 11
9.318577596544413
 21
3.589507887216309
 31
0.0
  0
ARC
  5
2A1
330
6C
100
AcDbEntity
  8
Visible Narrow (ANSI)
100
AcDbCircle
 10
9.318577596544413
 20
3.719507887216308
 30
0.0
 40
0.0779999999999911
100
AcDbArc
 50
180.0
 51
270.0
  0
LINE
  5
2A2
330
6C
100
AcDbEntity
  8
Visible Narrow (ANSI)
100
AcDbLine
 10
9.55857759654442
 20
3.641507887216308
 30
0.0
 11
9.318577596544413
 21
3.641507887216317
 31
0.0
  0
SPLINE
  5
2A3
330
6C
100
AcDbEntity
  8
Visible (ANSI)
100
AcDbSpline
210
0.0
220
0.0
230
1.0
 70
     8
 71
     3
 72
    18
 73
    14
 74
     0
 42
0.0000000001
 43
0.0000000001
 40
6.283185307179537
 40
6.283185307179537
 40
6.283185307179537
 40
6.283185307179537
 40
6.529364269791397
 40
6.529364269791397
 40
6.789600489706571
 40
6.789600489706571
 40
7.088176909499424
 40
7.088176909499424
 40
7.402336174858434
 40
7.402336174858434
 40
7.716495440217444
 40
7.716495440217444
 40
7.853981633974591
 40
7.853981633974591
 40
7.853981633974591
 40
7.853981633974591
 10
9.688577596544432
 20
3.351008061490619
 30
0.0
 10
9.688577596544433
 20
3.361568600197415
 30
0.0
 10
9.686691384262294
 20
3.372104096837656
 30
0.0
 10
9.679558984593258
 20
3.392175150821646
 30
0.0
 10
9.674171360479679
 20
3.40160696514913
 30
0.0
 10
9.660279939937911
 20
3.419316351208328
 30
0.0
 10
9.651457442131414
 20
3.427253480765974
 30
0.0
 10
9.631800051731962
 20
3.440619062403245
 30
0.0
 10
9.620866648624705
 20
3.445917373362827
 30
0.0
 10
9.598117192630899
 20
3.453720611209688
 30
0.0
 10
9.586290592117183
 20
3.456224782380362
 30
0.0
 10
9.569097089395246
 20
3.457906902466915
 30
0.0
 10
9.563837339527486
 20
3.458162390423169
 30
0.0
 10
9.558577596544429
 20
3.458162390423169
 30
0.0
  0
LINE
  5
2A4
330
6C
100
AcDbEntity
  8
Visible (ANSI)
100
AcDbLine
 10
9.558577596544429
 20
3.458162390423175
 30
0.0
 11
9.31857759654442
 21
3.458162390423175
 31
0.0
  0
SPLINE
  5
2A5
330
6C
100
AcDbEntity
  8
Visible (ANSI)
100
AcDbSpline
210
0.0
220
0.0
230
1.0
 70
     8
 71
     3
 72
    18
 73
    14
 74
     0
 42
0.0000000001
 43
0.0000000001
 40
1.570796326794896
 40
1.570796326794896
 40
1.570796326794896
 40
1.570796326794896
 40
1.88495559215387
 40
1.88495559215387
 40
2.199114857512844
 40
2.199114857512844
 40
2.513274122871818
 40
2.513274122871818
 40
2.827433388230792
 40
2.827433388230792
 40
3.095990979095907
 40
3.095990979095907
 40
3.141592653589766
 40
3.141592653589766
 40
3.141592653589766
 40
3.141592653589766
 10
9.31857759654442
 20
3.458162390423168
 30
0.0
 10
9.306558957098683
 20
3.458162390423168
 30
0.0
 10
9.294539734014644
 20
3.456832783447975
 30
0.0
 10
9.271121234053079
 20
3.451452314686967
 30
0.0
 10
9.259716413676244
 20
3.44740389221658
 30
0.0
 10
9.238219783641444
 20
3.436360145823093
 30
0.0
 10
9.228109298213585
 20
3.429356180195215
 30
0.0
 10
9.210303761270143
 20
3.412026959358082
 30
0.0
 10
9.202604071570679
 20
3.401644197690132
 30
0.0
 10
9.192478011230932
 20
3.379607349767543
 30
0.0
 10
9.189508019209627
 20
3.368359296465314
 30
0.0
 10
9.188640741834884
 20
3.354920479397635
 30
0.0
 10
9.188577596544428
 20
3.352964273522224
 30
0.0
 10
9.188577596544428
 20
3.351008061490627
 30
0.0
  0
SPLINE
  5
2A6
330
6C
100
AcDbEntity
  8
Visible (ANSI)
100
AcDbSpline
210
0.0
220
0.0
230
1.0
 70
     8
 71
     3
 72
    18
 73
    14
 74
     0
 42
0.0000000001
 43
0.0000000001
 40
0.0000000000000266
 40
0.0000000000000266
 40
0.0000000000000266
 40
0.0000000000000266
 40
0.246178962611887
 40
0.246178962611887
 40
0.5064151825270696
 40
0.5064151825270696
 40
0.8049916023199363
 40
0.8049916023199363
 40
1.11915086767891
 40
1.11915086767891
 40
1.433310133037884
 40
1.433310133037884
 40
1.570796326794896
 40
1.570796326794896
 40
1.570796326794896
 40
1.570796326794896
 10
7.126077596544419
 20
3.351008061490627
 30
0.0
 10
7.126077596544419
 20
3.361568600197425
 30
0.0
 10
7.124191384262278
 20
3.372104096837665
 30
0.0
 10
7.117058984593239
 20
3.392175150821654
 30
0.0
 10
7.11167136047966
 20
3.401606965149138
 30
0.0
 10
7.097779939937891
 20
3.419316351208335
 30
0.0
 10
7.088957442131392
 20
3.427253480765981
 30
0.0
 10
7.06930005173194
 20
3.440619062403249
 30
0.0
 10
7.058366648624684
 20
3.44591737336283
 30
0.0
 10
7.035617192630881
 20
3.453720611209689
 30
0.0
 10
7.023790592117166
 20
3.456224782380362
 30
0.0
 10
7.006597089395236
 20
3.457906902466914
 30
0.0
 10
7.001337339527479
 20
3.458162390423168
 30
0.0
 10
6.996077596544428
 20
3.458162390423168
 30
0.0
  0
LINE
  5
2A7
330
6C
100
AcDbEntity
  8
Visible (ANSI)
100
AcDbLine
 10
6.996077596544428
 20
3.458162390423175
 30
0.0
 11
6.75607759654442
 21
3.458162390423175
 31
0.0
  0
SPLINE
  5
2A8
330
6C
100
AcDbEntity
  8
Visible (ANSI)
100
AcDbSpline
210
0.0
220
0.0
230
1.0
 70
     8
 71
     3
 72
    18
 73
    14
 74
     0
 42
0.0000000001
 43
0.0000000001
 40
1.570796326794774
 40
1.570796326794774
 40
1.570796326794774
 40
1.570796326794774
 40
1.884955592153787
 40
1.884955592153787
 40
2.199114857512801
 40
2.199114857512801
 40
2.513274122871814
 40
2.513274122871814
 40
2.827433388230828
 40
2.827433388230828
 40
3.095990979095938
 40
3.095990979095938
 40
3.141592653589841
 40
3.141592653589841
 40
3.141592653589841
 40
3.141592653589841
 10
6.75607759654442
 20
3.458162390423169
 30
0.0
 10
6.744058957098682
 20
3.458162390423169
 30
0.0
 10
6.732039734014643
 20
3.456832783447977
 30
0.0
 10
6.708621234053074
 20
3.45145231468697
 30
0.0
 10
6.697216413676237
 20
3.447403892216583
 30
0.0
 10
6.675719783641433
 20
3.436360145823095
 30
0.0
 10
6.665609298213572
 20
3.429356180195217
 30
0.0
 10
6.647803761270129
 20
3.412026959358081
 30
0.0
 10
6.640104071570663
 20
3.401644197690131
 30
0.0
 10
6.629978011230917
 20
3.37960734976754
 30
0.0
 10
6.627008019209613
 20
3.368359296465311
 30
0.0
 10
6.626140741834869
 20
3.354920479397629
 30
0.0
 10
6.626077596544415
 20
3.352964273522216
 30
0.0
 10
6.626077596544415
 20
3.351008061490619
 30
0.0
  0
LINE
  5
2A9
330
6C
100
AcDbEntity
  8
Visible Narrow (ANSI)
100
AcDbLine
 10
6.407327596544424
 20
3.525289075819395
 30
0.0
 11
7.331077596544436
 21
3.525289075819395
 31
0.0
  0
LINE
  5
2AA
330
6C
100
AcDbEntity
  8
Visible Narrow (ANSI)
100
AcDbLine
 10
8.983577596544428
 20
3.525289075819395
 30
0.0
 11
9.907327596544424
 21
3.525289075819395
 31
0.0
  0
LINE
  5
2AB
330
6C
100
AcDbEntity
  8
Visible (ANSI)
100
AcDbLine
 10
6.407327596544424
 20
3.525289075819395
 30
0.0
 11
6.407327596544425
 21
3.488519523197695
 31
0.0
  0
LINE
  5
2AC
330
6C
100
AcDbEntity
  8
Visible (ANSI)
100
AcDbLine
 10
7.331077596544436
 20
3.488519523197695
 30
0.0
 11
7.331077596544436
 21
3.525289075819395
 31
0.0
  0
LINE
  5
2AD
330
6C
100
AcDbEntity
  8
Visible Narrow (ANSI)
100
AcDbLine
 10
7.331077596544436
 20
3.488519523197695
 30
0.0
 11
6.407327596544424
 21
3.488519523197695
 31
0.0
  0
LINE
  5
2AE
330
6C
100
AcDbEntity
  8
Visible (ANSI)
100
AcDbLine
 10
9.907327596544412
 20
3.488519523197695
 30
0.0
 11
9.907327596544423
 21
3.525289075819395
 31
0.0
  0
LINE
  5
2AF
330
6C
100
AcDbEntity
  8
Visible (ANSI)
100
AcDbLine
 10
8.983577596544435
 20
3.525289075819395
 30
0.0
 11
8.983577596544439
 21
3.488519523197695
 31
0.0
  0
LINE
  5
2B0
330
6C
100
AcDbEntity
  8
Visible Narrow (ANSI)
100
AcDbLine
 10
9.907327596544424
 20
3.488519523197695
 30
0.0
 11
8.983577596544435
 21
3.488519523197695
 31
0.0
  0
LINE
  5
2B1
330
6C
100
AcDbEntity
  8
Visible (ANSI)
100
AcDbLine
 10
9.031392636732061
 20
8.745665478991465
 30
0.0
 11
8.99339263673206
 21
8.745665478991465
 31
0.0
  0
SPLINE
  5
2B2
330
6C
100
AcDbEntity
  8
Visible (ANSI)
100
AcDbSpline
210
0.0
220
0.0
230
1.0
 70
     8
 71
     3
 72
    18
 73
    14
 74
     0
 42
0.0000000001
 43
0.0000000001
 40
0.0
 40
0.0
 40
0.0
 40
0.0
 40
0.0429477199616203
 40
0.0429477199616203
 40
0.1265778459624842
 40
0.1265778459624842
 40
0.2264959215299766
 40
0.2264959215299766
 40
0.3278969809649904
 40
0.3278969809649904
 40
0.4042537514689283
 40
0.4042537514689283
 40
0.4798630729371695
 40
0.4798630729371695
 40
0.4798630729371695
 40
0.4798630729371695
 10
9.031392636732059
 20
4.573517828344633
 30
0.0
 10
9.030377515956436
 20
4.579061842843081
 30
0.0
 10
9.028853626012395
 20
4.584434285280406
 30
0.0
 10
9.022936805624786
 20
4.599871815380701
 30
0.0
 10
9.017330806147301
 20
4.609227324526387
 30
0.0
 10
9.002699087090611
 20
4.628007895320393
 30
0.0
 10
8.993533575156998
 20
4.636731693046551
 30
0.0
 10
8.97513671082201
 20
4.652089945074277
 30
0.0
 10
8.966296952052566
 20
4.658386340738061
 30
0.0
 10
8.953544198487248
 20
4.667636671524665
 30
0.0
 10
8.949095493215825
 20
4.670922902179982
 30
0.0
 10
8.943005099875346
 20
4.676337254740322
 30
0.0
 10
8.941392636732059
 20
4.678418275092226
 30
0.0
 10
8.941392636732059
 20
4.679980740701054
 30
0.0
  0
SPLINE
  5
2B3
330
6C
100
AcDbEntity
  8
Visible (ANSI)
100
AcDbSpline
210
0.0
220
0.0
230
1.0
 70
     8
 71
     3
 72
    18
 73
    14
 74
     0
 42
0.0000000001
 43
0.0000000001
 40
0.0
 40
0.0
 40
0.0
 40
0.0
 40
0.0177164848753976
 40
0.0177164848753976
 40
0.0576196370926604
 40
0.0576196370926604
 40
0.1077238148441311
 40
0.1077238148441311
 40
0.1698257679785371
 40
0.1698257679785371
 40
0.2069807788695513
 40
0.2069807788695513
 40
0.2561959262459998
 40
0.2561959262459998
 40
0.2561959262459998
 40
0.2561959262459998
 10
8.99339263673206
 20
4.679980740701054
 30
0.0
 10
8.99339263673206
 20
4.679163013365882
 30
0.0
 10
8.993577971354575
 20
4.678225706983777
 30
0.0
 10
8.994680066201025
 20
4.674766587102659
 30
0.0
 10
8.996200122783864
 20
4.671809402783709
 30
0.0
 10
9.000509274499057
 20
4.664134543927547
 30
0.0
 10
9.003683335520614
 20
4.658922095746844
 30
0.0
 10
9.011666601058568
 20
4.64448018852971
 30
0.0
 10
9.016417151172968
 20
4.635048414211493
 30
0.0
 10
9.023142835062579
 20
4.616716344049299
 30
0.0
 10
9.025256877271164
 20
4.609661986946104
 30
0.0
 10
9.029172218821587
 20
4.592962536167821
 30
0.0
 10
9.030653038895934
 20
4.583128547542329
 30
0.0
 10
9.031392636732059
 20
4.573517828344633
 30
0.0
  0
LINE
  5
2B4
330
6C
100
AcDbEntity
  8
Visible (ANSI)
100
AcDbLine
 10
8.97051263673206
 20
4.679980740701054
 30
0.0
 11
8.99339263673206
 21
4.679980740701054
 31
0.0
  0
LINE
  5
2B5
330
6C
100
AcDbEntity
  8
Visible (ANSI)
100
AcDbLine
 10
8.941392636732059
 20
4.679980740701054
 30
0.0
 11
8.97051263673206
 21
4.679980740701054
 31
0.0
  0
LINE
  5
2B6
330
6C
100
AcDbEntity
  8
Visible Narrow (ANSI)
100
AcDbLine
 10
9.031392636732059
 20
8.745665478991622
 30
0.0
 11
9.031392636732059
 21
8.56109220781594
 31
0.0
  0
LINE
  5
2B7
330
6C
100
AcDbEntity
  8
Visible Narrow (ANSI)
100
AcDbLine
 10
9.031392636732059
 20
8.055494671200031
 30
0.0
 11
9.031392636732059
 21
6.811092207815843
 31
0.0
  0
LINE
  5
2B8
330
6C
100
AcDbEntity
  8
Visible Narrow (ANSI)
100
AcDbLine
 10
9.031392636732059
 20
6.305494671200129
 30
0.0
 11
9.031392636732059
 21
4.573517828344633
 31
0.0
  0
ELLIPSE
  5
2B9
330
6C
100
AcDbEntity
  8
Visible (ANSI)
100
AcDbEllipse
 10
8.879516982069223
 20
2.043390846381401
 30
0.0
 11
0.1039999999999997
 21
0.0000000000000002
 31
0.0
210
0.0
220
0.0
230
1.0
 40
0.7071067811865478
 41
4.712388980384675
 42
6.283185307179579
  0
LINE
  5
2BA
330
6C
100
AcDbEntity
  8
Visible Narrow (ANSI)
100
AcDbLine
 10
8.931516982069222
 20
2.043390846381402
 30
0.0
 11
8.983516982069223
 21
2.043390846381402
 31
0.0
  0
ELLIPSE
  5
2BB
330
6C
100
AcDbEntity
  8
Visible (ANSI)
100
AcDbEllipse
 10
8.879516982069223
 20
2.043390846381402
 30
0.0
 11
0.052
 21
-0.0000000000000001
 31
0.0
210
0.0
220
0.0
230
1.0
 40
0.7071067811865478
 41
4.71238898038469
 42
6.283185307179589
  0
LINE
  5
2BC
330
6C
100
AcDbEntity
  8
Visible Narrow (ANSI)
100
AcDbLine
 10
8.879516982069223
 20
1.969851741138001
 30
0.0
 11
8.879516982069223
 21
2.006621293759701
 31
0.0
  0
SPLINE
  5
2BD
330
6C
100
AcDbEntity
  8
Visible (ANSI)
100
AcDbSpline
210
0.0
220
0.0
230
1.0
 70
     8
 71
     3
 72
    20
 73
    16
 74
     0
 42
0.0000000001
 43
0.0000000001
 40
0.0
 40
0.0
 40
0.0
 40
0.0
 40
0.0212505109535261
 40
0.0212505109535261
 40
0.0502700987362838
 40
0.0502700987362838
 40
0.0739596752817693
 40
0.0739596752817693
 40
0.0957274077551244
 40
0.0957274077551244
 40
0.1184632750798087
 40
0.1184632750798087
 40
0.1409814803366038
 40
0.1409814803366038
 40
0.1732631604603461
 40
0.1732631604603461
 40
0.1732631604603461
 40
0.1732631604603461
 10
8.931516982069222
 20
2.48547619413586
 30
0.0
 10
8.931516982069222
 20
2.482717129597151
 30
0.0
 10
8.931454691682883
 20
2.478771308110546
 30
0.0
 10
8.930358014167147
 20
2.46803445856524
 30
0.0
 10
8.929096258408556
 20
2.462273079609087
 30
0.0
 10
8.925288821957595
 20
2.453061731984552
 30
0.0
 10
8.923020246912399
 20
2.449381663471195
 30
0.0
 10
8.917503807899462
 20
2.443643265985805
 30
0.0
 10
8.914451541339074
 20
2.441586733396563
 30
0.0
 10
8.907614054766401
 20
2.438939070084277
 30
0.0
 10
8.90394153282188
 20
2.438467960233605
 30
0.0
 10
8.89665709318821
 20
2.439062440493197
 30
0.0
 10
8.893140178762442
 20
2.440102329146414
 30
0.0
 10
8.885129906105939
 20
2.443961777698184
 30
0.0
 10
8.881641666108507
 20
2.446987953480162
 30
0.0
 10
8.879516982069223
 20
2.449041683308778
 30
0.0
  0
LINE
  5
2BE
330
6C
100
AcDbEntity
  8
Visible Narrow (ANSI)
100
AcDbLine
 10
8.879516982069223
 20
2.006621293759701
 30
0.0
 11
8.879516982069223
 21
2.449041683308778
 31
0.0
  0
SPLINE
  5
2BF
330
6C
100
AcDbEntity
  8
Visible (ANSI)
100
AcDbSpline
210
0.0
220
0.0
230
1.0
 70
     8
 71
     3
 72
    20
 73
    16
 74
     0
 42
0.0000000001
 43
0.0000000001
 40
0.0
 40
0.0
 40
0.0
 40
0.0
 40
0.0213105760992184
 40
0.0213105760992184
 40
0.0505839085933875
 40
0.0505839085933875
 40
0.0743931382957456
 40
0.0743931382957456
 40
0.0962051165718927
 40
0.0962051165718927
 40
0.1188954899718782
 40
0.1188954899718782
 40
0.1412884715796278
 40
0.1412884715796278
 40
0.1732751307969173
 40
0.1732751307969173
 40
0.1732751307969173
 40
0.1732751307969173
 10
7.435138211019626
 20
2.449041683308779
 30
0.0
 10
7.433487004266106
 20
2.44744561890569
 30
0.0
 10
7.431024496118976
 20
2.445272744898359
 30
0.0
 10
7.423378499093698
 20
2.440631069001708
 30
0.0
 10
7.418655501578647
 20
2.439041468242417
 30
0.0
 10
7.410108247250394
 20
2.438485730794988
 30
0.0
 10
7.406276693018686
 20
2.439086513502308
 30
0.0
 10
7.399362766757461
 20
2.442087629153813
 30
0.0
 10
7.3963753212918
 20
2.44427877972078
 30
0.0
 10
7.391149132902838
 20
2.450119891546811
 30
0.0
 10
7.389047307447856
 20
2.453706164109698
 30
0.0
 10
7.385881652301592
 20
2.461634991572573
 30
0.0
 10
7.384840271622072
 20
2.465863618962452
 30
0.0
 10
7.383221289972471
 20
2.476434753540936
 30
0.0
 10
7.383138211019624
 20
2.481931927078664
 30
0.0
 10
7.383138211019624
 20
2.485476194135859
 30
0.0
  0
ELLIPSE
  5
2C0
330
6C
100
AcDbEntity
  8
Visible (ANSI)
100
AcDbEllipse
 10
7.435138211019626
 20
2.043390846381401
 30
0.0
 11
-0.1040000000000003
 21
-0.0000000000000018
 31
0.0
210
0.0
220
0.0
230
0.9999999999999998
 40
0.7071067811865469
 41
0.0
 42
1.57079632679487
  0
ELLIPSE
  5
2C1
330
6C
100
AcDbEntity
  8
Visible (ANSI)
100
AcDbEllipse
 10
7.435138211019626
 20
2.043390846381401
 30
0.0
 11
-0.052
 21
-0.0000000000000024
 31
0.0
210
0.0
220
0.0
230
1.0
 40
0.7071067811865485
 41
0.0
 42
1.570796326794836
  0
ENDSEC
  0
SECTION
  2
OBJECTS
  0
DICTIONARY
  5
C
330
0
100
AcDbDictionary
281
     1
  3
ACAD_CIP_PREVIOUS_PRODUCT_INFO
350
2C2
  3
ACAD_COLOR
350
63
  3
ACAD_GROUP
350
D
  3
ACAD_LAYOUT
350
62
  3
ACAD_MATERIAL
350
10
  3
ACAD_MLEADERSTYLE
350
66
  3
ACAD_MLINESTYLE
350
5F
  3
ACAD_PLOTSETTINGS
350
61
  3
ACAD_PLOTSTYLENAME
350
E
  3
ACAD_SCALELIST
350
42
  3
ACAD_TABLESTYLE
350
64
  3
ACAD_VISUALSTYLE
350
29
  3
ACDB_RECOMPOSE_DATA
350
31A
  3
AcDbVariableDictionary
350
76
  3
DWGPROPS
350
31B
  0
DICTIONARY
  5
2C9
330
8
100
AcDbDictionary
280
     1
281
     1
  0
XRECORD
  5
2C2
102
{ACAD_REACTORS
330
C
102
}
330
C
100
AcDbXrecord
280
     1
300
AMECH_PP
300
2012
300
85796PDSU_2012_0F
  0
DICTIONARY
  5
63
102
{ACAD_REACTORS
330
C
102
}
330
C
100
AcDbDictionary
281
     1
  0
DICTIONARY
  5
D
102
{ACAD_REACTORS
330
C
102
}
330
C
100
AcDbDictionary
281
     1
  0
DICTIONARY
  5
62
102
{ACAD_REACTORS
330
C
102
}
330
C
100
AcDbDictionary
281
     1
  3
Layout1
350
6B
  3
Layout2
350
73
  3
Model
350
6F
  0
DICTIONARY
  5
10
102
{ACAD_REACTORS
330
C
102
}
330
C
100
AcDbDictionary
281
     1
  3
ByBlock
350
19
  3
ByLayer
350
11
  3
Global
350
21
  0
DICTIONARY
  5
66
102
{ACAD_REACTORS
330
C
102
}
330
C
100
AcDbDictionary
281
     1
  3
Standard
350
67
  0
DICTIONARY
  5
5F
102
{ACAD_REACTORS
330
C
102
}
330
C
100
AcDbDictionary
281
     1
  3
Standard
350
60
  0
DICTIONARY
  5
61
102
{ACAD_REACTORS
330
C
102
}
330
C
100
AcDbDictionary
281
     1
  0
ACDBDICTIONARYWDFLT
  5
E
102
{ACAD_REACTORS
330
C
102
}
330
C
100
AcDbDictionary
281
     1
  3
Normal
350
F
100
AcDbDictionaryWithDefault
340
F
  0
DICTIONARY
  5
42
102
{ACAD_REACTORS
330
C
102
}
330
C
100
AcDbDictionary
281
     1
  3
A0
350
43
  3
A1
350
44
  3
A2
350
45
  3
A3
350
46
  3
A4
350
47
  3
A5
350
48
  3
A6
350
49
  3
A7
350
4A
  3
A8
350
4B
  3
A9
350
4C
  3
B0
350
4D
  3
B1
350
4E
  3
B2
350
4F
  3
B3
350
50
  3
B4
350
51
  3
B5
350
52
  3
B6
350
53
  0
DICTIONARY
  5
64
102
{ACAD_REACTORS
330
C
102
}
330
C
100
AcDbDictionary
281
     1
  3
Standard
350
65
  0
DICTIONARY
  5
29
102
{ACAD_REACTORS
330
C
102
}
330
C
100
AcDbDictionary
281
     1
  3
2dWireframe
350
2F
  3
Basic
350
2E
  3
Brighten
350
35
  3
ColorChange
350
39
  3
Conceptual
350
32
  3
Dim
350
34
  3
EdgeColorOff
350
41
  3
Facepattern
350
38
  3
Flat
350
2A
  3
FlatWithEdges
350
2B
  3
Gouraud
350
2C
  3
GouraudWithEdges
350
2D
  3
Hidden
350
31
  3
JitterOff
350
3F
  3
Linepattern
350
37
  3
OverhangOff
350
40
  3
Realistic
350
33
  3
Shaded
350
3E
  3
Shaded with edges
350
3D
  3
Shades of Gray
350
3A
  3
Sketchy
350
3B
  3
Thicken
350
36
  3
Wireframe
350
30
  3
X-Ray
350
3C
  0
XRECORD
  5
31A
102
{ACAD_REACTORS
330
C
102
}
330
C
100
AcDbXrecord
280
     1
 90
        1
330
65
  0
DICTIONARY
  5
76
102
{ACAD_REACTORS
330
C
102
}
330
C
100
AcDbDictionary
281
     1
  3
CANNOSCALE
350
79
  3
CMLEADERSTYLE
350
78
  3
CTABLESTYLE
350
77
  3
DIMASSOC
350
30D
  3
HIDETEXT
350
30C
  3
INDEXCTL
350
30B
  3
LAYEREVAL
350
308
  3
LAYERNOTIFY
350
309
  3
LIGHTINGUNITS
350
307
  3
MSLTSCALE
350
306
  3
SORTENTS
350
30A
  3
XCLIPFRAME
350
315
  0
XRECORD
  5
31B
102
{ACAD_REACTORS
330
C
102
}
330
C
100
AcDbXrecord
280
     1
  1
DWGPROPS COOKIE
  2

  3

  4
JIM WALLS
  6

  7

  8
jwalls
  9

300
Manager=
301
Company=
302
Category=
303
Part Number=
304
Description=
305
Project=
306
Designer=JIM WALLS
307
Engineer=
308
Authority=
309
Cost Center=
 40
0.0026184490740741
 41
2456038.560614711
 42
2456038.591743553
  1

 90
       16
300
Vendor=
300
User Status=
300
Design Status=WorkInProgress
300
Checked by=
300
Engr Approved by=
300
Mfg Approved by=
  0
LAYOUT
  5
6B
102
{ACAD_XDICTIONARY
360
350
102
}
102
{ACAD_REACTORS
330
62
102
}
330
62
100
AcDbPlotSettings
  1

  2

  4

  6

 40
0.0
 41
0.0
 42
0.0
 43
0.0
 44
0.0
 45
0.0
 46
0.0
 47
0.0
 48
0.0
 49
0.0
140
0.0
141
0.0
142
1.0
143
1.0
 70
   688
 72
     0
 73
     0
 74
     5
  7

 75
    16
147
1.0
148
0.0
149
0.0
100
AcDbLayout
  1
Layout1
 70
     1
 71
     1
 10
0.0
 20
0.0
 11
17.0
 21
11.0
 12
0.0
 22
0.0
 32
0.0
 14
0.0
 24
0.0
 34
0.0
 15
17.0
 25
11.0
 35
0.0
146
0.0
 13
0.0
 23
0.0
 33
0.0
 16
1.0
 26
0.0
 36
0.0
 17
0.0
 27
1.0
 37
0.0
 76
     0
330
68
  0
LAYOUT
  5
73
102
{ACAD_XDICTIONARY
360
354
102
}
102
{ACAD_REACTORS
330
62
102
}
330
62
100
AcDbPlotSettings
  1

  2

  4

  6

 40
0.0
 41
0.0
 42
0.0
 43
0.0
 44
0.0
 45
0.0
 46
0.0
 47
0.0
 48
0.0
 49
0.0
140
0.0
141
0.0
142
1.0
143
1.0
 70
   688
 72
     0
 73
     0
 74
     5
  7

 75
    16
147
1.0
148
0.0
149
0.0
100
AcDbLayout
  1
Layout2
 70
     1
 71
     2
 10
0.0
 20
0.0
 11
12.0
 21
9.0
 12
0.0
 22
0.0
 32
0.0
 14
0.0
 24
0.0
 34
0.0
 15
0.0
 25
0.0
 35
0.0
146
0.0
 13
0.0
 23
0.0
 33
0.0
 16
1.0
 26
0.0
 36
0.0
 17
0.0
 27
1.0
 37
0.0
 76
     0
330
70
  0
LAYOUT
  5
6F
102
{ACAD_XDICTIONARY
360
352
102
}
102
{ACAD_REACTORS
330
62
102
}
330
62
100
AcDbPlotSettings
  1

  2

  4

  6

 40
0.0
 41
0.0
 42
0.0
 43
0.0
 44
0.0
 45
0.0
 46
0.0
 47
0.0
 48
0.0
 49
0.0
140
0.0
141
0.0
142
1.0
143
1.0
 70
  1712
 72
     0
 73
     0
 74
     0
  7

 75
     0
147
1.0
148
0.0
149
0.0
100
AcDbLayout
  1
Model
 70
     1
 71
     0
 10
0.0
 20
0.0
 11
12.0
 21
9.0
 12
0.0
 22
0.0
 32
0.0
 14
0.0
 24
0.0
 34
0.0
 15
0.0
 25
0.0
 35
0.0
146
0.0
 13
0.0
 23
0.0
 33
0.0
 16
1.0
 26
0.0
 36
0.0
 17
0.0
 27
1.0
 37
0.0
 76
     0
330
6C
331
57
  0
MATERIAL
  5
19
102
{ACAD_XDICTIONARY
360
1A
102
}
102
{ACAD_REACTORS
330
10
102
}
330
10
100
AcDbMaterial
  1
ByBlock
 72
     0
 43
0.0208333333333333
 43
0.0
 43
0.0
 43
0.0
 43
0.0
 43
0.0208333333333333
 43
0.0
 43
0.0
 43
0.0
 43
0.0
 43
1.0
 43
0.0
 43
0.0
 43
0.0
 43
0.0
 43
1.0
 77
     0
 47
0.0208333333333333
 47
0.0
 47
0.0
 47
0.0
 47
0.0
 47
0.0208333333333333
 47
0.0
 47
0.0
 47
0.0
 47
0.0
 47
1.0
 47
0.0
 47
0.0
 47
0.0
 47
0.0
 47
1.0
171
     0
 49
0.0208333333333333
 49
0.0
 49
0.0
 49
0.0
 49
0.0
 49
0.0208333333333333
 49
0.0
 49
0.0
 49
0.0
 49
0.0
 49
1.0
 49
0.0
 49
0.0
 49
0.0
 49
0.0
 49
1.0
175
     0
142
0.0208333333333333
142
0.0
142
0.0
142
0.0
142
0.0
142
0.0208333333333333
142
0.0
142
0.0
142
0.0
142
0.0
142
1.0
142
0.0
142
0.0
142
0.0
142
0.0
142
1.0
179
     0
144
0.0208333333333333
144
0.0
144
0.0
144
0.0
144
0.0
144
0.0208333333333333
144
0.0
144
0.0
144
0.0
144
0.0
144
1.0
144
0.0
144
0.0
144
0.0
144
0.0
144
1.0
147
0.0208333333333333
147
0.0
147
0.0
147
0.0
147
0.0
147
0.0208333333333333
147
0.0
147
0.0
147
0.0
147
0.0
147
1.0
147
0.0
147
0.0
147
0.0
147
0.0
147
1.0
  0
MATERIAL
  5
11
102
{ACAD_XDICTIONARY
360
12
102
}
102
{ACAD_REACTORS
330
10
102
}
330
10
100
AcDbMaterial
  1
ByLayer
 72
     0
 43
0.0208333333333333
 43
0.0
 43
0.0
 43
0.0
 43
0.0
 43
0.0208333333333333
 43
0.0
 43
0.0
 43
0.0
 43
0.0
 43
1.0
 43
0.0
 43
0.0
 43
0.0
 43
0.0
 43
1.0
 77
     0
 47
0.0208333333333333
 47
0.0
 47
0.0
 47
0.0
 47
0.0
 47
0.0208333333333333
 47
0.0
 47
0.0
 47
0.0
 47
0.0
 47
1.0
 47
0.0
 47
0.0
 47
0.0
 47
0.0
 47
1.0
171
     0
 49
0.0208333333333333
 49
0.0
 49
0.0
 49
0.0
 49
0.0
 49
0.0208333333333333
 49
0.0
 49
0.0
 49
0.0
 49
0.0
 49
1.0
 49
0.0
 49
0.0
 49
0.0
 49
0.0
 49
1.0
175
     0
142
0.0208333333333333
142
0.0
142
0.0
142
0.0
142
0.0
142
0.0208333333333333
142
0.0
142
0.0
142
0.0
142
0.0
142
1.0
142
0.0
142
0.0
142
0.0
142
0.0
142
1.0
179
     0
144
0.0208333333333333
144
0.0
144
0.0
144
0.0
144
0.0
144
0.0208333333333333
144
0.0
144
0.0
144
0.0
144
0.0
144
1.0
144
0.0
144
0.0
144
0.0
144
0.0
144
1.0
147
0.0208333333333333
147
0.0
147
0.0
147
0.0
147
0.0
147
0.0208333333333333
147
0.0
147
0.0
147
0.0
147
0.0
147
1.0
147
0.0
147
0.0
147
0.0
147
0.0
147
1.0
  0
MATERIAL
  5
21
102
{ACAD_XDICTIONARY
360
22
102
}
102
{ACAD_REACTORS
330
10
102
}
330
10
100
AcDbMaterial
  1
Global
 72
     0
 43
0.0208333333333333
 43
0.0
 43
0.0
 43
0.0
 43
0.0
 43
0.0208333333333333
 43
0.0
 43
0.0
 43
0.0
 43
0.0
 43
1.0
 43
0.0
 43
0.0
 43
0.0
 43
0.0
 43
1.0
 77
     0
 47
0.0208333333333333
 47
0.0
 47
0.0
 47
0.0
 47
0.0
 47
0.0208333333333333
 47
0.0
 47
0.0
 47
0.0
 47
0.0
 47
1.0
 47
0.0
 47
0.0
 47
0.0
 47
0.0
 47
1.0
171
     0
 49
0.0208333333333333
 49
0.0
 49
0.0
 49
0.0
 49
0.0
 49
0.0208333333333333
 49
0.0
 49
0.0
 49
0.0
 49
0.0
 49
1.0
 49
0.0
 49
0.0
 49
0.0
 49
0.0
 49
1.0
175
     0
142
0.0208333333333333
142
0.0
142
0.0
142
0.0
142
0.0
142
0.0208333333333333
142
0.0
142
0.0
142
0.0
142
0.0
142
1.0
142
0.0
142
0.0
142
0.0
142
0.0
142
1.0
179
     0
144
0.0208333333333333
144
0.0
144
0.0
144
0.0
144
0.0
144
0.0208333333333333
144
0.0
144
0.0
144
0.0
144
0.0
144
1.0
144
0.0
144
0.0
144
0.0
144
0.0
144
1.0
147
0.0208333333333333
147
0.0
147
0.0
147
0.0
147
0.0
147
0.0208333333333333
147
0.0
147
0.0
147
0.0
147
0.0
147
1.0
147
0.0
147
0.0
147
0.0
147
0.0
147
1.0
  0
MLEADERSTYLE
  5
67
102
{ACAD_XDICTIONARY
360
318
102
}
102
{ACAD_REACTORS
330
66
102
}
330
66
100
AcDbMLeaderStyle
170
     2
171
     1
172
     0
 90
        2
 40
0.0
 41
0.0
173
     1
 91
-1056964608
340
5B
 92
       -2
290
     1
 42
0.09
291
     1
 43
0.36
  3
Standard
 44
0.18
300

342
55
174
     1
178
     6
175
     1
176
     0
 93
-1056964608
 45
0.18
292
     0
297
     0
 46
0.18
 94
-1056964608
 47
1.0
 49
1.0
140
1.0
293
     1
141
0.0
294
     1
177
     0
142
1.0
295
     0
296
     0
143
0.125
1001
ACAD_MLEADERVER
1070
     2
  0
MLINESTYLE
  5
60
102
{ACAD_REACTORS
330
5F
102
}
330
5F
100
AcDbMlineStyle
  2
STANDARD
 70
     0
  3

 62
   256
 51
90.0
 52
90.0
 71
     2
 49
0.5
 62
   256
  6
BYLAYER
 49
-0.5
 62
   256
  6
BYLAYER
  0
ACDBPLACEHOLDER
  5
F
102
{ACAD_REACTORS
330
E
102
}
330
E
  0
SCALE
  5
43
102
{ACAD_REACTORS
330
42
102
}
330
42
100
AcDbScale
 70
     0
300
1:1
140
1.0
141
1.0
290
     1
  0
SCALE
  5
44
102
{ACAD_REACTORS
330
42
102
}
330
42
100
AcDbScale
 70
     0
300
1/128" = 1'-0"
140
0.0078125
141
12.0
290
     0
  0
SCALE
  5
45
102
{ACAD_REACTORS
330
42
102
}
330
42
100
AcDbScale
 70
     0
300
1/64" = 1'-0"
140
0.015625
141
12.0
290
     0
  0
SCALE
  5
46
102
{ACAD_REACTORS
330
42
102
}
330
42
100
AcDbScale
 70
     0
300
1/32" = 1'-0"
140
0.03125
141
12.0
290
     0
  0
SCALE
  5
47
102
{ACAD_REACTORS
330
42
102
}
330
42
100
AcDbScale
 70
     0
300
1/16" = 1'-0"
140
0.0625
141
12.0
290
     0
  0
SCALE
  5
48
102
{ACAD_REACTORS
330
42
102
}
330
42
100
AcDbScale
 70
     0
300
3/32" = 1'-0"
140
0.09375
141
12.0
290
     0
  0
SCALE
  5
49
102
{ACAD_REACTORS
330
42
102
}
330
42
100
AcDbScale
 70
     0
300
1/8" = 1'-0"
140
0.125
141
12.0
290
     0
  0
SCALE
  5
4A
102
{ACAD_REACTORS
330
42
102
}
330
42
100
AcDbScale
 70
     0
300
3/16" = 1'-0"
140
0.1875
141
12.0
290
     0
  0
SCALE
  5
4B
102
{ACAD_REACTORS
330
42
102
}
330
42
100
AcDbScale
 70
     0
300
1/4" = 1'-0"
140
0.25
141
12.0
290
     0
  0
SCALE
  5
4C
102
{ACAD_REACTORS
330
42
102
}
330
42
100
AcDbScale
 70
     0
300
3/8" = 1'-0"
140
0.375
141
12.0
290
     0
  0
SCALE
  5
4D
102
{ACAD_REACTORS
330
42
102
}
330
42
100
AcDbScale
 70
     0
300
1/2" = 1'-0"
140
0.5
141
12.0
290
     0
  0
SCALE
  5
4E
102
{ACAD_REACTORS
330
42
102
}
330
42
100
AcDbScale
 70
     0
300
3/4" = 1'-0"
140
0.75
141
12.0
290
     0
  0
SCALE
  5
4F
102
{ACAD_REACTORS
330
42
102
}
330
42
100
AcDbScale
 70
     0
300
1" = 1'-0"
140
1.0
141
12.0
290
     0
  0
SCALE
  5
50
102
{ACAD_REACTORS
330
42
102
}
330
42
100
AcDbScale
 70
     0
300
1-1/2" = 1'-0"
140
1.5
141
12.0
290
     0
  0
SCALE
  5
51
102
{ACAD_REACTORS
330
42
102
}
330
42
100
AcDbScale
 70
     0
300
3" = 1'-0"
140
3.0
141
12.0
290
     0
  0
SCALE
  5
52
102
{ACAD_REACTORS
330
42
102
}
330
42
100
AcDbScale
 70
     0
300
6" = 1'-0"
140
6.0
141
12.0
290
     0
  0
SCALE
  5
53
102
{ACAD_REACTORS
330
42
102
}
330
42
100
AcDbScale
 70
     0
300
1'-0" = 1'-0"
140
12.0
141
12.0
290
     0
  0
TABLESTYLE
  5
65
102
{ACAD_XDICTIONARY
360
2C3
102
}
102
{ACAD_REACTORS
330
64
102
}
330
64
100
AcDbTableStyle
  3
Standard
 70
     0
 71
     0
 40
0.06
 41
0.06
280
     0
281
     0
  7
Standard
140
0.18
170
     2
 62
     0
 63
     7
283
     0
274
    -2
284
     1
 64
     0
275
    -2
285
     1
 65
     0
276
    -2
286
     1
 66
     0
277
    -2
287
     1
 67
     0
278
    -2
288
     1
 68
     0
279
    -2
289
     1
 69
     0
  7
Standard
140
0.25
170
     5
 62
     0
 63
     7
283
     0
274
    -2
284
     1
 64
     0
275
    -2
285
     1
 65
     0
276
    -2
286
     1
 66
     0
277
    -2
287
     1
 67
     0
278
    -2
288
     1
 68
     0
279
    -2
289
     1
 69
     0
  7
Standard
140
0.18
170
     5
 62
     0
 63
     7
283
     0
274
    -2
284
     1
 64
     0
275
    -2
285
     1
 65
     0
276
    -2
286
     1
 66
     0
277
    -2
287
     1
 67
     0
278
    -2
288
     1
 68
     0
279
    -2
289
     1
 69
     0
  0
VISUALSTYLE
  5
2F
102
{ACAD_XDICTIONARY
360
329
102
}
102
{ACAD_REACTORS
330
29
102
}
330
29
100
AcDbVisualStyle
  2
2dWireframe
 70
     4
 71
     0
 72
     2
 73
     0
 90
        0
 40
-0.6
 41
-30.0
 62
     5
 63
     7
 74
     1
 91
        4
 64
     7
 65
   257
 75
     1
175
     1
 42
1.0
 92
        0
 66
   257
 43
1.0
 76
     1
 77
     6
 78
     2
 67
     7
 79
     5
170
     0
171
     0
290
     0
174
     0
 93
        1
 44
0.0
173
     0
291
     0
 45
0.0
1001
ACAD
1000
AcDbSavedByObjectVersion
1070
     0
  0
VISUALSTYLE
  5
2E
102
{ACAD_XDICTIONARY
360
327
102
}
102
{ACAD_REACTORS
330
29
102
}
330
29
100
AcDbVisualStyle
  2
Basic
 70
     7
 71
     1
 72
     0
 73
     1
 90
        0
 40
-0.6
 41
-30.0
 62
     5
 63
     7
 74
     0
 91
        4
 64
     7
 65
   257
 75
     1
175
     1
 42
1.0
 92
        8
 66
     7
 43
1.0
 76
     1
 77
     6
 78
     2
 67
     7
 79
     5
170
     0
171
     0
290
     0
174
     0
 93
        1
 44
0.0
173
     0
291
     1
 45
0.0
1001
ACAD
1000
AcDbSavedByObjectVersion
1070
     0
  0
VISUALSTYLE
  5
35
102
{ACAD_XDICTIONARY
360
335
102
}
102
{ACAD_REACTORS
330
29
102
}
330
29
100
AcDbVisualStyle
  2
Brighten
 70
    12
 71
     2
 72
     2
 73
     0
 90
        0
 40
-0.6
 41
-30.0
 62
     5
 63
     7
 74
     1
 91
        4
 64
     7
 65
   257
 75
     1
175
     1
 42
1.0
 92
        8
 66
     7
 43
1.0
 76
     1
 77
     6
 78
     2
 67
     7
 79
     5
170
     0
171
     0
290
     0
174
     0
 93
        1
 44
50.0
173
     0
291
     1
 45
0.0
1001
ACAD
1000
AcDbSavedByObjectVersion
1070
     0
  0
VISUALSTYLE
  5
39
102
{ACAD_XDICTIONARY
360
33D
102
}
102
{ACAD_REACTORS
330
29
102
}
330
29
100
AcDbVisualStyle
  2
ColorChange
 70
    16
 71
     2
 72
     2
 73
     3
 90
        0
 40
-0.6
 41
-30.0
 62
     5
 63
     8
 74
     1
 91
        4
 64
     7
 65
   257
 75
     1
175
     1
 42
1.0
 92
        8
 66
     8
 43
1.0
 76
     1
 77
     6
 78
     2
 67
     7
 79
     5
170
     0
171
     0
290
     0
174
     0
 93
        1
 44
0.0
173
     0
291
     1
 45
0.0
1001
ACAD
1000
AcDbSavedByObjectVersion
1070
     0
  0
VISUALSTYLE
  5
32
102
{ACAD_XDICTIONARY
360
32F
102
}
102
{ACAD_REACTORS
330
29
102
}
330
29
100
AcDbVisualStyle
  2
Conceptual
 70
     9
 71
     3
 72
     2
 73
     0
 90
        0
 40
-0.6
 41
-30.0
 62
     5
 63
     7
 74
     2
 91
        2
 64
     7
 65
   257
 75
     1
175
     1
 42
179.0
 92
        8
 66
     7
 43
1.0
 76
     1
 77
     6
 78
     2
 67
     7
 79
     3
170
     0
171
     0
290
     0
174
     0
 93
        1
 44
0.0
173
     0
291
     0
 45
0.0
1001
ACAD
1000
AcDbSavedByObjectVersion
1070
     0
  0
VISUALSTYLE
  5
34
102
{ACAD_XDICTIONARY
360
333
102
}
102
{ACAD_REACTORS
330
29
102
}
330
29
100
AcDbVisualStyle
  2
Dim
 70
    11
 71
     2
 72
     2
 73
     0
 90
        0
 40
-0.6
 41
-30.0
 62
     5
 63
     7
 74
     1
 91
        4
 64
     7
 65
   257
 75
     1
175
     1
 42
1.0
 92
        8
 66
     7
 43
1.0
 76
     1
 77
     6
 78
     2
 67
     7
 79
     5
170
     0
171
     0
290
     0
174
     0
 93
        1
 44
-50.0
173
     0
291
     1
 45
0.0
1001
ACAD
1000
AcDbSavedByObjectVersion
1070
     0
  0
VISUALSTYLE
  5
41
102
{ACAD_XDICTIONARY
360
34D
102
}
102
{ACAD_REACTORS
330
29
102
}
330
29
100
AcDbVisualStyle
  2
EdgeColorOff
 70
    22
 71
     2
 72
     2
 73
     0
 90
        0
 40
-0.6
 41
-30.0
 62
     5
 63
     7
 74
     1
 91
        4
 64
     7
 65
   257
 75
     1
175
     1
 42
1.0
 92
        8
 66
     7
 43
1.0
 76
     1
 77
     6
 78
     2
 67
     7
 79
     5
170
     0
171
     0
290
     0
174
     0
 93
        1
 44
0.0
173
     0
291
     1
 45
0.0
1001
ACAD
1000
AcDbSavedByObjectVersion
1070
     0
  0
VISUALSTYLE
  5
38
102
{ACAD_XDICTIONARY
360
33B
102
}
102
{ACAD_REACTORS
330
29
102
}
330
29
100
AcDbVisualStyle
  2
Facepattern
 70
    15
 71
     2
 72
     2
 73
     0
 90
        0
 40
-0.6
 41
-30.0
 62
     5
 63
     7
 74
     1
 91
        4
 64
     7
 65
   257
 75
     1
175
     1
 42
1.0
 92
        8
 66
     7
 43
1.0
 76
     1
 77
     6
 78
     2
 67
     7
 79
     5
170
     0
171
     0
290
     0
174
     0
 93
        1
 44
0.0
173
     0
291
     1
 45
0.0
1001
ACAD
1000
AcDbSavedByObjectVersion
1070
     0
  0
VISUALSTYLE
  5
2A
102
{ACAD_XDICTIONARY
360
31F
102
}
102
{ACAD_REACTORS
330
29
102
}
330
29
100
AcDbVisualStyle
  2
Flat
 70
     0
 71
     2
 72
     1
 73
     1
 90
        2
 40
-0.6
 41
30.0
 62
     5
 63
     7
 74
     0
 91
        0
 64
     7
 65
   257
 75
     1
175
     1
 42
1.0
 92
        8
 66
     7
 43
1.0
 76
     1
 77
     6
 78
     2
 67
     7
 79
     5
170
     0
171
     0
290
     0
174
     0
 93
       13
 44
0.0
173
     0
291
     1
 45
0.0
1001
ACAD
1000
AcDbSavedByObjectVersion
1070
     0
  0
VISUALSTYLE
  5
2B
102
{ACAD_XDICTIONARY
360
321
102
}
102
{ACAD_REACTORS
330
29
102
}
330
29
100
AcDbVisualStyle
  2
FlatWithEdges
 70
     1
 71
     2
 72
     1
 73
     1
 90
        2
 40
-0.6
 41
30.0
 62
     5
 63
     7
 74
     1
 91
        0
 64
     7
 65
   257
 75
     1
175
     1
 42
1.0
 92
        0
 66
   257
 43
1.0
 76
     1
 77
     6
 78
     2
 67
     7
 79
     5
170
     0
171
     0
290
     0
174
     0
 93
       13
 44
0.0
173
     0
291
     1
 45
0.0
1001
ACAD
1000
AcDbSavedByObjectVersion
1070
     0
  0
VISUALSTYLE
  5
2C
102
{ACAD_XDICTIONARY
360
323
102
}
102
{ACAD_REACTORS
330
29
102
}
330
29
100
AcDbVisualStyle
  2
Gouraud
 70
     2
 71
     2
 72
     2
 73
     1
 90
        2
 40
-0.6
 41
30.0
 62
     5
 63
     7
 74
     0
 91
        0
 64
     7
 65
   257
 75
     1
175
     1
 42
1.0
 92
        0
 66
     7
 43
1.0
 76
     1
 77
     6
 78
     2
 67
     7
 79
     5
170
     0
171
     0
290
     0
174
     0
 93
       13
 44
0.0
173
     0
291
     1
 45
0.0
1001
ACAD
1000
AcDbSavedByObjectVersion
1070
     0
  0
VISUALSTYLE
  5
2D
102
{ACAD_XDICTIONARY
360
325
102
}
102
{ACAD_REACTORS
330
29
102
}
330
29
100
AcDbVisualStyle
  2
GouraudWithEdges
 70
     3
 71
     2
 72
     2
 73
     1
 90
        2
 40
-0.6
 41
30.0
 62
     5
 63
     7
 74
     1
 91
        0
 64
     7
 65
   257
 75
     1
175
     1
 42
1.0
 92
        0
 66
   257
 43
1.0
 76
     1
 77
     6
 78
     2
 67
     7
 79
     5
170
     0
171
     0
290
     0
174
     0
 93
       13
 44
0.0
173
     0
291
     1
 45
0.0
1001
ACAD
1000
AcDbSavedByObjectVersion
1070
     0
  0
VISUALSTYLE
  5
31
102
{ACAD_XDICTIONARY
360
32D
102
}
102
{ACAD_REACTORS
330
29
102
}
330
29
100
AcDbVisualStyle
  2
Hidden
 70
     6
 71
     1
 72
     2
 73
     2
 90
        0
 40
-0.6
 41
-30.0
 62
     5
 63
     7
 74
     2
 91
        2
 64
     7
 65
   257
 75
     2
175
     1
 42
40.0
 92
        0
 66
   257
 43
1.0
 76
     1
 77
     6
 78
     2
 67
     7
 79
     3
170
     0
171
     0
290
     0
174
     0
 93
        1
 44
0.0
173
     0
291
     0
 45
0.0
1001
ACAD
1000
AcDbSavedByObjectVersion
1070
     0
  0
VISUALSTYLE
  5
3F
102
{ACAD_XDICTIONARY
360
349
102
}
102
{ACAD_REACTORS
330
29
102
}
330
29
100
AcDbVisualStyle
  2
JitterOff
 70
    20
 71
     2
 72
     2
 73
     0
 90
        0
 40
-0.6
 41
-30.0
 62
     5
 63
     7
 74
     1
 91
        4
 64
     7
 65
   257
 75
     1
175
     1
 42
1.0
 92
       10
 66
     7
 43
1.0
 76
     1
 77
     6
 78
     2
 67
     7
 79
     5
170
     0
171
     0
290
     0
174
     0
 93
        1
 44
0.0
173
     0
291
     1
 45
0.0
1001
ACAD
1000
AcDbSavedByObjectVersion
1070
     0
  0
VISUALSTYLE
  5
37
102
{ACAD_XDICTIONARY
360
339
102
}
102
{ACAD_REACTORS
330
29
102
}
330
29
100
AcDbVisualStyle
  2
Linepattern
 70
    14
 71
     2
 72
     2
 73
     0
 90
        0
 40
-0.6
 41
-30.0
 62
     5
 63
     7
 74
     1
 91
        4
 64
     7
 65
   257
 75
     7
175
     7
 42
1.0
 92
        8
 66
     7
 43
1.0
 76
     1
 77
     6
 78
     2
 67
     7
 79
     5
170
     0
171
     0
290
     0
174
     0
 93
        1
 44
0.0
173
     0
291
     1
 45
0.0
1001
ACAD
1000
AcDbSavedByObjectVersion
1070
     0
  0
VISUALSTYLE
  5
40
102
{ACAD_XDICTIONARY
360
34B
102
}
102
{ACAD_REACTORS
330
29
102
}
330
29
100
AcDbVisualStyle
  2
OverhangOff
 70
    21
 71
     2
 72
     2
 73
     0
 90
        0
 40
-0.6
 41
-30.0
 62
     5
 63
     7
 74
     1
 91
        4
 64
     7
 65
   257
 75
     1
175
     1
 42
1.0
 92
        9
 66
     7
 43
1.0
 76
     1
 77
     6
 78
     2
 67
     7
 79
     5
170
     0
171
     0
290
     0
174
     0
 93
        1
 44
0.0
173
     0
291
     1
 45
0.0
1001
ACAD
1000
AcDbSavedByObjectVersion
1070
     0
  0
VISUALSTYLE
  5
33
102
{ACAD_XDICTIONARY
360
331
102
}
102
{ACAD_REACTORS
330
29
102
}
330
29
100
AcDbVisualStyle
  2
Realistic
 70
     8
 71
     2
 72
     2
 73
     0
 90
        2
 40
-0.6
 41
30.0
 62
     5
 63
     7
 74
     0
 91
        0
 64
     7
 65
   257
 75
     1
175
     1
 42
1.0
 92
        8
 66
   257
 43
1.0
 76
     1
 77
     6
 78
     2
 67
     7
 79
     3
170
     0
171
     0
290
     0
174
     0
 93
       13
 44
0.0
173
     0
291
     0
 45
0.0
1001
ACAD
1000
AcDbSavedByObjectVersion
1070
     0
  0
VISUALSTYLE
  5
3E
102
{ACAD_XDICTIONARY
360
347
102
}
102
{ACAD_REACTORS
330
29
102
}
330
29
100
AcDbVisualStyle
  2
Shaded
 70
    27
 71
     2
 72
     2
 73
     1
 90
        2
 40
-0.6
 41
30.0
 62
     5
 63
     7
 74
     0
 91
        4
 64
     7
 65
   257
 75
     1
175
     1
 42
1.0
 92
        8
 66
   257
 43
1.0
 76
     1
 77
     6
 78
     2
 67
     8
 79
     3
170
     0
171
     0
290
     0
174
     0
 93
        5
 44
0.0
173
     0
291
     0
 45
0.0
1001
ACAD
1000
AcDbSavedByObjectVersion
1070
     0
  0
VISUALSTYLE
  5
3D
102
{ACAD_XDICTIONARY
360
345
102
}
102
{ACAD_REACTORS
330
29
102
}
330
29
100
AcDbVisualStyle
  2
Shaded with edges
 70
    26
 71
     2
 72
     2
 73
     1
 90
        2
 40
-0.6
 41
30.0
 62
     5
 63
     7
 74
     1
 91
       10
 64
     7
 65
   257
 75
     2
175
     1
 42
1.0
 92
        8
 66
   257
 43
1.0
 76
     1
 77
     6
 78
     2
 67
     7
 79
     3
170
     0
171
     0
290
     0
174
     0
 93
        5
 44
0.0
173
     0
291
     0
 45
0.0
1001
ACAD
1000
AcDbSavedByObjectVersion
1070
     0
  0
VISUALSTYLE
  5
3A
102
{ACAD_XDICTIONARY
360
33F
102
}
102
{ACAD_REACTORS
330
29
102
}
330
29
100
AcDbVisualStyle
  2
Shades of Gray
 70
    23
 71
     2
 72
     2
 73
     3
 90
        0
 40
-0.6
 41
-30.0
 62
     5
 63
     7
 74
     2
 91
        2
 64
     7
 65
     7
 75
     1
175
     1
 42
40.0
 92
        8
 66
     7
 43
1.0
 76
     1
 77
     6
 78
     2
 67
     7
 79
     3
170
     0
171
     0
290
     0
174
     0
 93
        1
 44
0.0
173
     0
291
     0
 45
0.0
1001
ACAD
1000
AcDbSavedByObjectVersion
1070
     0
  0
VISUALSTYLE
  5
3B
102
{ACAD_XDICTIONARY
360
341
102
}
102
{ACAD_REACTORS
330
29
102
}
330
29
100
AcDbVisualStyle
  2
Sketchy
 70
    24
 71
     1
 72
     2
 73
     2
 90
        0
 40
-0.6
 41
-30.0
 62
     5
 63
     7
 74
     2
 91
        2
 64
     7
 65
     7
 75
     1
175
     1
 42
40.0
 92
       11
 66
     7
 43
1.0
 76
     1
 77
     6
 78
     2
 67
     7
 79
     6
170
     0
171
     0
290
     0
174
     0
 93
        1
 44
0.0
173
     0
291
     0
 45
0.0
1001
ACAD
1000
AcDbSavedByObjectVersion
1070
     0
  0
VISUALSTYLE
  5
36
102
{ACAD_XDICTIONARY
360
337
102
}
102
{ACAD_REACTORS
330
29
102
}
330
29
100
AcDbVisualStyle
  2
Thicken
 70
    13
 71
     2
 72
     2
 73
     0
 90
        0
 40
-0.6
 41
-30.0
 62
     5
 63
     7
 74
     1
 91
        4
 64
     7
 65
   257
 75
     1
175
     1
 42
1.0
 92
       12
 66
     7
 43
1.0
 76
     1
 77
     6
 78
     2
 67
     7
 79
     5
170
     0
171
     0
290
     0
174
     0
 93
        1
 44
0.0
173
     0
291
     1
 45
0.0
1001
ACAD
1000
AcDbSavedByObjectVersion
1070
     0
  0
VISUALSTYLE
  5
30
102
{ACAD_XDICTIONARY
360
32B
102
}
102
{ACAD_REACTORS
330
29
102
}
330
29
100
AcDbVisualStyle
  2
Wireframe
 70
     5
 71
     0
 72
     2
 73
     0
 90
        0
 40
-0.6
 41
-30.0
 62
     5
 63
     7
 74
     1
 91
        4
 64
     7
 65
   257
 75
     1
175
     1
 42
1.0
 92
        0
 66
   257
 43
1.0
 76
     1
 77
     6
 78
     2
 67
     7
 79
     3
170
     0
171
     0
290
     0
174
     0
 93
        1
 44
0.0
173
     0
291
     0
 45
0.0
1001
ACAD
1000
AcDbSavedByObjectVersion
1070
     0
  0
VISUALSTYLE
  5
3C
102
{ACAD_XDICTIONARY
360
343
102
}
102
{ACAD_REACTORS
330
29
102
}
330
29
100
AcDbVisualStyle
  2
X-Ray
 70
    25
 71
     2
 72
     2
 73
     1
 90
        1
 40
0.5
 41
-30.0
 62
     5
 63
     7
 74
     1
 91
        0
 64
     7
 65
   257
 75
     1
175
     1
 42
1.0
 92
        8
 66
     7
 43
1.0
 76
     1
 77
     6
 78
     2
 67
     7
 79
     3
170
     0
171
     0
290
     0
174
     0
 93
       13
 44
0.0
173
     0
291
     0
 45
0.0
1001
ACAD
1000
AcDbSavedByObjectVersion
1070
     0
  0
DICTIONARYVAR
  5
79
102
{ACAD_REACTORS
330
76
102
}
330
76
100
DictionaryVariables
280
     0
  1
1:1
  0
DICTIONARYVAR
  5
78
102
{ACAD_REACTORS
330
76
102
}
330
76
100
DictionaryVariables
280
     0
  1
STANDARD
  0
DICTIONARYVAR
  5
77
102
{ACAD_REACTORS
330
76
102
}
330
76
100
DictionaryVariables
280
     0
  1
STANDARD
  0
DICTIONARYVAR
  5
30D
102
{ACAD_REACTORS
330
76
102
}
330
76
100
DictionaryVariables
280
     0
  1
1
  0
DICTIONARYVAR
  5
30C
102
{ACAD_REACTORS
330
76
102
}
330
76
100
DictionaryVariables
280
     0
  1
1
  0
DICTIONARYVAR
  5
30B
102
{ACAD_REACTORS
330
76
102
}
330
76
100
DictionaryVariables
280
     0
  1
0
  0
DICTIONARYVAR
  5
308
102
{ACAD_REACTORS
330
76
102
}
330
76
100
DictionaryVariables
280
     0
  1
0
  0
DICTIONARYVAR
  5
309
102
{ACAD_REACTORS
330
76
102
}
330
76
100
DictionaryVariables
280
     0
  1
0
  0
DICTIONARYVAR
  5
307
102
{ACAD_REACTORS
330
76
102
}
330
76
100
DictionaryVariables
280
     0
  1
2
  0
DICTIONARYVAR
  5
306
102
{ACAD_REACTORS
330
76
102
}
330
76
100
DictionaryVariables
280
     0
  1
1
  0
DICTIONARYVAR
  5
30A
102
{ACAD_REACTORS
330
76
102
}
330
76
100
DictionaryVariables
280
     0
  1
127
  0
DICTIONARYVAR
  5
315
102
{ACAD_REACTORS
330
76
102
}
330
76
100
DictionaryVariables
280
     0
  1
2
  0
DICTIONARY
  5
350
330
6B
100
AcDbDictionary
280
     1
281
     1
  3
ACAD_XREC_ROUNDTRIP
360
351
  0
DICTIONARY
  5
354
330
73
100
AcDbDictionary
280
     1
281
     1
  3
ACAD_XREC_ROUNDTRIP
360
355
  0
DICTIONARY
  5
352
330
6F
100
AcDbDictionary
280
     1
281
     1
  3
ACAD_XREC_ROUNDTRIP
360
353
  0
DICTIONARY
  5
1A
330
19
100
AcDbDictionary
280
     1
281
     1
  3
ACAD_XREC_ROUNDTRIP
360
31D
  3
BUMPTILE
360
1C
  3
DIFFUSETILE
360
1B
  3
OPACITYTILE
360
1F
  3
REFLECTIONTILE
360
1E
  3
REFRACTIONTILE
360
20
  3
SPECULARTILE
360
1D
  0
DICTIONARY
  5
12
330
11
100
AcDbDictionary
280
     1
281
     1
  3
ACAD_XREC_ROUNDTRIP
360
31C
  3
BUMPTILE
360
14
  3
DIFFUSETILE
360
13
  3
FBXASSET
360
F9
  3
OPACITYTILE
360
17
  3
REFLECTIONTILE
360
16
  3
REFRACTIONTILE
360
18
  3
SPECULARTILE
360
15
  0
DICTIONARY
  5
22
330
21
100
AcDbDictionary
280
     1
281
     1
  3
ACAD_XREC_ROUNDTRIP
360
31E
  3
BUMPTILE
360
24
  3
DIFFUSETILE
360
23
  3
FBXASSET
360
BA
  3
OPACITYTILE
360
27
  3
REFLECTIONTILE
360
26
  3
REFRACTIONTILE
360
28
  3
SPECULARTILE
360
25
  0
DICTIONARY
  5
318
330
67
100
AcDbDictionary
280
     1
281
     1
  3
ACAD_XREC_ROUNDTRIP
360
319
  0
DICTIONARY
  5
2C3
330
65
100
AcDbDictionary
280
     1
281
     1
  3
ACAD_ROUNDTRIP_2008_TABLESTYLE_CELLSTYLEMAP
360
317
  3
ACAD_XREC_ROUNDTRIP
360
34F
  0
DICTIONARY
  5
329
330
2F
100
AcDbDictionary
280
     1
281
     1
  3
ACAD_XREC_ROUNDTRIP
360
32A
  0
DICTIONARY
  5
327
330
2E
100
AcDbDictionary
280
     1
281
     1
  3
ACAD_XREC_ROUNDTRIP
360
328
  0
DICTIONARY
  5
335
330
35
100
AcDbDictionary
280
     1
281
     1
  3
ACAD_XREC_ROUNDTRIP
360
336
  0
DICTIONARY
  5
33D
330
39
100
AcDbDictionary
280
     1
281
     1
  3
ACAD_XREC_ROUNDTRIP
360
33E
  0
DICTIONARY
  5
32F
330
32
100
AcDbDictionary
280
     1
281
     1
  3
ACAD_XREC_ROUNDTRIP
360
330
  0
DICTIONARY
  5
333
330
34
100
AcDbDictionary
280
     1
281
     1
  3
ACAD_XREC_ROUNDTRIP
360
334
  0
DICTIONARY
  5
34D
330
41
100
AcDbDictionary
280
     1
281
     1
  3
ACAD_XREC_ROUNDTRIP
360
34E
  0
DICTIONARY
  5
33B
330
38
100
AcDbDictionary
280
     1
281
     1
  3
ACAD_XREC_ROUNDTRIP
360
33C
  0
DICTIONARY
  5
31F
330
2A
100
AcDbDictionary
280
     1
281
     1
  3
ACAD_XREC_ROUNDTRIP
360
320
  0
DICTIONARY
  5
321
330
2B
100
AcDbDictionary
280
     1
281
     1
  3
ACAD_XREC_ROUNDTRIP
360
322
  0
DICTIONARY
  5
323
330
2C
100
AcDbDictionary
280
     1
281
     1
  3
ACAD_XREC_ROUNDTRIP
360
324
  0
DICTIONARY
  5
325
330
2D
100
AcDbDictionary
280
     1
281
     1
  3
ACAD_XREC_ROUNDTRIP
360
326
  0
DICTIONARY
  5
32D
330
31
100
AcDbDictionary
280
     1
281
     1
  3
ACAD_XREC_ROUNDTRIP
360
32E
  0
DICTIONARY
  5
349
330
3F
100
AcDbDictionary
280
     1
281
     1
  3
ACAD_XREC_ROUNDTRIP
360
34A
  0
DICTIONARY
  5
339
330
37
100
AcDbDictionary
280
     1
281
     1
  3
ACAD_XREC_ROUNDTRIP
360
33A
  0
DICTIONARY
  5
34B
330
40
100
AcDbDictionary
280
     1
281
     1
  3
ACAD_XREC_ROUNDTRIP
360
34C
  0
DICTIONARY
  5
331
330
33
100
AcDbDictionary
280
     1
281
     1
  3
ACAD_XREC_ROUNDTRIP
360
332
  0
DICTIONARY
  5
347
330
3E
100
AcDbDictionary
280
     1
281
     1
  3
ACAD_XREC_ROUNDTRIP
360
348
  0
DICTIONARY
  5
345
330
3D
100
AcDbDictionary
280
     1
281
     1
  3
ACAD_XREC_ROUNDTRIP
360
346
  0
DICTIONARY
  5
33F
330
3A
100
AcDbDictionary
280
     1
281
     1
  3
ACAD_XREC_ROUNDTRIP
360
340
  0
DICTIONARY
  5
341
330
3B
100
AcDbDictionary
280
     1
281
     1
  3
ACAD_XREC_ROUNDTRIP
360
342
  0
DICTIONARY
  5
337
330
36
100
AcDbDictionary
280
     1
281
     1
  3
ACAD_XREC_ROUNDTRIP
360
338
  0
DICTIONARY
  5
32B
330
30
100
AcDbDictionary
280
     1
281
     1
  3
ACAD_XREC_ROUNDTRIP
360
32C
  0
DICTIONARY
  5
343
330
3C
100
AcDbDictionary
280
     1
281
     1
  3
ACAD_XREC_ROUNDTRIP
360
344
  0
XRECORD
  5
351
102
{ACAD_REACTORS
330
350
102
}
330
350
100
AcDbXrecord
280
     1
102
SHADEPLOT
 70
     0
102
SHADEPLOTRESLEVEL
 70
     2
102
SHADEPLOTCUSTOMDPI
 70
   300
  0
XRECORD
  5
355
102
{ACAD_REACTORS
330
354
102
}
330
354
100
AcDbXrecord
280
     1
102
SHADEPLOT
 70
     0
102
SHADEPLOTRESLEVEL
 70
     2
102
SHADEPLOTCUSTOMDPI
 70
   300
  0
XRECORD
  5
353
102
{ACAD_REACTORS
330
352
102
}
330
352
100
AcDbXrecord
280
     1
102
SHADEPLOT
 70
     0
102
SHADEPLOTRESLEVEL
 70
     2
102
SHADEPLOTCUSTOMDPI
 70
   300
  0
XRECORD
  5
31D
102
{ACAD_REACTORS
330
1A
102
}
330
1A
100
AcDbXrecord
280
     1
102
MATERIAL
148
0.0
149
0.0
149
0.0
 93
        0
 94
      127
282
     0
 72
     0
 77
     0
171
     0
175
     0
179
     0
273
     0
  0
XRECORD
  5
1C
102
{ACAD_REACTORS
330
1A
102
}
330
1A
100
AcDbXrecord
280
     1
270
     1
271
     1
  0
XRECORD
  5
1B
102
{ACAD_REACTORS
330
1A
102
}
330
1A
100
AcDbXrecord
280
     1
270
     1
271
     1
  0
XRECORD
  5
1F
102
{ACAD_REACTORS
330
1A
102
}
330
1A
100
AcDbXrecord
280
     1
270
     1
271
     1
  0
XRECORD
  5
1E
102
{ACAD_REACTORS
330
1A
102
}
330
1A
100
AcDbXrecord
280
     1
270
     1
271
     1
  0
XRECORD
  5
20
102
{ACAD_REACTORS
330
1A
102
}
330
1A
100
AcDbXrecord
280
     1
270
     1
271
     1
  0
XRECORD
  5
1D
102
{ACAD_REACTORS
330
1A
102
}
330
1A
100
AcDbXrecord
280
     1
270
     1
271
     1
  0
XRECORD
  5
31C
102
{ACAD_REACTORS
330
12
102
}
330
12
100
AcDbXrecord
280
     1
102
MATERIAL
148
0.0
149
0.0
149
0.0
 93
        0
 94
      127
282
     0
 72
     0
 77
     0
171
     0
175
     0
179
     0
273
     0
  0
XRECORD
  5
14
102
{ACAD_REACTORS
330
12
102
}
330
12
100
AcDbXrecord
280
     1
270
     1
271
     1
  0
XRECORD
  5
13
102
{ACAD_REACTORS
330
12
102
}
330
12
100
AcDbXrecord
280
     1
270
     1
271
     1
  0
XRECORD
  5
F9
102
{ACAD_REACTORS
330
12
102
}
330
12
100
AcDbXrecord
280
     1
 70
     1
 90
1959938040
 71
     1
  1
BEA68FEC-FBC8-4AFA-8187-E2E7B5C25ECC
311
504B03040A0000080000686B94403DEE336E79000000790000001B0000006175746F6465736B2D64657369676E2D7061636B6167652E786D6C3C3F786D6C2076657273696F6E3D22312E302220656E636F64696E673D227574662D3822203F3E3C666F726D6174733E3C666F726D61743E687474703A2F2F736368656D612E
311
6175746F6465736B2E636F6D2F64657369676E2D7061636B6167652F323030393C2F666F726D61743E3C2F666F726D6174733E504B0304140006080800686B9440D486FD9CA0000000F4000000130000005B436F6E74656E745F54797065735D2E786D6C7D8EC10E82300C865F65E91D8A1E8C310C0EEA1BF002731658846E
311
D98AC1B77784ABF1D8FE5FBFBF75BBCE937A534CCEB38643598122B6FEE978D0B0485F9C41B54DDD7D022595594E1A469170414C76A4D9A4D207E29CF43ECE46F218070CC6BECC4078ACAA135ACF422C856C0E68EA1BF5669944DDD7BCDE7B1F8E415D77AECB980613C2E4AC91FC167A2B244592486606FC29C8FD7F045B9A
311
EF7053A7E60B504B0304140006080800686B9440D375FB22EA0000007C01000008000000636F72652E786D6C8D90416EC3201045AF82668F0DD84E90858992D63E412F8030715162B00C543D7E71E248EDAEAB19FDF96F66F4C5E97BBEA32FB306EB5D07B420808CD37EB46EEA20C52BE6804E52ACDEC75F36404ECDA6834D
311
0629A6D5A76597B477D1B89855E747B38B2A041301E97B6E3A08FAD3CCAA50296647B8158BD237359982BEBA0CA76447F43C62C7BCCF5EAD59410E97F3DBD05C2ACC0746715D1F083EF7B4C13D6F7AFE4E1A7EA807516EB014D1CEAFFB7A352A9A11242394615263463E68D5B2634B8F98F09610516EF63F505AC67F42C9BA
311
58B1FDDD271640D2FCC8632045B96591CB23A85CB7DCE40F504B0304140006080800686B944055019EA25F0000007C00000007000000636E782E786D6C4DCB3B0E80201045D1AD90E915ED2CF8AC45050C11660C8261F98AB1B07AC9C97D42D718D865D3E909258CFD00CCE24AC6E326A164D74DC0B4128928FF326038472B
311
A13128B1252AC747C6BAB984FC68F0B87FE8960A5C09FE86CFB69FBA01504B0304140006080800686B9440DCF728F566010000020300000C0000006662782F636F72652E786D6C8D52ED8E8320107C15C27F04ADB6A6419AF6AE3EC1BD0055EA992A1804D3C7BFF5A3F17A699A8B0992999DDDD9517EB8B70D1A94ED6BA333
311
1C060C23A50B53D6BACAB0775792627410DC1AE37E9561A465AB323CC258F0CA1ADF2D5061B453DA01AA4DA91650F6BD7218150D5C32DC17DFAA9581F40E2AFA5BD0C9E2262B158401D0502778EF2C1840F390F1C4E27AB9733AE3827B5F970B5B9730ADBED6CA62919F8E1F7972DA90348F4212C75B468EE73021E73439A7
311
9F2C49B771CEE92816DCD5EDC35D619574AAC422626144584C22F6156EF6D16E1FEE084BF78C713A963F897C57FE53E46BED36D1627796F55884606422FE6C0B1139D4CB01FC50C1E91822BCA6849F8386402064272FCD638F1B40832A9CB13130A5F12B35C8C62B98CAD0F4703AB3D0796A009BBDEC13BDE9F3BE077C40A9
311
2BB0261D5C2FDE8DD3F93C7589A253960CEE8EB4B1AD6C5673B3C5F55C07BD9417A631F63F6ABAAC4A9730E9F8F78A1F504B0304140006080800686B9440E270B1977D0000009D0000000B0000006662782F636E782E786D6C4DCCD10AC2201886E15B91FFDCA62C25411D39ED3E467343721AE6A2CB6F8B1D74F4C1C3C72B
311
BBCF12D1DB9757C849013D11403EDDF318D2AC60AD13BE00EAB42C39D7BF1BA0342C5EC1CEA0E55CF2FA3C68F4D3B0C6BA690CE971A0E0CE194708662DE3F8DC5A83C5ADA798F26B6F0431D658068D96CDAFB4ED1ED65F504B0304140006080800686B944023E9FEAB2E01000015020000310000006662782F393645454245
311
30302D353335362D343344422D394643312D3136414342393042444244352F636F72652E786D6C8D51CB6EC32010FC15C4293D6083EDE024C24475927E417FC00192A2C460F1A8F2F985DA91DA5B2E2C9A9D991DEDB2FD63BC836FE5BCB6A683A4C0102823ACD4E6DAC1182E6803C19E33676DF84383C00CA3EA6086216757
311
67E3B440C29AA04C48A8B1522DE0E0BD0A10887BFA74D08B2F350EC5104362F85B310DE2365C55418AD44E3CCE7C7029009887E417F22D3D9DFA13C6685DAF296AEA638FB61F0782087D3FF45BDC1FFBE39A95B390B318B55CE45AA638FAA2957BD5248B390B7A7CC6174E0D4149C82B4C2A841B54E14F52EFAA76475A8437
311
3B8C5999E9FF4471922F8AA236A1AE96B8B3CC434E5839373893369EEFCF30EA315917409EB7F24ABC418E0B8C5BD2D494B6AC9CB96903C994368BA90FD6A50DAF6EE74427694FD999369C95F948A9FC5E30D57C50FE03504B0304140006080800686B94404534026C4D01000033030000300000006662782F393645454245
311
30302D353335362D343344422D394643312D3136414342393042444244352F636E782E786D6CD593BD6E032110845F05D1DFAF4FB66571584A912748919683B543CCC1899F287EFB2C3676DCB84899069D668799D5278EEDBF6743BEC007EDEC48BBBAA504AC744ADBE348533C545B4AF69C79E7E2838D122B661869962967
311
47EFD252240507914C44D5687B2AA287E092971050CE37897152180C005B2514619E402950E46EC4AF03785C05C5E94CE20790D79777E2A64F9031B026A770D6E40ECEF2599A1E4C944823421869901F308B5AA4E8148453AD44147557DFBA9EECF49B44F2855B65F29AE4F291E693F2B2518D1C598343CE42F448AF98E279
311
01CAC5B2182D4544C8CDC578F57096B48DEBA1783582F7E8EED6AB61C0B0CB8CB3A867280EE941445094F76DD757ED50F5ED5BB7DAF59B5DB7A9DAEDAE6D5993ED9C4DCE99720963C0BB85486723D84879C79A3C7E86AFF888D21E593B7FFE034804505AAF74EE19FF994F7379DF88CBE35FC07F00504B0304140006080800
311
686B9440A1D60A10A505000081100000340000006662782F39364545424530302D353335362D343344422D394643312D3136414342393042444244352F6F626A656374732E786D6CAD57D98EDB3614FD15417D691F6C59B667E229340ABC064632491023411F0C18B44469D8A11690D4C4D3AFEFA144C992634FDC222F5AB8
311
5CDE7BEEB90BBDB787845BCF544896A5F7B6DB1FD8164D832C64697C6F172AEA4D6CEBADEF892C53AD65B6959284DEDB7AD8F6BD5864456E86421A9182AB93D1D5EC2F4B0634A5B6157022E5BD2D83479A903E29541652F9D40F8922FD383AF4DD7EB5B02B3616247F3C119A134153054D319E428A5529E5767F07B6E37B8E
311
9EF73DFD34AB46975739A53DDDF3592A1549831F0E3B113372C78BE5F0E6AE77331E8F7AE3DBA1DB9BAD668B9EFB663498DFCEE777D3E51D0E964A4092D144D0C8F6DF011BC102CFA9A67CAF60A91A0DCD12E32047D067A63D65FB43CBF59C6A4D639D31F29CFA4196A63428B1021AA57D467448739A86F039A3129AB5101A
311
747F5D8D636B7AA4FFCD91EDE1EB1068EF6809AA75AFDF6D4DB3FDDF30415EC32021A9666085A531B4E2EAE088F03ECBB89963D24A88A282116E71B61744BCD83E96EA25BED711A3992C7434680B6C1F5EA8A6BB744118FD9CE7E7B48C0ACE358D6DBF8C821D62852A596AC6FEA1E2A87D1B19E8045F69364C8C41EA25A7B6
311
7F57516472C2A60A482BE22486CB61A6DE391A9E183AD771BA5ED8FEFBD5FEB0D1B17BFEF05C6439154AD307D4AA1D57BF354A4627F72ACFE90DF6892A4750BE00F98F08F5A32AF09B6087F1616C4E5182A432CA4402DF5803AB37C06360B9E5537FB7BE3CA7D9DCF5DE253CE16C0DD52FC0B36B43DB972D387DEF1984CFC4
311
C898B6090847DA78602900D224B1788621E4E1687FB0FD35B21CB2327611EEBB3019EA3EE3D3738C18248AF2A4D63B05962769F18A040DD84A46428D8AFC46C1A39F7E4867E5C166D925786F7E095DA78BCDFB4D212212D00713D30B1AB1942994B8236FDA0A7530EF58F4445FBE672284A13FE2BD69E39D98A324D0D6986B
311
E0E33AA7EB9FE3C99D0302EC8B339D6EBC9F9C002374616DC97F6032A09C939466457DEEABF50365A3825807BB667253608E8505A4A9664E6210453A102CD72036D5AA499AFD0BD67D5D7F04236D7FF6F281BCB4B3D7FE987B838C6762B77FD95569E92CD4DFBADC3618385A0AE85E06491DFF06F45DC8A2A89048826770FD
311
B69EB77DA7D30252442DB58A9631EC47701161485BCB45B5160495344B770C75137177F680B67C406A18500ABCA4B1A43CDA31CE8B6417318E6AB44B487E018EFFAFFFBE48F21D49B22255176477544775E8EADE61AFFC4E54F068FB9BF2DD9B21F78634BC40065D4BCE60D571ED6C39BD9DAC96F3DE6A369FF4C6D3D5B437
311
71276F7ACBE1F2CDEC663EBC59CE61BAD1A86CA27CAF2E35ED88869750DABC4230E3BEAF6BC48F4902B6FF4094DCBEABC2B37E7F5DF7D10B7B0EF6A05E361BA7E133FA3E1AFE5CC071E55941EB24E734A1A9223A861EF407FF42D0677494A9C6D70989E915523EBDDB9C1883912BF67DD6F14EBF9FEC35A3731D906785A8C7
311
22D9A784F1938D7185643F4F63835FED93E65D159AFA57FF19C7A03395196721F26068C5344BA84236BCA20889844A50AFDDD387E6EE71C5EEE7AA435464CF69ADC9234193CC25C202242F02D51DB77E4353A7FBAA7B1BE5B6FF8487C914B605CEDCDB68D2150BA8ECEF51A0752B540A0797DA9D3C384BD298A3D7AE3635FF
311
CD2E8D4DA724374BAEE99F8C5D550A3706208DE4E81BD010C13BA532BE57EA66E683FF6478AD8E45143EF7856A6C390E34C694C720442BA3CC6D014DCC9339FA80407DDD2CB75FAEE92072D52DEB551254527B8A88B8BC2968FD8C4AD3C567071D8AB5FE64E5BC88E1CBEB25F50405990B1DE06011586164E64481AAF33FB7
311
9F45869B6C62AD182860FD7E98DCFEB19D674992A5D5D0766AEEC3D6E611B7DB708BE440F5B5446E870377B82DAF03E686B2DB1349FB24944F188067056B80EEB81FBCACEE8CA843D544B3CED1AE3861E87A6199C23686504397766ED5E0A0F148A98518D2574A1D31ED05F9AB3702A75C0A15047A79FF5F504B0304140006
311
080000686B9440000000000000000000000000350000006662782F39364545424530302D353335362D343344422D394643312D3136414342393042444244352F76657274696365732E62696E504B0304140006080800686B9440F270F1330600000004000000360000006662782F39364545424530302D353335362D343344
311
422D394643312D3136414342393042444244352F747269616E676C65732E62696E636660600000504B0304140006080000686B9440000000000000000000000000370000006662782F39364545424530302D353335362D343344422D394643312D3136414342393042444244352F617474726962757465732E62696E504B03
311
04140006080800686B9440D5987DFC8F00000041010000360000006662782F39364545424530302D353335362D343344422D394643312D3136414342393042444244352F6469726563746F72792E786D6C858F410EC2201045AF4266AF15DDB800BA74E7C21B903225242D6328188F2FA5C4183471359997F9FF81E89FF3C4
311
1E1816475E02DF1F80A11FC8386F25A438EECEC07A250251FC3803E6F58C12560C4AD840E95E91C151A72936F496F35732D860FE635F62C8F2DA16B505C545B74125BAA2FA9E05D7CC053D063734D5C7665FD55B6B8D15D5E9BFEAFD8490FFA45E504B0304140006080800686B9440C0DED5BAFD000000A00100003B000000
311
6662782F39364545424530302D353335362D343344422D394643312D3136414342393042444244352F7265736F75726365732F636F72652E786D6C8D504B6E833010BD0A9ABDC1762041917194B470825EC032136225D8C89FAAC7AF49A8D4EEBA9919BD8FE6E989D3D7FC283ED107E36C07ACA450A0D56E3476EA20C52B69
311
A13849E19D8BBF6450583563072B0C524CDEA56583B4B3116DCCA875236EA00A012314FA918F0E82BEE1AC4A956256847BB9287D571396ACCC74D64911A2CF018AD7937582F4185CF21A83A85EAC14299971D39831FF3457831EE47039BF0DCD859376E08CD4F59E9273CF1AD2B74DDFBED3A6DDD783A856B314D1CC3F19B5
311
47157104C929E384D684D30FB63BF2C3911D086D8F948A6A95FF31A565FCA729191B777C8BFBB205902C07791252546B5F793DCBCC7BED567E03504B010214000A0000080000686B94403DEE336E79000000790000001B00000000000000000000000000000000006175746F6465736B2D64657369676E2D7061636B616765
311
2E786D6C504B01021400140006080800686B9440D486FD9CA0000000F40000001300000000000000000000000000B20000005B436F6E74656E745F54797065735D2E786D6C504B01021400140006080800686B9440D375FB22EA0000007C010000080000000000000000000000000083010000636F72652E786D6C504B0102
311
1400140006080800686B944055019EA25F0000007C000000070000000000000000000000000093020000636E782E786D6C504B01021400140006080800686B9440DCF728F566010000020300000C00000000000000000000000000170300006662782F636F72652E786D6C504B01021400140006080800686B9440E270B197
311
7D0000009D0000000B00000000000000000000000000A70400006662782F636E782E786D6C504B01021400140006080800686B944023E9FEAB2E0100001502000031000000000000000000000000004D0500006662782F39364545424530302D353335362D343344422D394643312D3136414342393042444244352F636F72
311
652E786D6C504B01021400140006080800686B94404534026C4D010000330300003000000000000000000000000000CA0600006662782F39364545424530302D353335362D343344422D394643312D3136414342393042444244352F636E782E786D6C504B01021400140006080800686B9440A1D60A10A505000081100000
311
3400000000000000000000000000650800006662782F39364545424530302D353335362D343344422D394643312D3136414342393042444244352F6F626A656374732E786D6C504B01021400140006080000686B944000000000000000000000000035000000000000000000000000005C0E00006662782F39364545424530
311
302D353335362D343344422D394643312D3136414342393042444244352F76657274696365732E62696E504B01021400140006080800686B9440F270F13306000000040000003600000000000000000000000000AF0E00006662782F39364545424530302D353335362D343344422D394643312D3136414342393042444244
311
352F747269616E676C65732E62696E504B01021400140006080000686B94400000000000000000000000003700000000000000000000000000090F00006662782F39364545424530302D353335362D343344422D394643312D3136414342393042444244352F617474726962757465732E62696E504B010214001400060808
311
00686B9440D5987DFC8F0000004101000036000000000000000000000000005E0F00006662782F39364545424530302D353335362D343344422D394643312D3136414342393042444244352F6469726563746F72792E786D6C504B01021400140006080800686B9440C0DED5BAFD000000A00100003B000000000000000000
311
00000000411000006662782F39364545424530302D353335362D343344422D394643312D3136414342393042444244352F7265736F75726365732F636F72652E786D6C504B0506000000000E000E0080040000971100000000
310
504B03040A0000080000686B94403DEE336E79000000790000001B0000006175746F6465736B2D64657369676E2D7061636B6167652E786D6C3C3F786D6C2076657273696F6E3D22312E302220656E636F64696E673D227574662D3822203F3E3C666F726D6174733E3C666F726D61743E687474703A2F2F736368656D612E
310
6175746F6465736B2E636F6D2F64657369676E2D7061636B6167652F323030393C2F666F726D61743E3C2F666F726D6174733E504B0304140006080800686B9440D486FD9CA0000000F4000000130000005B436F6E74656E745F54797065735D2E786D6C7D8EC10E82300C865F65E91D8A1E8C310C0EEA1BF002731658846E
310
D98AC1B77784ABF1D8FE5FBFBF75BBCE937A534CCEB38643598122B6FEE978D0B0485F9C41B54DDD7D022595594E1A469170414C76A4D9A4D207E29CF43ECE46F218070CC6BECC4078ACAA135ACF422C856C0E68EA1BF5669944DDD7BCDE7B1F8E415D77AECB980613C2E4AC91FC167A2B244592486606FC29C8FD7F045B9A
310
EF7053A7E60B504B0304140006080800686B94409402D978E90000007C01000008000000636F72652E786D6C8D90D16E842010457F85CC3B0A687435C8C6D8ED17F40708B096EC0A46A0E9E71777DDA47DEBD34CEEDC3333B9FCFCBDDCD197D982F56E005A1040C629AFAD9B0748F18A4F80CE826FDEC75F36404E2E66805D
310
06C1E7CDA7F5909477D1B89855E7B5394419828980D43D370304F5691659C814B323DC8A55AA9B9C4D415F5D8653B21A3D8F589DF7D9AB351B08C2DE597DA91AFCD67404D7D358E16E9C186697B699BA898D4D5DF17287058F7679DD579B91D168108C5086498D19F9A055CFDA9EB6989C7A4278B9DBFF4069D5FF849275B1
310
62C7BB4F2C80A0F991C740F072CF22974750B9EEB9891F504B0304140006080800686B944055019EA25F0000007C00000007000000636E782E786D6C4DCB3B0E80201045D1AD90E915ED2CF8AC45050C11660C8261F98AB1B07AC9C97D42D718D865D3E909258CFD00CCE24AC6E326A164D74DC0B4128928FF326038472BA1
310
3128B1252AC747C6BAB984FC68F0B87FE8960A5C09FE86CFB69FBA01504B0304140006080800686B9440971C207E65010000020300000C0000006662782F636F72652E786D6C8D52ED8E8320107C15C27F04D1D88F204DE3F59EE05E802AF54C150C82E9E3DFFAD1F47A699A8B0992999DDDD95171B8752D1AB51B1A6B721C
310
470C236D4A5B35A6CE71F017B2C5E82085B3D6FF2AC3C8A84EE77882B114B5B3A15FA1D21AAF8D07D4D84AAFA01A06ED312A5BB8E47828BF75A722153C540CD7A857E555D53A8A23A0A14E8AC13B30809621D389E5E57C1374C1A508A1A956B6A9605A7369B4C392F14F9E9E928C7C643B46D2E29890DDB1E0849F3659B12B
310
F8314B134127B114BEE9EEEE4AA795D715969CC59CB09470F615277BBED9C71BC2B67BC6049DCA9F44A1AFFE290A8DF1095FED2EB201CB188CCCC49F6D21228F0635821F2A059D4284D79CF073D0100884ECD5B9BDEF710568D4A5B72E05A6B2E1418DAA0D1AA632343F822E2C749E1BC0662FFBF0377DDEF7800FA84C0DD6
310
9487EB39F869BA58A6AE51F4DA91D1DF90B1AE53EDC3DC62F1713E06BD9497B6B5EE3F6ABAAE4AD730E9F4F7CA1F504B0304140006080800686B94408E3F9CA57E0000009D0000000B0000006662782F636E782E786D6C4DCCD10A83201886E15B91FFDCB5FAAD19A811B6DD472C0B99E9703A76F9ABD1C18E3E78F87845F7
310
591D799BF8B2C14B284F6720C6DFC364FD2221A79972209D123184F47703E2C7D548D819945862C8CF8326338FD9A54D9DF58F031151F7CDADA48C69A4ACA906CA19725A5F5BDD0E78C1BAAFA050A2F895B6DDC3EA0B504B0304140006080800686B9440EA3A8FC82B01000015020000310000006662782F33333343413646
310
312D343443332D343632442D383433382D3545394339443337333541322F636F72652E786D6C8D51CB6EC32010FC15C4293D60F38A1F11268A92F60BFA03C426294A0C168F2A9F5F5C3B527BCB8545B333B3A35DB17F8C77F0AD7D30CE76901418026D7B37187BED608A17D440B097C23B17FFD020B06AD41D9C6128C5D5BB
310
34AD50EF6CD43666D4BA41AFA00A414708FA7BFE7430F45F7A54854A3133C2AD98547F53575D9022B7334F8A107D0E009621F30B2563EC78A83E08E2FCC810AFE809359C3568FBDE1EDB13ABD9F64045B908A548C90CABDC0C398EB918ED5F3599C55244333EE3F75EABA80728292614618E28FE246C47EB1DA9116E76188B
310
72A6FF13A5697851948C8D8CAE71175980928872694831B874BE3FC3E8C7E47C04F3BC4DD0FD1B94B8C0B8E6B46D4923CA859B37904D2BBE9A86E87CDEF0E676CE74B63A575C8A723E522EBF17CC753EA8FC01504B0304140006080800686B94402393CD7B5401000033030000300000006662782F33333343413646312D34
310
3443332D343632442D383433382D3545394339443337333541322F636E782E786D6CBD93CD6EC32010845F0571F76FACC48A30917AE813F4D02B864D4283C1025C356FDF2521692E3954AA7A41D6EC30B3FA84D9EE6B32E4137CD0CE0EB4296B4AC04AA7B43D0C7489FBA2A764C799772E3ED828B162828126997276F06E99
310
B3A4602F16135135DA9EB2E821B8C54B0828A79BC438290C06802D1614611A412950E46EC4AF3D785C05C5F14CE211C8EBCB3B71E307C81858955238AB520767E9CC4D0F264AA411210C34C8234CA2144B740AC2A954228AB2296F5D4F76FA4922E9C2AD72F19AA4F281A693F2BC51891C598543CE42F4482F9BE27906CAC5
310
3C1B2D4544C8D5C578F570B6681BD75DF66A04EFD1BD6AD77D8F61971967514F901DD28388A0286FEBA62DEAAE68EBB766B56D37DB6653D4FDB6AE5995EC9C8DCE997C0963C0BB99486723D84879C3AA347E862FFB88D21E593B7FFE054804905BAF74EE197FC9A759AFBAEE1FF95497F78DB83CFE05FC1B504B0304140006
310
080800686B944085D4E8DA640700009A1B0000340000006662782F33333343413646312D343443332D343632442D383433382D3545394339443337333541322F6F626A656374732E786D6CED59DD73A33610FF5718FAD23E181BDBC9251DC24DE224379E36ED4DDDBBE98367181964A24608461249DCBFBEAB0F301093E05E
310
FA760F3620A4D5EE6F3FB5041F9F33EA3C622E48CE2E5CDF9BB80E66719E10965EB8A5DC8ECE5CE76318F03C978D69AEC350862F5C35EC8641CAF3B2B04309DEA292CACEE8EDD55F8E8831C3AE135324C4852BE27B9C210F95324FB078F0122491976E9F3DDF3313DB64538E8AFB0ED10271CC24700AE30CA8388629BFFD38
310
71C7613056EFC340FDDB59B341B3E6FDB3C65AEA369784098958FC82A50E99D9209666FEFCFA667A723E3A99CF67A3F9E9D41F5DDD5E5D8FFC0FB3C9E274B138BFBC3907F636794EAD4C092E304B407F3B37F483B17A538B6E1138C4759C3386630D2440A5C5EA122458C0560DF826ED475F49D478AD256C3CCFD57BCB4263
310
78D6A6D2376B18102DBA2088DDAE92B8BA36E5CB377F83E0628851728125702B2407ED5A783878851B4E82B1190D83CD5E17443819929813441D4A361C71500A4C5553C2C02CB06494737020E52809B4E6CCEBB66D8167BEED3A87B8DC96942ACF7043ED5811B81F96427346FEC17CCF7D1319E009A42D099367964BB92BB0
310
1B9E07633D1806EA329BDA970648674B512A3422E66D47D08572FDE5B51BFE72BB795EA9707078F382E705E652199DD2A3E60B0CD95E154A765B7F90E6D40210C6806A57EE41F90390FF0DA2C79E15D01B27CFF3E7B99D2B3962629BF30C74E34C9CD104FE268EAFFFD57DE32E18D78BDBDAEBC313DC544175F6ED78B665D0
310
5859FE1B7086C123187CCE67F6D52A4614ECF98E300048198943731882D0BEDD3CBBE1120227047A588568E883C8C0EE23DC06634B66AF95CABDACD73140D4EE311BA224804D5B24B0D1A3A74F903D3889F76A6A8AD807EFC9BB98EBE5F5EA9755C9B728C677D6A7AFF1963022216B1E66A885794BA207BC7BCA790282BEC4
310
7BD5C43BB35B09405B61AE804F2B10D4C37EE7D60631AC4B73156E823776002154AE6ED0BF2322C6942286F3B2DAB78E6ECA506B8FB735831B4E0DC4B369C784397E24AAAA00A7D9CF68310A793FE6A45020BAE12723591D34BD1EE9BE2C7F038BACE7F7CC5A3208BD0CD13F75D03A8043CBB22BA42D10B5C09B7D388F739A
310
F368B38B4CA473A1960036DADEF2B5451462BD5192A2021EA4FDAE0A29A991364AC8765B0A88AB0758FCBA5C34CD61E2CDFC13A7F9DF71C639445BF05DC4ADDF75F6884886521C6D51D2B75D73B79AB6D0247B4873BCA520177924721721194D129C1E03CD51C4CFDF957A4A732108C302F2D541F09B684C3C0824469B15CB
310
4AAB1DA08988322C113D060145A6075C9D76748D1B43E9F0368FB5F5BEA6B126D1FFC92238825A32671181521472C89B8CFBDE09C49036BA06E50EBE606D156D2D062DA1848877D11326E9BD3C067543BE07F7188E24A58CF202C560D603C8BEF015A5D40EEF1B143FA8FC11C5257D2F0311986E2342699945F0230C4E1E43
310
5CBB0E4CAFA2D0206E629FC419146548967CC826A7279317FB989AA11B021B1B6D0985B01D65A8E841BD1510753DE2D4E05BEA3D4ADD945911A12C2FD92043F1665D6FB2E4BB6A556407F2AB4A45281B2BC29660181026EBAC5AC56C30751D58C18D74A0DA4502650535A7B037128F5F7B93A6DCBB01B77EFABE1B6450F8F5
310
68AF1951E7150C96C75661209E908CEFDD70A5AFA32BA8BF139CEC537D556B362B40404C45F29213ABA22F4B286F6C8DE68677488AF5279375ABEB97A507DD8F600C6BA076A9172E15D0196612A9CAE44EDDD03F1084E0160D33BE5439F5182A9749A2AB46446F499F3A5B65446BD38C78C53D6679063FB6262CA66582D728
310
110FD19DA4D18A28D6AD945E462A8C5F15F0F74FAB0E3C303240A4CFAAC0C34F9DB57674A1CAA58344E47D996D182210045BA2A546375EC152AB914ACBF5559D29A0EE0203B32A9E7F3F5934DB11DF4F16A9358C6F3A595CED7E45BB665FA491CE6365D7471D03EAFCA4A8BCC73140B71D6AAA751631C9DCCA6F9D2982A058
310
45F9C1D55815340CC13E8EFF73D6EECB8266BB0EFFC7656DFF45C5715456694D565DAA0395EBB299C3AE6E2E4FCF6E6F16A3DBABC5D9687E797B393AF3CF3E8C6EA6371FAE4E16D3939BC5A246533B6A18D4C14CE72E783641AD1A564F1603E8CA8A9C92044EF389936288F912CEF403DAE73CC3029267B3D99DD8A6FC80D5
310
8FA6CF29D186E28A937B040D622A20AD0346652CDBE3CE0FD09A9470D0BE70A169E43DC09FB54AD781CC73E142AB4092180B6F036D26D5D0D3C421E5EADC6F89013E88A52A259A45F573BD4A61D30AFFF5942169C0CAD5EA6140E15640F7ABD5A1D0BC599EE2A304AFD8719084DB4D29A15A33B2EC076A61F4367BF51BD928
310
610F76EB6770DDD7C5F23D3DA785C8A04F06AF1A81A13A9288A7BADFAD18B32C5D5E7F1E439FCD59FEEE14B44C4197C3298D3806632E5541055604566169164882A92E7E5E7FE6397CE2C91C5D15393F3E9F9DFEB45EE459963333B4BE845359021F8A9CD53D7CF649D6503C60D55C17EBE9C49FAE7553DBF6D9A30D12D853
310
55110C54C58412A4637260972F1A54B67D3956AAE84C5F5E3B36884233C0D8D18B1EAFF9C8E5800FA9CF29CA63B49F57D2BEDAD71EEBA960131C3AD2E1BF504B0304140006080000686B9440000000000000000000000000350000006662782F33333343413646312D343443332D343632442D383433382D35453943394433
310
37333541322F76657274696365732E62696E504B0304140006080800686B9440F270F1330600000004000000360000006662782F33333343413646312D343443332D343632442D383433382D3545394339443337333541322F747269616E676C65732E62696E636660600000504B0304140006080000686B94400000000000
310
00000000000000370000006662782F33333343413646312D343443332D343632442D383433382D3545394339443337333541322F617474726962757465732E62696E504B0304140006080800686B9440D5987DFC8F00000041010000360000006662782F33333343413646312D343443332D343632442D383433382D354539
310
4339443337333541322F6469726563746F72792E786D6C858F410EC2201045AF4266AF15DDB800BA74E7C21B903225242D6328188F2FA5C4183471359997F9FF81E89FF3C41E1816475E02DF1F80A11FC8386F25A438EECEC07A250251FC3803E6F58C12560C4AD840E95E91C151A72936F496F35732D860FE635F62C8F2DA
310
16B505C545B74125BAA2FA9E05D7CC053D063734D5C7665FD55B6B8D15D5E9BFEAFD8490FFA45E504B0304140006080800686B9440FCE88449FC000000A00100003B0000006662782F33333343413646312D343443332D343632442D383433382D3545394339443337333541322F7265736F75726365732F636F72652E786D
310
6C8D504B6E833010BD0A9ABDC1180A09328E104D4FD00B586642AD041BF953F5F835814AEDAE9B99D1FB689E1EBF7C2D8FEC139DD7D6F450E6143234CA4EDACC3DC4702327C82E823B6BC32F1964462ED8C30683E0B3B3713D20654D4013126AEC840728BDC700997AA4A307AF3E7091B98C2129FC3D5FA5BACB19F3324F74
310
D209EE834B01B2FDC9364138F4363A859E173B2B788C7A3A347A4A3FF54DA30341D91BABAFD50B796DCE94D4E35091F33032C2AE6D339E47363475C58BCD2C78D0CB4F46E550069C40305A32426BC2E87B5975ACEDCA96D05347292F36F91F535CA77F9AA236A16247DCDDE6419429C89310BCD8FA4AEB5966DA5BB7E21B50
310
4B010214000A0000080000686B94403DEE336E79000000790000001B00000000000000000000000000000000006175746F6465736B2D64657369676E2D7061636B6167652E786D6C504B01021400140006080800686B9440D486FD9CA0000000F40000001300000000000000000000000000B20000005B436F6E74656E745F
310
54797065735D2E786D6C504B01021400140006080800686B94409402D978E90000007C010000080000000000000000000000000083010000636F72652E786D6C504B01021400140006080800686B944055019EA25F0000007C000000070000000000000000000000000092020000636E782E786D6C504B0102140014000608
310
0800686B9440971C207E65010000020300000C00000000000000000000000000160300006662782F636F72652E786D6C504B01021400140006080800686B94408E3F9CA57E0000009D0000000B00000000000000000000000000A50400006662782F636E782E786D6C504B01021400140006080800686B9440EA3A8FC82B01
310
00001502000031000000000000000000000000004C0500006662782F33333343413646312D343443332D343632442D383433382D3545394339443337333541322F636F72652E786D6C504B01021400140006080800686B94402393CD7B54010000330300003000000000000000000000000000C60600006662782F33333343
310
413646312D343443332D343632442D383433382D3545394339443337333541322F636E782E786D6C504B01021400140006080800686B944085D4E8DA640700009A1B00003400000000000000000000000000680800006662782F33333343413646312D343443332D343632442D383433382D3545394339443337333541322F
310
6F626A656374732E786D6C504B01021400140006080000686B944000000000000000000000000035000000000000000000000000001E1000006662782F33333343413646312D343443332D343632442D383433382D3545394339443337333541322F76657274696365732E62696E504B01021400140006080800686B9440F2
310
70F13306000000040000003600000000000000000000000000711000006662782F33333343413646312D343443332D343632442D383433382D3545394339443337333541322F747269616E676C65732E62696E504B01021400140006080000686B94400000000000000000000000003700000000000000000000000000CB10
310
00006662782F33333343413646312D343443332D343632442D383433382D3545394339443337333541322F617474726962757465732E62696E504B01021400140006080800686B9440D5987DFC8F000000410100003600000000000000000000000000201100006662782F33333343413646312D343443332D343632442D38
310
3433382D3545394339443337333541322F6469726563746F72792E786D6C504B01021400140006080800686B9440FCE88449FC000000A00100003B00000000000000000000000000031200006662782F33333343413646312D343443332D343632442D383433382D3545394339443337333541322F7265736F75726365732F
310
636F72652E786D6C504B0506000000000E000E0080040000581300000000
  0
XRECORD
  5
17
102
{ACAD_REACTORS
330
12
102
}
330
12
100
AcDbXrecord
280
     1
270
     1
271
     1
  0
XRECORD
  5
16
102
{ACAD_REACTORS
330
12
102
}
330
12
100
AcDbXrecord
280
     1
270
     1
271
     1
  0
XRECORD
  5
18
102
{ACAD_REACTORS
330
12
102
}
330
12
100
AcDbXrecord
280
     1
270
     1
271
     1
  0
XRECORD
  5
15
102
{ACAD_REACTORS
330
12
102
}
330
12
100
AcDbXrecord
280
     1
270
     1
271
     1
  0
XRECORD
  5
31E
102
{ACAD_REACTORS
330
22
102
}
330
22
100
AcDbXrecord
280
     1
102
MATERIAL
148
0.0
149
0.0
149
0.0
 93
        0
 94
      127
282
     0
 72
     0
 77
     0
171
     0
175
     0
179
     0
273
     0
  0
XRECORD
  5
24
102
{ACAD_REACTORS
330
22
102
}
330
22
100
AcDbXrecord
280
     1
270
     1
271
     1
  0
XRECORD
  5
23
102
{ACAD_REACTORS
330
22
102
}
330
22
100
AcDbXrecord
280
     1
270
     1
271
     1
  0
XRECORD
  5
BA
102
{ACAD_REACTORS
330
22
102
}
330
22
100
AcDbXrecord
280
     1
 70
     1
 90
1959938040
 71
     1
  1
1ACBACEF-35FD-4D18-AD78-0F2F09178CB9
311
504B03040A0000080000686B94403DEE336E79000000790000001B0000006175746F6465736B2D64657369676E2D7061636B6167652E786D6C3C3F786D6C2076657273696F6E3D22312E302220656E636F64696E673D227574662D3822203F3E3C666F726D6174733E3C666F726D61743E687474703A2F2F736368656D612E
311
6175746F6465736B2E636F6D2F64657369676E2D7061636B6167652F323030393C2F666F726D61743E3C2F666F726D6174733E504B0304140006080800686B9440D486FD9CA0000000F4000000130000005B436F6E74656E745F54797065735D2E786D6C7D8EC10E82300C865F65E91D8A1E8C310C0EEA1BF002731658846E
311
D98AC1B77784ABF1D8FE5FBFBF75BBCE937A534CCEB38643598122B6FEE978D0B0485F9C41B54DDD7D022595594E1A469170414C76A4D9A4D207E29CF43ECE46F218070CC6BECC4078ACAA135ACF422C856C0E68EA1BF5669944DDD7BCDE7B1F8E415D77AECB980613C2E4AC91FC167A2B244592486606FC29C8FD7F045B9A
311
EF7053A7E60B504B0304140006080800686B9440BA15991CE90000007C01000008000000636F72652E786D6C8D90416EC3201045AF82668F03D84D6C0B13B5AA39412F8080B828315806AA1EBF3871A476D7D58CFEFC3733FAFCFC3DDFD0975DA30B7E005A1140D6EB609C9F06C8E9825B4067C1D710D22F1B20AF663BC026
311
83E0D31AF2B24B3AF8647D2AAA0FC6EEA28AD12640FA569A01A2FEB4B3AA544EC511AFD5A2F4554DB6A2CFAEC0393B831E479C29FBDCC5D915443B76E4FDB52658BE8C0C372339E28E49899B4ECAFAD81E3BF946F86183054F6E7EDED7AB55C91A108C5086498319F9A075CF4E3D3D61D2F6A4409BFD0F9417F34F283B9F6A
311
B6BFFBC022085A1EB90F043F6C5994720FAAD42D37F103504B0304140006080800686B944055019EA25F0000007C00000007000000636E782E786D6C4DCB3B0E80201045D1AD90E915ED2CF8AC45050C11660C8261F98AB1B07AC9C97D42D718D865D3E909258CFD00CCE24AC6E326A164D74DC0B4128928FF326038472BA1
311
3128B1252AC747C6BAB984FC68F0B87FE8960A5C09FE86CFB69FBA01504B0304140006080800686B9440E68A7EA266010000020300000C0000006662782F636F72652E786D6C8D525B6E833010BC8AE57F83793481C8386AD570825EC001875A011B191BE5F85D1E114D15451592B16676766707D8F1D6B568947650461738
311
0A28465257A656BA29B07717926174E4CC1AE37E9561A445270B3CC198B3C61ADFAF5065B493DA01AA4D2D57500C837418552D5C0A3C54DFB21381F00E2A866BD08BEA2A1A194401D050C7D9E02C1840CB90E9C4FC72BEB170C139F35ED52BAB6A98A62E4A5ACCB3534E3FDF134ACAB7534CD213DD913C2E4B92E66599ECB2
311
5D5E7E50164E62CE9CEAEEEE2A2B859335E6318D62425312D3AF2839C4FB43B427343B50104DE50F22DFD7FF1479A55D12AF7617D98079044666E2CFB61091438318C14FC859388508AF39E1C7A0211008D989737BDFE30AD0282B676C0A4C6DFC468DA2F512A652343F2C5C58E83C3780CD9EF6895FF479DD033EA0D00D58
311
130EAE67EFA6E96C99BA46D14B4B467743DAD84EB49BB9C5E2766E839ECA2BD31AFB1F75B8AE1AAE6186D3DFCB7F00504B0304140006080800686B944005190F1F7C0000009D0000000B0000006662782F636E782E786D6C4DCCD10A83201886E15B91FFDCA5609AA0466E5D482C0B99E9703A76F9ABD1C18E3E78F87855FF
311
D9027ABBFCF2296AA01702C8C57B9A7D5C35D4B2E00E506F544EA9FCDD00C569731A0E06A3D69CEAF3A4D92D530D65D7E0E3E34429C5F5C6C988891D2866964A6C2D177814B4A3C232D6720E8D51CDAFB4EF11365F504B0304140006080800686B94407905D7ED2B01000015020000310000006662782F3939374344363045
311
2D304241312D344231392D424236372D4537313831374234343536362F636F72652E786D6C8D51CB6EC32010FC158B537AC006876027C244759B3FE80F1020294A0C168F2A9F5FA85DA9BDE5C2A2D999D9D12E3B3EA67BF5A57D30CE0E00D70854DA4AA78CBD0E20C50BEC4175E4CC3B17FFD04065C5A4075060C0D9D5BB34
311
AF9074366A1B336A9DD22B2842D01154F29E3F0308F2534FA216296646B8D5B3903771D535AE733BF3380BD1E700D532A4BC80EFF7DDDB3B452788C6570CC988F7701C69074F1DEE713712B2A394358B90B3948C5AE546E538E662B47FD6A488398B66FA8D2FBD16512BC05B845B88086CD107DE1EDAEE803B88FA0342AC29
311
F47FA234AB2745C9D8B86DD7B88B2C008E59B33438532E9DEFBF61F463763E5665DE2668F90238AA11EA684FB62D61CDC2CD1BC8A694ACA6213A9F37BCB99D331DEF16674A386BCA9172F9B960AEE5A0FC1B504B0304140006080800686B94404534026C4D01000033030000300000006662782F39393743443630452D3042
311
41312D344231392D424236372D4537313831374234343536362F636E782E786D6CD593BD6E032110845F05D1DFAF4FB66571584A912748919683B543CCC1899F287EFB2C3676DCB84899069D668799D5278EEDBF6743BEC007EDEC48BBBAA504AC744ADBE348533C545B4AF69C79E7E2838D122B66186996296747EFD25224
311
0507914C44D5687B2AA287E092971050CE37897152180C005B2514619E402950E46EC4AF03785C05C5E94CE20790D79777E2A64F9031B026A770D6E40ECEF2599A1E4C944823421869901F308B5AA4E8148453AD44147557DFBA9EECF49B44F2855B65F29AE4F291E693F2B2518D1C598343CE42F448AF98E27901CAC5B218
311
2D4544C8CDC578F57096B48DEBA1783582F7E8EED6AB61C0B0CB8CB3A867280EE941445094F76DD757ED50F5ED5BB7DAF59B5DB7A9DAEDAE6D5993ED9C4DCE99720963C0BB85486723D84879C79A3C7E86AFF888D21E593B7FFE034804505AAF74EE19FF994F7379DF88CBE35FC07F00504B0304140006080800686B9440FC
311
50AF98A405000080100000340000006662782F39393743443630452D304241312D344231392D424236372D4537313831374234343536362F6F626A656374732E786D6CAD57DB6EDB3810FD1541FBB2FBE08B6CA775168A0AC7AE0BA3485BD468B10F010C4AA2146EA80B482A71F6EBF750A464C9B553EFA22F96450D873367
311
CE5CE8BFDB67DC79A242B222BF71BDE1D875681E1531CBD31BB752C960EE3AEF025F1485EA88B94E4E327AE3EA6537F0535154A55D8A69422AAE8E56D7B77F3932A239759D8813296F5C193DD08C0C49A58A98CAC7614C1419A6C97EE80D8D605F6D2A48F970A4B42482E60A96623D8716C718E5F55FC7EE28F047FA7BE0EB
311
5F2B353D2F35AAFDE99FCF72A9481EFD70D8919AA9375BBD9F5C5D0FAE66B3E960F666E20D6ED7B7AB81F7763A5EBE592EAF17EFAF71B054029AAC2582266EF001D80816F923F329F02B96ABE9C48AD8008D047D623A526E30713C7F64645AEFAC93A7CC8F8A3CA7518D15D0A8FDB3AA635AD23C46CC1995B0AC83D0B8FFEA
311
691C3B9FA7FADD1ED95DBE0C81EE8E8EA2C6F6E6D9B5B408FF860BF21206094935030D96D651C3D5F101E1B028B8FDC6A49311450523DCE12C1444BCB80144B548E0F7D468260B9D0DDA03374014CCE73E5D90463FE7F9292B938A734D6337A8B360875CA14AD696B17FA83858DF45063621569A0D73EB907A29A91B5C1B8A
311
CC8FD8648074124E52841C6EEA9DD3C991A34B9DA79B951B7C5C87FBADCEDDD38797A228A9509A3EA05613B8E6A951B2367917454E6F708F4C3980F215C87F42AA1F4C41DC04DBCFF6337B8A122497492132C4C6193B83317EC68E57FFEAFF9D7FFEA8DDDC8FDE393C116C0DD52FC0B3EF4337961D3803FF09842FC4D4BAB6
311
8D0847D9B8633900D22471788125D4E124DCBBC106550E5519BB080F3CB80C739FF0D71F59352814F5499D670E2C8FCAE205051AB0D58C841986FCD6C0439C7E2867F5C156EC1CBC57BF84AE8BD5F6E3B6120989E89DCDE9154D58CE145ADC81375D837A98F73C7AA42FCF8588E1E88F786FBB7867F62809B435E61AF8B4A9
311
E9FAE57072EF8008FBD242971BFF2727C009DD583BFAEF988C28E724A745D59CFB6AFF40DB3010EB64D74C6E1BCCA1B18034E6CB510EA2494782951AC4B65BB5457378C6BB6F9B4F6024E47911127E100A0FA5372A782176E1CBCE54A593487FEF53DB4230D25AC0F63A479AF4B798EF62962495440D3C01EBF7CDB21B3A5D
311
1550211AAD265966701FB94584E56CA317CD5A1034D222DF31B44DA4DDC903BAFA81A82540ADF09CC592F264C738AFB25DC2389AD12E23E51938FEBFFD6195953B921555AECEE8EE998EE6D0B7BD475EF94C54F4E006DBFA39B845E98D697C08734F58B7921358F543BB58DE2E96EFD783E9D57A3598ADBCF960B17A3B1F8C
311
D793F5F8DA7B3B5FDE5E377132CA03BFE934DD844694D0D9FC4A301BBE6F1BA48FAD016E704794BCFF60B2B3797EDB0C310AFB23EC41BB6C372EE2278C7D34FEB98283E449459BACE434A3B9223A85EEF41FFE9560CCE81963D6371949E9055A3E7FD81E3983950BF67DD1E94E9F8FF6DAD5A54EC8934AD44395853961FC68
311
636A901C96796AF16B62D23E4D9F695EF59B0D0C0653597016A30CC64E4A8B8C2A14C30B7A90C8A804F5BA237D6CAF1E17EC7E3203A22221A78D250F04333297480B50AB8A547FDDF90D339D1EAB6E5C74DBE1237E6CA5701D70E6C6C58CAE5844E530447FD69350AD1C5CEA0EF298FB499E728CDA6653FBDEEED2D8F43A72
311
2B72C9F864FD3215DC3A803252626CC03C84E8D4C6047E6D9BFD1EFD27C71B731CA2F037AC54EBCB61A175A63E06296A9CB29705CC308FF6E83D12F575B7BC612DD343E4A24BD6AB24305A078A88B4BE2868FBAC498BD59711061467F3D92979952296976B1A080A32573AC1C122B0C2EA2C890255977FDE7F11052EB299B3
311
66A080F3FB7EFEE68FFB659165456E96EE17F63AEC6C1F70B98DEF511CA8BE95C8FBC9D89BDCD7B7017B41D98544D22189E523161059C15AA07BE1072FCD95117DC87C68E5463A14470CDDAC1CDBD866506AE9D2ADAD1A1CCC1D39759043FA46A933A62B50BE7A2118D5A2304160940FFE05504B0304140006080000686B94
311
40000000000000000000000000350000006662782F39393743443630452D304241312D344231392D424236372D4537313831374234343536362F76657274696365732E62696E504B0304140006080800686B9440F270F1330600000004000000360000006662782F39393743443630452D304241312D344231392D42423637
311
2D4537313831374234343536362F747269616E676C65732E62696E636660600000504B0304140006080000686B9440000000000000000000000000370000006662782F39393743443630452D304241312D344231392D424236372D4537313831374234343536362F617474726962757465732E62696E504B03041400060808
311
00686B9440D5987DFC8F00000041010000360000006662782F39393743443630452D304241312D344231392D424236372D4537313831374234343536362F6469726563746F72792E786D6C858F410EC2201045AF4266AF15DDB800BA74E7C21B903225242D6328188F2FA5C4183471359997F9FF81E89FF3C41E1816475E02
311
DF1F80A11FC8386F25A438EECEC07A250251FC3803E6F58C12560C4AD840E95E91C151A72936F496F35732D860FE635F62C8F2DA16B505C545B74125BAA2FA9E05D7CC053D063734D5C7665FD55B6B8D15D5E9BFEAFD8490FFA45E504B0304140006080800686B94403EF847BBFC000000A00100003B0000006662782F3939
311
3743443630452D304241312D344231392D424236372D4537313831374234343536362F7265736F75726365732F636F72652E786D6C8D504B6EC32010BD0A9A3D0E266E625B98A855C3097A0184270E4A0C169FAAC72F4E5CA9DD7533337A1FCDD313A7AFF94E3E3144EBDD0075C580A0337EB46E1A20A70B6D819CA408DEA7
311
5F32204ECF38C00A831453F079D920E35D42970AEAFC881BA863C404C4DCCB314034579C75A5732A8A78AB166D6E7AC2AAAE0A5D7452C4144A00F27CB24E9001A3CFC16014BB272B45CE76DC34762C3FEDC56200D99E3BF6FECA15552F674E9B333BD08E2B459B4EA9FDA13D74EA8D89DD6A9622D9F927A309A8138E2039AB
311
39650DE5ECA3DEF7FCD8D747CADA9E15D32AFF63CACBF84F53B62EEDF916F7698B20EB12E44148B15BFB2AEB5166D96BB7F21B504B010214000A0000080000686B94403DEE336E79000000790000001B00000000000000000000000000000000006175746F6465736B2D64657369676E2D7061636B6167652E786D6C504B01
311
021400140006080800686B9440D486FD9CA0000000F40000001300000000000000000000000000B20000005B436F6E74656E745F54797065735D2E786D6C504B01021400140006080800686B9440BA15991CE90000007C010000080000000000000000000000000083010000636F72652E786D6C504B010214001400060808
311
00686B944055019EA25F0000007C000000070000000000000000000000000092020000636E782E786D6C504B01021400140006080800686B9440E68A7EA266010000020300000C00000000000000000000000000160300006662782F636F72652E786D6C504B01021400140006080800686B944005190F1F7C0000009D0000
311
000B00000000000000000000000000A60400006662782F636E782E786D6C504B01021400140006080800686B94407905D7ED2B0100001502000031000000000000000000000000004B0500006662782F39393743443630452D304241312D344231392D424236372D4537313831374234343536362F636F72652E786D6C504B
311
01021400140006080800686B94404534026C4D010000330300003000000000000000000000000000C50600006662782F39393743443630452D304241312D344231392D424236372D4537313831374234343536362F636E782E786D6C504B01021400140006080800686B9440FC50AF98A40500008010000034000000000000
311
00000000000000600800006662782F39393743443630452D304241312D344231392D424236372D4537313831374234343536362F6F626A656374732E786D6C504B01021400140006080000686B94400000000000000000000000003500000000000000000000000000560E00006662782F39393743443630452D304241312D
311
344231392D424236372D4537313831374234343536362F76657274696365732E62696E504B01021400140006080800686B9440F270F13306000000040000003600000000000000000000000000A90E00006662782F39393743443630452D304241312D344231392D424236372D4537313831374234343536362F747269616E
311
676C65732E62696E504B01021400140006080000686B94400000000000000000000000003700000000000000000000000000030F00006662782F39393743443630452D304241312D344231392D424236372D4537313831374234343536362F617474726962757465732E62696E504B01021400140006080800686B9440D598
311
7DFC8F000000410100003600000000000000000000000000580F00006662782F39393743443630452D304241312D344231392D424236372D4537313831374234343536362F6469726563746F72792E786D6C504B01021400140006080800686B94403EF847BBFC000000A00100003B000000000000000000000000003B1000
311
006662782F39393743443630452D304241312D344231392D424236372D4537313831374234343536362F7265736F75726365732F636F72652E786D6C504B0506000000000E000E0080040000901100000000
310
504B03040A0000080000686B94403DEE336E79000000790000001B0000006175746F6465736B2D64657369676E2D7061636B6167652E786D6C3C3F786D6C2076657273696F6E3D22312E302220656E636F64696E673D227574662D3822203F3E3C666F726D6174733E3C666F726D61743E687474703A2F2F736368656D612E
310
6175746F6465736B2E636F6D2F64657369676E2D7061636B6167652F323030393C2F666F726D61743E3C2F666F726D6174733E504B0304140006080800686B9440D486FD9CA0000000F4000000130000005B436F6E74656E745F54797065735D2E786D6C7D8EC10E82300C865F65E91D8A1E8C310C0EEA1BF002731658846E
310
D98AC1B77784ABF1D8FE5FBFBF75BBCE937A534CCEB38643598122B6FEE978D0B0485F9C41B54DDD7D022595594E1A469170414C76A4D9A4D207E29CF43ECE46F218070CC6BECC4078ACAA135ACF422C856C0E68EA1BF5669944DDD7BCDE7B1F8E415D77AECB980613C2E4AC91FC167A2B244592486606FC29C8FD7F045B9A
310
EF7053A7E60B504B0304140006080800686B9440706B6FABEA0000007C01000008000000636F72652E786D6C8D90416EC3201045AF82668F0DD8B29D0813257173825E0001715062B00C543D7E71E248EDAEAB19FDF96F66F4F9E17B7AA02FB304EB5D0FB420808C535E5B37F690E21577800E822FDEC75F36404E4EA68755
310
06C1C7C5A779939477D1B89855E7B5D94419828980D423373D047533932C648AD911EEC52CD55D8EA6A0EF2EC329598D5E47ACCEFBECD59A054453317A6C1A8687DDA5C5F5D09E7157EF6A3C10C24E1FED891CCF175EAEB0E0D14EEFFB6A31321A0D8211CA30A931239FB4DAB3764F5B4CBA3D21BC5CED7FA034EB7F42C9BA
310
58B1EDDD171640D0FCC8732078B96691CB33A85CD7DCC40F504B0304140006080800686B944055019EA25F0000007C00000007000000636E782E786D6C4DCB3B0E80201045D1AD90E915ED2CF8AC45050C11660C8261F98AB1B07AC9C97D42D718D865D3E909258CFD00CCE24AC6E326A164D74DC0B4128928FF326038472B
310
A13128B1252AC747C6BAB984FC68F0B87FE8960A5C09FE86CFB69FBA01504B0304140006080800686B94402917FB0B66010000020300000C0000006662782F636F72652E786D6C8D52ED8E8230107C95A6FF4B4B25A2A6D4F8713EC1BD4085CA11A125A5253EFE2D1FC6F3628C2129CDCCCEEEEC80D8DE9A1AF5DA75953519
310
8E23869136B92D2A536638F80B5961B495C259EBFF94616454A3333CC0588AD2D9D0CE506E8DD7C6036A6CA16750759DF618E5355C32DCE53FBA51910A1E2ABA6BD4AAFCAA4A1DC511D0502745E71D1840D390E1C4F272BE093AE152845015335B1530ADBA54DA61B95CF078B75C72725C9F52921CD3035925EB841C19E3FB
310
AF74CF768793A083580A5F357777B9D3CAEB024BCE624E584238FB8E171B9E6EE294B0D586314187F22751688B0F45A1327EC167BB93ACC332062323F16F5B88C8A34EF5E0874A418710E13526FC1C340402217B75AEEF7B5C01EA75EEAD4B80296C7850BDAA8386A90C8D8FA0130B9DC706B0D9CB3EFC4D9FF73DE0032A53
310
8235E5E17A0E7E982EA6A97314AD76A4F73764AC6B54FD3037597C9C8F412FE5B9ADADFB444DE755E91C261DFE5EF90B504B0304140006080800686B944092C565A87E0000009D0000000B0000006662782F636E782E786D6C4DCCDF0A83201C86E15B91DFB9CB9A5A821AFB53F711CB42321D4EC72E7F353AD8D1070F1FAF
310
6C3FAB436F135F367805E5890032FE1146EB6705394DB801D46A1943487F37407E588D829D41CB3986FC3C6834D3905DDAD459BF1CC87929C48D0A4C44DD605A570C5F45CF712F3AD255973B3B330A8596C5AFB4ED1ED65F504B0304140006080800686B9440822F307C2B01000014020000310000006662782F3636313939
310
4334392D303937382D343732352D423946362D4639453045324144353335342F636F72652E786D6C8D51CB6EC32010FC15C4293D6003766C1361A23E922FE80F109BA42831583CAA7C7EA176A4F6960B8B66676647BB7C7F9F6EE05B39AFADE921293004CA0C76D4E6D2C318CEA883602FB8B336FCA14160E4A47A986128F8
310
C5D938AFD0604D502624D4D851ADA0F45E0508865BFAF4D00F5F6A92858C2131FCB598E5709517559022B5134F701F5C0A009621F985A2690863EF354398B51DAA5BBA456FECD8A0233BE0037DFDD856DB9A978B50F018F5B8CAF598E2E8B356EE59932C163CE8E9117F704A0635424131A108D788E24F52ED68BB232DC2DD
310
0E635E66FA3F519CC72745519B50D135EE22F350105E2E0DC1471B4FB74718759FAD0B20CFDB7835BC40810B8C3BD27494F172A1A60524CFA65E3D7DB02E2D78733D2576B51A37B5E065BE512ABF074C35DF53FC00504B0304140006080800686B94402393CD7B5401000033030000300000006662782F3636313939433439
310
2D303937382D343732352D423946362D4639453045324144353335342F636E782E786D6CBD93CD6EC32010845F0571F76FACC48A30917AE813F4D02B864D4283C1025C356FDF2521692E3954AA7A41D6EC30B3FA84D9EE6B32E4137CD0CE0EB4296B4AC04AA7B43D0C7489FBA2A764C799772E3ED828B162828126997276F0
310
6E99B3A4602F16135135DA9EB2E821B8C54B0828A79BC438290C06802D1614611A412950E46EC4AF3D785C05C5F14CE211C8EBCB3B71E307C81858955238AB520767E9CC4D0F264AA411210C34C8234CA2144B740AC2A954228AB2296F5D4F76FA4922E9C2AD72F19AA4F281A693F2BC51891C598543CE42F4482F9BE27906
310
CAC53C1B2D4544C8D5C578F570B6681BD75DF66A04EFD1BD6AD77D8F61971967514F901DD28388A0286FEBA62DEAAE68EBB766B56D37DB6653D4FDB6AE5995EC9C8DCE997C0963C0BB99486723D84879C3AA347E862FFB88D21E593B7FFE054804905BAF74EE197FC9A759AFBAEE1FF95497F78DB83CFE05FC1B504B030414
310
0006080800686B9440C26852C562070000991B0000340000006662782F36363139394334392D303937382D343732352D423946362D4639453045324144353335342F6F626A656374732E786D6CED59DD739B3810FF5718EEE5EEC1D8C44E9BDC106E12BBC9783A693BF5B5730F9E616490892E423092489CFBEB6FF5010662
310
127CCDBDF5C10684B4DAFDEDA796E08F5D469D07CC05C9D985EB7B13D7C12CCE13C2D20BB794DBD199EBFC11063CCF65639AEB3094E10B570DBB6190F2BC2CEC5082B7A8A4B2337A7DF5972362CCB0EBC4140971E18AF80E67C843A5CC132CEEBD0449E4A5DB9DE77B66629B6CCA5171D7215A208E99044E619C0115C730E5
310
B71F27EE380CC6EA7D18A87F3B6B3A68D6AC7FD6584BDDE6923021118B9FB1D421331DC4D2D49F2D3E9C9C9E8F4E67B3E968F6EEC41F5D5D5F2D46FEFBE964FE6E3E3FBFFC700EEC6DF29C5A99125C609680FE9EDCD00FC6EA4D2DBA45E010D771CE188E3590009516AB4B9060015B35E09BB41F7D2551E3B596B0F13C53EF
310
2D0B8DE1699B4ADFAC6140B4E8822076BB4AE2EADA942FDFFC0D828B2146C90596C0AD901CB46BE1E1E0156E3809C666340C367B5D10E16448624E107528D970C4412930554D0903B3C09251CEC18194A324D09A33AFDBB6059EF9BAEB1CE2725B52AA3CC30DB56345E07E580ACD19F907F33DF74D64802790B6244C9E592E
310
E55381DDF03C18EBC1305097E9897D698074B614A5422362DE76049D2BD75F2EDCF0E3F566B752E1E0F0E605CF0BCCA5323AA547CD1718B2BD2A94ECB6FE20CDA905208C01D5AEDC83F21590FF04D163CF0AE88D93DD6C37B37325474C6C739E816E9C89339AC0DFC4F1F5BFBA6FDC05E37A715B7B7D78829B2AA8CE7E1CCF
310
B60C1A2BCB7F03CE30780083CFF9D4BE5AC588823DDF120600292371680E4310DAB79B9D1B2E217042A0875588863E880CEC3EC06D30B664F65AA9DCCB7A1D0344ED1ED3214A02D8B445021B3D7ABA81ECC149BC575353C43E784FDFC45C2F17AB8FAB926F518C6FAD4F2FF0963022216B1E66A885794BA27BFCF498F30404
310
7D8EF7AA897766B71280B6C25C019F5620A887FDCEAD0D625897E62ADC04AFEC0042A85CDDA07F4B448C29450CE765B56F1DDD94A1D61E6F6B06373C31104F4F3A26CCF10351550538CD7E468B51C8FB31278502D10D6F8C6475D0F47AA4FBB6FC041659CFEF99B564107A19A27FEAA0750087966557485B206A8137FB701E
310
E734E7D1E6293291CE855A02D8687BCBF7165188F546498A0A7890F6BB2AA4A446DA2821DB6D2920AE1E60F1FB72DE34878937F54F9DE67FC71967106DC17711B77ED7D92322194A71B44549DF76CDDD6ADA4293EC21CDF196825CE481C8A708C96892E0F418688E227EFEA6D4539A0B41181690AF0E82DF4463E2412031DA
310
AC58565AED004D44946189E8310828323DE0EAB4A36BDC184A87D779ACADF7258D3589FE4F16C111D492398B0894A290435E65DCF74E2186B4D1352877F0056BAB686B3168092544FC143D6292DEC9635037E47B708FE14852CA282F500C663D80EC335F514AEDF0BE41F1BDCA1F515CD2B7321081E93622949659043FC2E0
310
E431C4B5EBC0F4220A0DE226F6499C41518664C9876CF2EE74F26C1F533374436063A32DA110B6A30C153DA8B702A2AE479C1A7C4BBD47A99B322B2294E5251B6428DEB4EB4D967C57AD8AEC407E55A908656345D8120C03C2649D55AB980DA6AE032BB8910E544F91405941CD29EC95C4E3D7DEA429F76EC0AD9FBEED0619
310
147E3DDA6B46D4590583E5B15518884724E33B375CE9EBE80AEAEF0427FB545FD59ACD0A10105391BCE4C4AAE8DB12CA1B5BA3B9E12D92627D63B26E75FDB6F4A0FB118C610DD42EF5C2A5023AC34C225599DCAA1BFA1541086ED130E34B95538FA1729924BA6A44F49AF4A9B35546B436CD8857DC619667F0636BC2625A26
310
788D12711FDD4A1AAD8862DD4AE965A4C2F845013FDFAC3AF0C0C80091BEA8020F3F76D6DAD1B92A970E12917765B6618840106C89961ADD78054BAD462A2DD75775A680BA0B0CCCAA78F6F364D16C47FC3C59A4D6307EEC6441F30DA2FB68D3C8E6B132EBA34E01757A5254DEE214A0BB0E35D53A89985C6EC5B7BE14414C
310
AC82FCE062AC8A1986601FC7FF3969F72541B35D87FFE392B6FFACE0382AA9B426AB26D581C275D94C61FEE5FCEA72FEE17A343DBD5E8C660BFF6C74B9787F369A5C9F5C4FCEFDF767F3ABF31A4DEDA76150C7329DBAE0D9C4B46A583D590CA0292B724A1238CC274E8A21E44B38D20FE89EF30C0BC89DCD5E77627BF20356
310
3F9836A7441B8A2B4EEE10F487A980AC0E1895B16C8F3BBF406752C239FBC2859E91770F7FD62A5D0712CF850B9D0249622CBC0D7499543F4F13878CAB53BF2506F82096AA8C6816D5CFF52A854D2BFAD7538664012B57AB8501755B01CDAF568342F366798A8F12BC62C741126E37A58462CDC8B21FA885D1DBECD56F64A3
310
84DDDBAD77E0BA2F8BE57B7A4E0B91415F0C5E3402437524114F75BB5B316659BA5C7C19439BCD597E760A5AA6A0CBE194461C833197AA9E022B02ABB0340B24C154E7BFAFBFF01CBEF0648E2E8A9C5F7767EF7E5BCFF32CCB99195A5FC2A12C81EF44CEEA0EBEFA246BA81DB0EAAD8BF5C9C43F59EB9EB66DB3471B24B0A7
310
8A2218A86A092548C7E4C02E9FF5A76CF772AC54D199BE5C383688422FC0D8D1B316AFF9C6E5800FA9AF29CA63B49F57D2BED8D61EEBA960131C1AD2E1BF504B0304140006080000686B9440000000000000000000000000350000006662782F36363139394334392D303937382D343732352D423946362D46394530453241
310
44353335342F76657274696365732E62696E504B0304140006080800686B9440F270F1330600000004000000360000006662782F36363139394334392D303937382D343732352D423946362D4639453045324144353335342F747269616E676C65732E62696E636660600000504B0304140006080000686B94400000000000
310
00000000000000370000006662782F36363139394334392D303937382D343732352D423946362D4639453045324144353335342F617474726962757465732E62696E504B0304140006080800686B9440D5987DFC8F00000041010000360000006662782F36363139394334392D303937382D343732352D423946362D463945
310
3045324144353335342F6469726563746F72792E786D6C858F410EC2201045AF4266AF15DDB800BA74E7C21B903225242D6328188F2FA5C4183471359997F9FF81E89FF3C41E1816475E02DF1F80A11FC8386F25A438EECEC07A250251FC3803E6F58C12560C4AD840E95E91C151A72936F496F35732D860FE635F62C8F2DA
310
16B505C545B74125BAA2FA9E05D7CC053D063734D5C7665FD55B6B8D15D5E9BFEAFD8490FFA45E504B0304140006080800686B94401881329AFD000000A00100003B0000006662782F36363139394334392D303937382D343732352D423946362D4639453045324144353335342F7265736F75726365732F636F72652E786D
310
6C8D50596EC32010BD0A9A7F6C2056EC4498284B73825E00E1898B1243C452F5F8C5B12BB57FFD9919BD45F3F4E4E16B7A904F0CD17AD703AF181074C60FD68D3DE474A31D908392C1FBF44B06C4E9097B986150720C3E3F57C87897D0A5823A3FE00AEA183101318F72F410CD074EBAD2391545BC574F6DEE7AC48A57852E
310
3A25630A2500599ECC1354C0E873301865BDB04AE66C87556387F2D3DE2C0650DB8DE0C7ED96D3CBEEDAD2E6D29E69D7EC1A7A614C9CDEDA133B9EAFB29ECD4A263BFD64340175C20194605C50D650C1DEF9662FDA3D6F29EBF68CC97A96FF31E5E7F04F53B62E6DC41A77B14550BC0479114AD6735F65BDCA2C7BEE567D03
310
504B010214000A0000080000686B94403DEE336E79000000790000001B00000000000000000000000000000000006175746F6465736B2D64657369676E2D7061636B6167652E786D6C504B01021400140006080800686B9440D486FD9CA0000000F40000001300000000000000000000000000B20000005B436F6E74656E74
310
5F54797065735D2E786D6C504B01021400140006080800686B9440706B6FABEA0000007C010000080000000000000000000000000083010000636F72652E786D6C504B01021400140006080800686B944055019EA25F0000007C000000070000000000000000000000000093020000636E782E786D6C504B01021400140006
310
080800686B94402917FB0B66010000020300000C00000000000000000000000000170300006662782F636F72652E786D6C504B01021400140006080800686B944092C565A87E0000009D0000000B00000000000000000000000000A70400006662782F636E782E786D6C504B01021400140006080800686B9440822F307C2B
310
0100001402000031000000000000000000000000004E0500006662782F36363139394334392D303937382D343732352D423946362D4639453045324144353335342F636F72652E786D6C504B01021400140006080800686B94402393CD7B54010000330300003000000000000000000000000000C80600006662782F363631
310
39394334392D303937382D343732352D423946362D4639453045324144353335342F636E782E786D6C504B01021400140006080800686B9440C26852C562070000991B000034000000000000000000000000006A0800006662782F36363139394334392D303937382D343732352D423946362D463945304532414435333534
310
2F6F626A656374732E786D6C504B01021400140006080000686B944000000000000000000000000035000000000000000000000000001E1000006662782F36363139394334392D303937382D343732352D423946362D4639453045324144353335342F76657274696365732E62696E504B01021400140006080800686B9440
310
F270F13306000000040000003600000000000000000000000000711000006662782F36363139394334392D303937382D343732352D423946362D4639453045324144353335342F747269616E676C65732E62696E504B01021400140006080000686B94400000000000000000000000003700000000000000000000000000CB
310
1000006662782F36363139394334392D303937382D343732352D423946362D4639453045324144353335342F617474726962757465732E62696E504B01021400140006080800686B9440D5987DFC8F000000410100003600000000000000000000000000201100006662782F36363139394334392D303937382D343732352D
310
423946362D4639453045324144353335342F6469726563746F72792E786D6C504B01021400140006080800686B94401881329AFD000000A00100003B00000000000000000000000000031200006662782F36363139394334392D303937382D343732352D423946362D4639453045324144353335342F7265736F7572636573
310
2F636F72652E786D6C504B0506000000000E000E0080040000591300000000
  0
XRECORD
  5
27
102
{ACAD_REACTORS
330
22
102
}
330
22
100
AcDbXrecord
280
     1
270
     1
271
     1
  0
XRECORD
  5
26
102
{ACAD_REACTORS
330
22
102
}
330
22
100
AcDbXrecord
280
     1
270
     1
271
     1
  0
XRECORD
  5
28
102
{ACAD_REACTORS
330
22
102
}
330
22
100
AcDbXrecord
280
     1
270
     1
271
     1
  0
XRECORD
  5
25
102
{ACAD_REACTORS
330
22
102
}
330
22
100
AcDbXrecord
280
     1
270
     1
271
     1
  0
XRECORD
  5
319
102
{ACAD_REACTORS
330
318
102
}
330
318
100
AcDbXrecord
280
     1
102
ACAD_ROUNDTRIP_2012_MLEADER_STYLE
298
     1
  0
CELLSTYLEMAP
  5
317
102
{ACAD_REACTORS
330
2C3
102
}
330
2C3
100
AcDbCellStyleMap
 90
        3
300
CELLSTYLE
  1
TABLEFORMAT_BEGIN
 90
        5
170
     1
 91
        0
 92
    32768
 62
   257
 93
        1
300
CONTENTFORMAT
  1
CONTENTFORMAT_BEGIN
 90
        0
 91
        0
 92
      512
 93
        0
300

 40
0.0
140
1.0
 94
        5
 62
     0
340
55
144
0.25
309
CONTENTFORMAT_END
171
     0
 94
        0
309
TABLEFORMAT_END
  1
CELLSTYLE_BEGIN
 90
        1
 91
        1
300
_TITLE
309
CELLSTYLE_END
300
CELLSTYLE
  1
TABLEFORMAT_BEGIN
 90
        5
170
     1
 91
        0
 92
        0
 62
   257
 93
        1
300
CONTENTFORMAT
  1
CONTENTFORMAT_BEGIN
 90
        0
 91
        0
 92
      512
 93
        0
300

 40
0.0
140
1.0
 94
        5
 62
     0
340
55
144
0.18
309
CONTENTFORMAT_END
171
     0
 94
        0
309
TABLEFORMAT_END
  1
CELLSTYLE_BEGIN
 90
        2
 91
        1
300
_HEADER
309
CELLSTYLE_END
300
CELLSTYLE
  1
TABLEFORMAT_BEGIN
 90
        5
170
     1
 91
        0
 92
        0
 62
   257
 93
        1
300
CONTENTFORMAT
  1
CONTENTFORMAT_BEGIN
 90
        0
 91
        0
 92
      512
 93
        0
300

 40
0.0
140
1.0
 94
        2
 62
     0
340
55
144
0.18
309
CONTENTFORMAT_END
171
     0
 94
        0
309
TABLEFORMAT_END
  1
CELLSTYLE_BEGIN
 90
        3
 91
        2
300
_DATA
309
CELLSTYLE_END
  0
XRECORD
  5
34F
102
{ACAD_REACTORS
330
2C3
102
}
330
2C3
100
AcDbXrecord
280
     1
102
ACAD_ROUNDTRIP_PRE2007_TABLESTYLE
 90
      512
 91
        0
  1

 92
      512
 93
        0
  2

 94
      512
 95
        0
  3

  0
XRECORD
  5
32A
102
{ACAD_REACTORS
330
329
102
}
330
329
100
AcDbXrecord
280
     1
102
RTVSPropertyOp0
 70
     1
102
RTVSPropertyOp1
 70
     1
102
RTVSPropertyOp2
 70
     1
102
RTVSPropertyOp3
 70
     1
102
RTVSPropertyOp4
 70
     1
102
RTVSPropertyOp5
 70
     1
102
RTVSPropertyOp6
 70
     1
102
RTVSPropertyOp7
 70
     1
102
RTVSPropertyOp8
 70
     1
102
RTVSPropertyOp9
 70
     1
102
RTVSPropertyOp10
 70
     1
102
RTVSPropertyOp11
 70
     1
102
RTVSPropertyOp12
 70
     1
102
RTVSPropertyOp13
 70
     1
102
RTVSPropertyOp14
 70
     1
102
RTVSPropertyOp15
 70
     1
102
RTVSPropertyOp16
 70
     1
102
RTVSPropertyOp17
 70
     1
102
RTVSPropertyOp18
 70
     1
102
RTVSPropertyOp19
 70
     1
102
RTVSPropertyOp20
 70
     1
102
RTVSPropertyOp21
 70
     1
102
RTVSPropertyOp22
 70
     1
102
RTVSPropertyOp23
 70
     1
102
RTVSPropertyOp24
 70
     1
102
RTVSPropertyOp25
 70
     1
102
RTVSPropertyOp26
 70
     1
102
RTVSPropertyOp27
 70
     1
102
RTVSPropertyOp28
 70
     1
102
RTVSPropertyOp29
 70
     1
102
RTVSPropertyOp30
 70
     1
102
RTVSPropertyOp31
 70
     1
102
RTVSPropertyOp32
 70
     1
  0
XRECORD
  5
328
102
{ACAD_REACTORS
330
327
102
}
330
327
100
AcDbXrecord
280
     1
102
RTVSPropertyOp0
 70
     1
102
RTVSPropertyOp1
 70
     1
102
RTVSPropertyOp2
 70
     1
102
RTVSPropertyOp3
 70
     1
102
RTVSPropertyOp4
 70
     1
102
RTVSPropertyOp5
 70
     1
102
RTVSPropertyOp6
 70
     1
102
RTVSPropertyOp7
 70
     1
102
RTVSPropertyOp8
 70
     1
102
RTVSPropertyOp9
 70
     1
102
RTVSPropertyOp10
 70
     1
102
RTVSPropertyOp11
 70
     1
102
RTVSPropertyOp12
 70
     1
102
RTVSPropertyOp13
 70
     1
102
RTVSPropertyOp14
 70
     1
102
RTVSPropertyOp15
 70
     1
102
RTVSPropertyOp16
 70
     1
102
RTVSPropertyOp17
 70
     1
102
RTVSPropertyOp18
 70
     1
102
RTVSPropertyOp19
 70
     1
102
RTVSPropertyOp20
 70
     1
102
RTVSPropertyOp21
 70
     1
102
RTVSPropertyOp22
 70
     1
102
RTVSPropertyOp23
 70
     1
102
RTVSPropertyOp24
 70
     1
102
RTVSPropertyOp25
 70
     1
102
RTVSPropertyOp26
 70
     1
102
RTVSPropertyOp27
 70
     1
102
RTVSPropertyOp28
 70
     1
102
RTVSPropertyOp29
 70
     1
102
RTVSPropertyOp30
 70
     1
102
RTVSPropertyOp31
 70
     1
102
RTVSPropertyOp32
 70
     1
  0
XRECORD
  5
336
102
{ACAD_REACTORS
330
335
102
}
330
335
100
AcDbXrecord
280
     1
102
RTVSPropertyOp0
 70
     1
102
RTVSPropertyOp1
 70
     1
102
RTVSPropertyOp2
 70
     1
102
RTVSPropertyOp3
 70
     1
102
RTVSPropertyOp4
 70
     1
102
RTVSPropertyOp5
 70
     1
102
RTVSPropertyOp6
 70
     1
102
RTVSPropertyOp7
 70
     1
102
RTVSPropertyOp8
 70
     1
102
RTVSPropertyOp9
 70
     1
102
RTVSPropertyOp10
 70
     1
102
RTVSPropertyOp11
 70
     1
102
RTVSPropertyOp12
 70
     1
102
RTVSPropertyOp13
 70
     1
102
RTVSPropertyOp14
 70
     1
102
RTVSPropertyOp15
 70
     1
102
RTVSPropertyOp16
 70
     1
102
RTVSPropertyOp17
 70
     1
102
RTVSPropertyOp18
 70
     1
102
RTVSPropertyOp19
 70
     1
102
RTVSPropertyOp20
 70
     1
102
RTVSPropertyOp21
 70
     1
102
RTVSPropertyOp22
 70
     1
102
RTVSPropertyOp23
 70
     1
102
RTVSPropertyOp24
 70
     1
102
RTVSPropertyOp25
 70
     1
102
RTVSPropertyOp26
 70
     1
102
RTVSPropertyOp27
 70
     1
102
RTVSPropertyOp28
 70
     1
102
RTVSPropertyOp29
 70
     1
102
RTVSPropertyOp30
 70
     1
102
RTVSPropertyOp31
 70
     1
102
RTVSPropertyOp32
 70
     1
  0
XRECORD
  5
33E
102
{ACAD_REACTORS
330
33D
102
}
330
33D
100
AcDbXrecord
280
     1
102
RTVSPropertyOp0
 70
     1
102
RTVSPropertyOp1
 70
     1
102
RTVSPropertyOp2
 70
     1
102
RTVSPropertyOp3
 70
     1
102
RTVSPropertyOp4
 70
     1
102
RTVSPropertyOp5
 70
     1
102
RTVSPropertyOp6
 70
     1
102
RTVSPropertyOp7
 70
     1
102
RTVSPropertyOp8
 70
     1
102
RTVSPropertyOp9
 70
     1
102
RTVSPropertyOp10
 70
     1
102
RTVSPropertyOp11
 70
     1
102
RTVSPropertyOp12
 70
     1
102
RTVSPropertyOp13
 70
     1
102
RTVSPropertyOp14
 70
     1
102
RTVSPropertyOp15
 70
     1
102
RTVSPropertyOp16
 70
     1
102
RTVSPropertyOp17
 70
     1
102
RTVSPropertyOp18
 70
     1
102
RTVSPropertyOp19
 70
     1
102
RTVSPropertyOp20
 70
     1
102
RTVSPropertyOp21
 70
     1
102
RTVSPropertyOp22
 70
     1
102
RTVSPropertyOp23
 70
     1
102
RTVSPropertyOp24
 70
     1
102
RTVSPropertyOp25
 70
     1
102
RTVSPropertyOp26
 70
     1
102
RTVSPropertyOp27
 70
     1
102
RTVSPropertyOp28
 70
     1
102
RTVSPropertyOp29
 70
     1
102
RTVSPropertyOp30
 70
     1
102
RTVSPropertyOp31
 70
     1
102
RTVSPropertyOp32
 70
     1
  0
XRECORD
  5
330
102
{ACAD_REACTORS
330
32F
102
}
330
32F
100
AcDbXrecord
280
     1
102
RTVSPropertyOp0
 70
     1
102
RTVSPropertyOp1
 70
     1
102
RTVSPropertyOp2
 70
     1
102
RTVSPropertyOp3
 70
     1
102
RTVSPropertyOp4
 70
     1
102
RTVSPropertyOp5
 70
     1
102
RTVSPropertyOp6
 70
     1
102
RTVSPropertyOp7
 70
     1
102
RTVSPropertyOp8
 70
     1
102
RTVSPropertyOp9
 70
     1
102
RTVSPropertyOp10
 70
     1
102
RTVSPropertyOp11
 70
     1
102
RTVSPropertyOp12
 70
     1
102
RTVSPropertyOp13
 70
     1
102
RTVSPropertyOp14
 70
     1
102
RTVSPropertyOp15
 70
     1
102
RTVSPropertyOp16
 70
     1
102
RTVSPropertyOp17
 70
     1
102
RTVSPropertyOp18
 70
     1
102
RTVSPropertyOp19
 70
     1
102
RTVSPropertyOp20
 70
     1
102
RTVSPropertyOp21
 70
     1
102
RTVSPropertyOp22
 70
     1
102
RTVSPropertyOp23
 70
     1
102
RTVSPropertyOp24
 70
     1
102
RTVSPropertyOp25
 70
     1
102
RTVSPropertyOp26
 70
     1
102
RTVSPropertyOp27
 70
     1
102
RTVSPropertyOp28
 70
     1
102
RTVSPropertyOp29
 70
     1
102
RTVSPropertyOp30
 70
     1
102
RTVSPropertyOp31
 70
     1
102
RTVSPropertyOp32
 70
     1
  0
XRECORD
  5
334
102
{ACAD_REACTORS
330
333
102
}
330
333
100
AcDbXrecord
280
     1
102
RTVSPropertyOp0
 70
     1
102
RTVSPropertyOp1
 70
     1
102
RTVSPropertyOp2
 70
     1
102
RTVSPropertyOp3
 70
     1
102
RTVSPropertyOp4
 70
     1
102
RTVSPropertyOp5
 70
     1
102
RTVSPropertyOp6
 70
     1
102
RTVSPropertyOp7
 70
     1
102
RTVSPropertyOp8
 70
     1
102
RTVSPropertyOp9
 70
     1
102
RTVSPropertyOp10
 70
     1
102
RTVSPropertyOp11
 70
     1
102
RTVSPropertyOp12
 70
     1
102
RTVSPropertyOp13
 70
     1
102
RTVSPropertyOp14
 70
     1
102
RTVSPropertyOp15
 70
     1
102
RTVSPropertyOp16
 70
     1
102
RTVSPropertyOp17
 70
     1
102
RTVSPropertyOp18
 70
     1
102
RTVSPropertyOp19
 70
     1
102
RTVSPropertyOp20
 70
     1
102
RTVSPropertyOp21
 70
     1
102
RTVSPropertyOp22
 70
     1
102
RTVSPropertyOp23
 70
     1
102
RTVSPropertyOp24
 70
     1
102
RTVSPropertyOp25
 70
     1
102
RTVSPropertyOp26
 70
     1
102
RTVSPropertyOp27
 70
     1
102
RTVSPropertyOp28
 70
     1
102
RTVSPropertyOp29
 70
     1
102
RTVSPropertyOp30
 70
     1
102
RTVSPropertyOp31
 70
     1
102
RTVSPropertyOp32
 70
     1
  0
XRECORD
  5
34E
102
{ACAD_REACTORS
330
34D
102
}
330
34D
100
AcDbXrecord
280
     1
102
RTVSPropertyOp0
 70
     0
102
RTVSPropertyOp1
 70
     0
102
RTVSPropertyOp2
 70
     0
102
RTVSPropertyOp3
 70
     0
102
RTVSPropertyOp4
 70
     0
102
RTVSPropertyOp5
 70
     0
102
RTVSPropertyOp6
 70
     0
102
RTVSPropertyOp7
 70
     0
102
RTVSPropertyOp8
 70
     0
102
RTVSPropertyOp9
 70
     0
102
RTVSPropertyOp10
 70
     0
102
RTVSPropertyOp11
 70
     0
102
RTVSPropertyOp12
 70
     0
102
RTVSPropertyOp13
 70
     0
102
RTVSPropertyOp14
 70
     2
102
RTVSPropertyOp15
 70
     0
102
RTVSPropertyOp16
 70
     0
102
RTVSPropertyOp17
 70
     0
102
RTVSPropertyOp18
 70
     0
102
RTVSPropertyOp19
 70
     0
102
RTVSPropertyOp20
 70
     0
102
RTVSPropertyOp21
 70
     0
102
RTVSPropertyOp22
 70
     0
102
RTVSPropertyOp23
 70
     0
102
RTVSPropertyOp24
 70
     0
102
RTVSPropertyOp25
 70
     0
102
RTVSPropertyOp26
 70
     0
102
RTVSPropertyOp27
 70
     0
102
RTVSPropertyOp28
 70
     1
102
RTVSPropertyOp29
 70
     1
102
RTVSPropertyOp30
 70
     1
102
RTVSPropertyOp31
 70
     1
102
RTVSPropertyOp32
 70
     1
  0
XRECORD
  5
33C
102
{ACAD_REACTORS
330
33B
102
}
330
33B
100
AcDbXrecord
280
     1
102
RTVSPropertyOp0
 70
     1
102
RTVSPropertyOp1
 70
     1
102
RTVSPropertyOp2
 70
     1
102
RTVSPropertyOp3
 70
     1
102
RTVSPropertyOp4
 70
     1
102
RTVSPropertyOp5
 70
     1
102
RTVSPropertyOp6
 70
     1
102
RTVSPropertyOp7
 70
     1
102
RTVSPropertyOp8
 70
     1
102
RTVSPropertyOp9
 70
     1
102
RTVSPropertyOp10
 70
     1
102
RTVSPropertyOp11
 70
     1
102
RTVSPropertyOp12
 70
     1
102
RTVSPropertyOp13
 70
     1
102
RTVSPropertyOp14
 70
     1
102
RTVSPropertyOp15
 70
     1
102
RTVSPropertyOp16
 70
     1
102
RTVSPropertyOp17
 70
     1
102
RTVSPropertyOp18
 70
     1
102
RTVSPropertyOp19
 70
     1
102
RTVSPropertyOp20
 70
     1
102
RTVSPropertyOp21
 70
     1
102
RTVSPropertyOp22
 70
     1
102
RTVSPropertyOp23
 70
     1
102
RTVSPropertyOp24
 70
     1
102
RTVSPropertyOp25
 70
     1
102
RTVSPropertyOp26
 70
     1
102
RTVSPropertyOp27
 70
     1
102
RTVSPropertyOp28
 70
     1
102
RTVSPropertyOp29
 70
     1
102
RTVSPropertyOp30
 70
     1
102
RTVSPropertyOp31
 70
     1
102
RTVSPropertyOp32
 70
     1
  0
XRECORD
  5
320
102
{ACAD_REACTORS
330
31F
102
}
330
31F
100
AcDbXrecord
280
     1
102
RTVSPropertyOp0
 70
     1
102
RTVSPropertyOp1
 70
     1
102
RTVSPropertyOp2
 70
     1
102
RTVSPropertyOp3
 70
     1
102
RTVSPropertyOp4
 70
     1
102
RTVSPropertyOp5
 70
     1
102
RTVSPropertyOp6
 70
     1
102
RTVSPropertyOp7
 70
     1
102
RTVSPropertyOp8
 70
     1
102
RTVSPropertyOp9
 70
     1
102
RTVSPropertyOp10
 70
     1
102
RTVSPropertyOp11
 70
     1
102
RTVSPropertyOp12
 70
     1
102
RTVSPropertyOp13
 70
     1
102
RTVSPropertyOp14
 70
     1
102
RTVSPropertyOp15
 70
     1
102
RTVSPropertyOp16
 70
     1
102
RTVSPropertyOp17
 70
     1
102
RTVSPropertyOp18
 70
     1
102
RTVSPropertyOp19
 70
     1
102
RTVSPropertyOp20
 70
     1
102
RTVSPropertyOp21
 70
     1
102
RTVSPropertyOp22
 70
     1
102
RTVSPropertyOp23
 70
     1
102
RTVSPropertyOp24
 70
     1
102
RTVSPropertyOp25
 70
     1
102
RTVSPropertyOp26
 70
     1
102
RTVSPropertyOp27
 70
     1
102
RTVSPropertyOp28
 70
     1
102
RTVSPropertyOp29
 70
     1
102
RTVSPropertyOp30
 70
     1
102
RTVSPropertyOp31
 70
     1
102
RTVSPropertyOp32
 70
     1
  0
XRECORD
  5
322
102
{ACAD_REACTORS
330
321
102
}
330
321
100
AcDbXrecord
280
     1
102
RTVSPropertyOp0
 70
     1
102
RTVSPropertyOp1
 70
     1
102
RTVSPropertyOp2
 70
     1
102
RTVSPropertyOp3
 70
     1
102
RTVSPropertyOp4
 70
     1
102
RTVSPropertyOp5
 70
     1
102
RTVSPropertyOp6
 70
     1
102
RTVSPropertyOp7
 70
     1
102
RTVSPropertyOp8
 70
     1
102
RTVSPropertyOp9
 70
     1
102
RTVSPropertyOp10
 70
     1
102
RTVSPropertyOp11
 70
     1
102
RTVSPropertyOp12
 70
     1
102
RTVSPropertyOp13
 70
     1
102
RTVSPropertyOp14
 70
     1
102
RTVSPropertyOp15
 70
     1
102
RTVSPropertyOp16
 70
     1
102
RTVSPropertyOp17
 70
     1
102
RTVSPropertyOp18
 70
     1
102
RTVSPropertyOp19
 70
     1
102
RTVSPropertyOp20
 70
     1
102
RTVSPropertyOp21
 70
     1
102
RTVSPropertyOp22
 70
     1
102
RTVSPropertyOp23
 70
     1
102
RTVSPropertyOp24
 70
     1
102
RTVSPropertyOp25
 70
     1
102
RTVSPropertyOp26
 70
     1
102
RTVSPropertyOp27
 70
     1
102
RTVSPropertyOp28
 70
     1
102
RTVSPropertyOp29
 70
     1
102
RTVSPropertyOp30
 70
     1
102
RTVSPropertyOp31
 70
     1
102
RTVSPropertyOp32
 70
     1
  0
XRECORD
  5
324
102
{ACAD_REACTORS
330
323
102
}
330
323
100
AcDbXrecord
280
     1
102
RTVSPropertyOp0
 70
     1
102
RTVSPropertyOp1
 70
     1
102
RTVSPropertyOp2
 70
     1
102
RTVSPropertyOp3
 70
     1
102
RTVSPropertyOp4
 70
     1
102
RTVSPropertyOp5
 70
     1
102
RTVSPropertyOp6
 70
     1
102
RTVSPropertyOp7
 70
     1
102
RTVSPropertyOp8
 70
     1
102
RTVSPropertyOp9
 70
     1
102
RTVSPropertyOp10
 70
     1
102
RTVSPropertyOp11
 70
     1
102
RTVSPropertyOp12
 70
     1
102
RTVSPropertyOp13
 70
     1
102
RTVSPropertyOp14
 70
     1
102
RTVSPropertyOp15
 70
     1
102
RTVSPropertyOp16
 70
     1
102
RTVSPropertyOp17
 70
     1
102
RTVSPropertyOp18
 70
     1
102
RTVSPropertyOp19
 70
     1
102
RTVSPropertyOp20
 70
     1
102
RTVSPropertyOp21
 70
     1
102
RTVSPropertyOp22
 70
     1
102
RTVSPropertyOp23
 70
     1
102
RTVSPropertyOp24
 70
     1
102
RTVSPropertyOp25
 70
     1
102
RTVSPropertyOp26
 70
     1
102
RTVSPropertyOp27
 70
     1
102
RTVSPropertyOp28
 70
     1
102
RTVSPropertyOp29
 70
     1
102
RTVSPropertyOp30
 70
     1
102
RTVSPropertyOp31
 70
     1
102
RTVSPropertyOp32
 70
     1
  0
XRECORD
  5
326
102
{ACAD_REACTORS
330
325
102
}
330
325
100
AcDbXrecord
280
     1
102
RTVSPropertyOp0
 70
     1
102
RTVSPropertyOp1
 70
     1
102
RTVSPropertyOp2
 70
     1
102
RTVSPropertyOp3
 70
     1
102
RTVSPropertyOp4
 70
     1
102
RTVSPropertyOp5
 70
     1
102
RTVSPropertyOp6
 70
     1
102
RTVSPropertyOp7
 70
     1
102
RTVSPropertyOp8
 70
     1
102
RTVSPropertyOp9
 70
     1
102
RTVSPropertyOp10
 70
     1
102
RTVSPropertyOp11
 70
     1
102
RTVSPropertyOp12
 70
     1
102
RTVSPropertyOp13
 70
     1
102
RTVSPropertyOp14
 70
     1
102
RTVSPropertyOp15
 70
     1
102
RTVSPropertyOp16
 70
     1
102
RTVSPropertyOp17
 70
     1
102
RTVSPropertyOp18
 70
     1
102
RTVSPropertyOp19
 70
     1
102
RTVSPropertyOp20
 70
     1
102
RTVSPropertyOp21
 70
     1
102
RTVSPropertyOp22
 70
     1
102
RTVSPropertyOp23
 70
     1
102
RTVSPropertyOp24
 70
     1
102
RTVSPropertyOp25
 70
     1
102
RTVSPropertyOp26
 70
     1
102
RTVSPropertyOp27
 70
     1
102
RTVSPropertyOp28
 70
     1
102
RTVSPropertyOp29
 70
     1
102
RTVSPropertyOp30
 70
     1
102
RTVSPropertyOp31
 70
     1
102
RTVSPropertyOp32
 70
     1
  0
XRECORD
  5
32E
102
{ACAD_REACTORS
330
32D
102
}
330
32D
100
AcDbXrecord
280
     1
102
RTVSPropertyOp0
 70
     1
102
RTVSPropertyOp1
 70
     1
102
RTVSPropertyOp2
 70
     1
102
RTVSPropertyOp3
 70
     1
102
RTVSPropertyOp4
 70
     1
102
RTVSPropertyOp5
 70
     1
102
RTVSPropertyOp6
 70
     1
102
RTVSPropertyOp7
 70
     1
102
RTVSPropertyOp8
 70
     1
102
RTVSPropertyOp9
 70
     1
102
RTVSPropertyOp10
 70
     1
102
RTVSPropertyOp11
 70
     1
102
RTVSPropertyOp12
 70
     1
102
RTVSPropertyOp13
 70
     1
102
RTVSPropertyOp14
 70
     1
102
RTVSPropertyOp15
 70
     1
102
RTVSPropertyOp16
 70
     1
102
RTVSPropertyOp17
 70
     1
102
RTVSPropertyOp18
 70
     1
102
RTVSPropertyOp19
 70
     1
102
RTVSPropertyOp20
 70
     1
102
RTVSPropertyOp21
 70
     1
102
RTVSPropertyOp22
 70
     1
102
RTVSPropertyOp23
 70
     1
102
RTVSPropertyOp24
 70
     1
102
RTVSPropertyOp25
 70
     1
102
RTVSPropertyOp26
 70
     1
102
RTVSPropertyOp27
 70
     1
102
RTVSPropertyOp28
 70
     1
102
RTVSPropertyOp29
 70
     1
102
RTVSPropertyOp30
 70
     1
102
RTVSPropertyOp31
 70
     1
102
RTVSPropertyOp32
 70
     1
  0
XRECORD
  5
34A
102
{ACAD_REACTORS
330
349
102
}
330
349
100
AcDbXrecord
280
     1
102
RTVSPropertyOp0
 70
     0
102
RTVSPropertyOp1
 70
     0
102
RTVSPropertyOp2
 70
     0
102
RTVSPropertyOp3
 70
     0
102
RTVSPropertyOp4
 70
     0
102
RTVSPropertyOp5
 70
     0
102
RTVSPropertyOp6
 70
     0
102
RTVSPropertyOp7
 70
     0
102
RTVSPropertyOp8
 70
     0
102
RTVSPropertyOp9
 70
     0
102
RTVSPropertyOp10
 70
     0
102
RTVSPropertyOp11
 70
     0
102
RTVSPropertyOp12
 70
     0
102
RTVSPropertyOp13
 70
     0
102
RTVSPropertyOp14
 70
     2
102
RTVSPropertyOp15
 70
     0
102
RTVSPropertyOp16
 70
     0
102
RTVSPropertyOp17
 70
     0
102
RTVSPropertyOp18
 70
     0
102
RTVSPropertyOp19
 70
     0
102
RTVSPropertyOp20
 70
     0
102
RTVSPropertyOp21
 70
     0
102
RTVSPropertyOp22
 70
     0
102
RTVSPropertyOp23
 70
     0
102
RTVSPropertyOp24
 70
     0
102
RTVSPropertyOp25
 70
     0
102
RTVSPropertyOp26
 70
     0
102
RTVSPropertyOp27
 70
     0
102
RTVSPropertyOp28
 70
     1
102
RTVSPropertyOp29
 70
     1
102
RTVSPropertyOp30
 70
     1
102
RTVSPropertyOp31
 70
     1
102
RTVSPropertyOp32
 70
     1
  0
XRECORD
  5
33A
102
{ACAD_REACTORS
330
339
102
}
330
339
100
AcDbXrecord
280
     1
102
RTVSPropertyOp0
 70
     1
102
RTVSPropertyOp1
 70
     1
102
RTVSPropertyOp2
 70
     1
102
RTVSPropertyOp3
 70
     1
102
RTVSPropertyOp4
 70
     1
102
RTVSPropertyOp5
 70
     1
102
RTVSPropertyOp6
 70
     1
102
RTVSPropertyOp7
 70
     1
102
RTVSPropertyOp8
 70
     1
102
RTVSPropertyOp9
 70
     1
102
RTVSPropertyOp10
 70
     1
102
RTVSPropertyOp11
 70
     1
102
RTVSPropertyOp12
 70
     1
102
RTVSPropertyOp13
 70
     1
102
RTVSPropertyOp14
 70
     1
102
RTVSPropertyOp15
 70
     1
102
RTVSPropertyOp16
 70
     1
102
RTVSPropertyOp17
 70
     1
102
RTVSPropertyOp18
 70
     1
102
RTVSPropertyOp19
 70
     1
102
RTVSPropertyOp20
 70
     1
102
RTVSPropertyOp21
 70
     1
102
RTVSPropertyOp22
 70
     1
102
RTVSPropertyOp23
 70
     1
102
RTVSPropertyOp24
 70
     1
102
RTVSPropertyOp25
 70
     1
102
RTVSPropertyOp26
 70
     1
102
RTVSPropertyOp27
 70
     1
102
RTVSPropertyOp28
 70
     1
102
RTVSPropertyOp29
 70
     1
102
RTVSPropertyOp30
 70
     1
102
RTVSPropertyOp31
 70
     1
102
RTVSPropertyOp32
 70
     1
  0
XRECORD
  5
34C
102
{ACAD_REACTORS
330
34B
102
}
330
34B
100
AcDbXrecord
280
     1
102
RTVSPropertyOp0
 70
     0
102
RTVSPropertyOp1
 70
     0
102
RTVSPropertyOp2
 70
     0
102
RTVSPropertyOp3
 70
     0
102
RTVSPropertyOp4
 70
     0
102
RTVSPropertyOp5
 70
     0
102
RTVSPropertyOp6
 70
     0
102
RTVSPropertyOp7
 70
     0
102
RTVSPropertyOp8
 70
     0
102
RTVSPropertyOp9
 70
     0
102
RTVSPropertyOp10
 70
     0
102
RTVSPropertyOp11
 70
     0
102
RTVSPropertyOp12
 70
     0
102
RTVSPropertyOp13
 70
     0
102
RTVSPropertyOp14
 70
     2
102
RTVSPropertyOp15
 70
     0
102
RTVSPropertyOp16
 70
     0
102
RTVSPropertyOp17
 70
     0
102
RTVSPropertyOp18
 70
     0
102
RTVSPropertyOp19
 70
     0
102
RTVSPropertyOp20
 70
     0
102
RTVSPropertyOp21
 70
     0
102
RTVSPropertyOp22
 70
     0
102
RTVSPropertyOp23
 70
     0
102
RTVSPropertyOp24
 70
     0
102
RTVSPropertyOp25
 70
     0
102
RTVSPropertyOp26
 70
     0
102
RTVSPropertyOp27
 70
     0
102
RTVSPropertyOp28
 70
     1
102
RTVSPropertyOp29
 70
     1
102
RTVSPropertyOp30
 70
     1
102
RTVSPropertyOp31
 70
     1
102
RTVSPropertyOp32
 70
     1
  0
XRECORD
  5
332
102
{ACAD_REACTORS
330
331
102
}
330
331
100
AcDbXrecord
280
     1
102
RTVSPropertyOp0
 70
     1
102
RTVSPropertyOp1
 70
     1
102
RTVSPropertyOp2
 70
     1
102
RTVSPropertyOp3
 70
     1
102
RTVSPropertyOp4
 70
     1
102
RTVSPropertyOp5
 70
     1
102
RTVSPropertyOp6
 70
     1
102
RTVSPropertyOp7
 70
     1
102
RTVSPropertyOp8
 70
     1
102
RTVSPropertyOp9
 70
     1
102
RTVSPropertyOp10
 70
     1
102
RTVSPropertyOp11
 70
     1
102
RTVSPropertyOp12
 70
     1
102
RTVSPropertyOp13
 70
     1
102
RTVSPropertyOp14
 70
     1
102
RTVSPropertyOp15
 70
     1
102
RTVSPropertyOp16
 70
     1
102
RTVSPropertyOp17
 70
     1
102
RTVSPropertyOp18
 70
     1
102
RTVSPropertyOp19
 70
     1
102
RTVSPropertyOp20
 70
     1
102
RTVSPropertyOp21
 70
     1
102
RTVSPropertyOp22
 70
     1
102
RTVSPropertyOp23
 70
     1
102
RTVSPropertyOp24
 70
     1
102
RTVSPropertyOp25
 70
     1
102
RTVSPropertyOp26
 70
     1
102
RTVSPropertyOp27
 70
     1
102
RTVSPropertyOp28
 70
     1
102
RTVSPropertyOp29
 70
     1
102
RTVSPropertyOp30
 70
     1
102
RTVSPropertyOp31
 70
     1
102
RTVSPropertyOp32
 70
     1
  0
XRECORD
  5
348
102
{ACAD_REACTORS
330
347
102
}
330
347
100
AcDbXrecord
280
     1
102
RTVSPropertyOp0
 70
     1
102
RTVSPropertyOp1
 70
     1
102
RTVSPropertyOp2
 70
     1
102
RTVSPropertyOp3
 70
     1
102
RTVSPropertyOp4
 70
     1
102
RTVSPropertyOp5
 70
     1
102
RTVSPropertyOp6
 70
     1
102
RTVSPropertyOp7
 70
     1
102
RTVSPropertyOp8
 70
     1
102
RTVSPropertyOp9
 70
     1
102
RTVSPropertyOp10
 70
     1
102
RTVSPropertyOp11
 70
     1
102
RTVSPropertyOp12
 70
     1
102
RTVSPropertyOp13
 70
     1
102
RTVSPropertyOp14
 70
     1
102
RTVSPropertyOp15
 70
     1
102
RTVSPropertyOp16
 70
     1
102
RTVSPropertyOp17
 70
     1
102
RTVSPropertyOp18
 70
     1
102
RTVSPropertyOp19
 70
     1
102
RTVSPropertyOp20
 70
     1
102
RTVSPropertyOp21
 70
     1
102
RTVSPropertyOp22
 70
     1
102
RTVSPropertyOp23
 70
     1
102
RTVSPropertyOp24
 70
     1
102
RTVSPropertyOp25
 70
     1
102
RTVSPropertyOp26
 70
     1
102
RTVSPropertyOp27
 70
     1
102
RTVSPropertyOp28
 70
     1
102
RTVSPropertyOp29
 70
     1
102
RTVSPropertyOp30
 70
     1
102
RTVSPropertyOp31
 70
     1
102
RTVSPropertyOp32
 70
     1
  0
XRECORD
  5
346
102
{ACAD_REACTORS
330
345
102
}
330
345
100
AcDbXrecord
280
     1
102
RTVSPropertyOp0
 70
     1
102
RTVSPropertyOp1
 70
     1
102
RTVSPropertyOp2
 70
     1
102
RTVSPropertyOp3
 70
     1
102
RTVSPropertyOp4
 70
     1
102
RTVSPropertyOp5
 70
     1
102
RTVSPropertyOp6
 70
     1
102
RTVSPropertyOp7
 70
     1
102
RTVSPropertyOp8
 70
     1
102
RTVSPropertyOp9
 70
     1
102
RTVSPropertyOp10
 70
     1
102
RTVSPropertyOp11
 70
     1
102
RTVSPropertyOp12
 70
     1
102
RTVSPropertyOp13
 70
     1
102
RTVSPropertyOp14
 70
     1
102
RTVSPropertyOp15
 70
     1
102
RTVSPropertyOp16
 70
     1
102
RTVSPropertyOp17
 70
     1
102
RTVSPropertyOp18
 70
     1
102
RTVSPropertyOp19
 70
     1
102
RTVSPropertyOp20
 70
     1
102
RTVSPropertyOp21
 70
     1
102
RTVSPropertyOp22
 70
     1
102
RTVSPropertyOp23
 70
     1
102
RTVSPropertyOp24
 70
     1
102
RTVSPropertyOp25
 70
     1
102
RTVSPropertyOp26
 70
     1
102
RTVSPropertyOp27
 70
     1
102
RTVSPropertyOp28
 70
     1
102
RTVSPropertyOp29
 70
     1
102
RTVSPropertyOp30
 70
     1
102
RTVSPropertyOp31
 70
     1
102
RTVSPropertyOp32
 70
     1
  0
XRECORD
  5
340
102
{ACAD_REACTORS
330
33F
102
}
330
33F
100
AcDbXrecord
280
     1
102
RTVSPropertyOp0
 70
     1
102
RTVSPropertyOp1
 70
     1
102
RTVSPropertyOp2
 70
     1
102
RTVSPropertyOp3
 70
     1
102
RTVSPropertyOp4
 70
     1
102
RTVSPropertyOp5
 70
     1
102
RTVSPropertyOp6
 70
     1
102
RTVSPropertyOp7
 70
     1
102
RTVSPropertyOp8
 70
     1
102
RTVSPropertyOp9
 70
     1
102
RTVSPropertyOp10
 70
     1
102
RTVSPropertyOp11
 70
     1
102
RTVSPropertyOp12
 70
     1
102
RTVSPropertyOp13
 70
     1
102
RTVSPropertyOp14
 70
     1
102
RTVSPropertyOp15
 70
     1
102
RTVSPropertyOp16
 70
     1
102
RTVSPropertyOp17
 70
     1
102
RTVSPropertyOp18
 70
     1
102
RTVSPropertyOp19
 70
     1
102
RTVSPropertyOp20
 70
     1
102
RTVSPropertyOp21
 70
     1
102
RTVSPropertyOp22
 70
     1
102
RTVSPropertyOp23
 70
     1
102
RTVSPropertyOp24
 70
     1
102
RTVSPropertyOp25
 70
     1
102
RTVSPropertyOp26
 70
     1
102
RTVSPropertyOp27
 70
     1
102
RTVSPropertyOp28
 70
     1
102
RTVSPropertyOp29
 70
     1
102
RTVSPropertyOp30
 70
     1
102
RTVSPropertyOp31
 70
     1
102
RTVSPropertyOp32
 70
     1
  0
XRECORD
  5
342
102
{ACAD_REACTORS
330
341
102
}
330
341
100
AcDbXrecord
280
     1
102
RTVSPropertyOp0
 70
     1
102
RTVSPropertyOp1
 70
     1
102
RTVSPropertyOp2
 70
     1
102
RTVSPropertyOp3
 70
     1
102
RTVSPropertyOp4
 70
     1
102
RTVSPropertyOp5
 70
     1
102
RTVSPropertyOp6
 70
     1
102
RTVSPropertyOp7
 70
     1
102
RTVSPropertyOp8
 70
     1
102
RTVSPropertyOp9
 70
     1
102
RTVSPropertyOp10
 70
     1
102
RTVSPropertyOp11
 70
     1
102
RTVSPropertyOp12
 70
     1
102
RTVSPropertyOp13
 70
     1
102
RTVSPropertyOp14
 70
     1
102
RTVSPropertyOp15
 70
     1
102
RTVSPropertyOp16
 70
     1
102
RTVSPropertyOp17
 70
     1
102
RTVSPropertyOp18
 70
     1
102
RTVSPropertyOp19
 70
     1
102
RTVSPropertyOp20
 70
     1
102
RTVSPropertyOp21
 70
     1
102
RTVSPropertyOp22
 70
     1
102
RTVSPropertyOp23
 70
     1
102
RTVSPropertyOp24
 70
     1
102
RTVSPropertyOp25
 70
     1
102
RTVSPropertyOp26
 70
     1
102
RTVSPropertyOp27
 70
     1
102
RTVSPropertyOp28
 70
     1
102
RTVSPropertyOp29
 70
     1
102
RTVSPropertyOp30
 70
     1
102
RTVSPropertyOp31
 70
     1
102
RTVSPropertyOp32
 70
     1
  0
XRECORD
  5
338
102
{ACAD_REACTORS
330
337
102
}
330
337
100
AcDbXrecord
280
     1
102
RTVSPropertyOp0
 70
     1
102
RTVSPropertyOp1
 70
     1
102
RTVSPropertyOp2
 70
     1
102
RTVSPropertyOp3
 70
     1
102
RTVSPropertyOp4
 70
     1
102
RTVSPropertyOp5
 70
     1
102
RTVSPropertyOp6
 70
     1
102
RTVSPropertyOp7
 70
     1
102
RTVSPropertyOp8
 70
     1
102
RTVSPropertyOp9
 70
     1
102
RTVSPropertyOp10
 70
     1
102
RTVSPropertyOp11
 70
     1
102
RTVSPropertyOp12
 70
     1
102
RTVSPropertyOp13
 70
     1
102
RTVSPropertyOp14
 70
     1
102
RTVSPropertyOp15
 70
     1
102
RTVSPropertyOp16
 70
     1
102
RTVSPropertyOp17
 70
     1
102
RTVSPropertyOp18
 70
     1
102
RTVSPropertyOp19
 70
     1
102
RTVSPropertyOp20
 70
     1
102
RTVSPropertyOp21
 70
     1
102
RTVSPropertyOp22
 70
     1
102
RTVSPropertyOp23
 70
     1
102
RTVSPropertyOp24
 70
     1
102
RTVSPropertyOp25
 70
     1
102
RTVSPropertyOp26
 70
     1
102
RTVSPropertyOp27
 70
     1
102
RTVSPropertyOp28
 70
     1
102
RTVSPropertyOp29
 70
     1
102
RTVSPropertyOp30
 70
     1
102
RTVSPropertyOp31
 70
     1
102
RTVSPropertyOp32
 70
     1
  0
XRECORD
  5
32C
102
{ACAD_REACTORS
330
32B
102
}
330
32B
100
AcDbXrecord
280
     1
102
RTVSPropertyOp0
 70
     1
102
RTVSPropertyOp1
 70
     1
102
RTVSPropertyOp2
 70
     1
102
RTVSPropertyOp3
 70
     1
102
RTVSPropertyOp4
 70
     1
102
RTVSPropertyOp5
 70
     1
102
RTVSPropertyOp6
 70
     1
102
RTVSPropertyOp7
 70
     1
102
RTVSPropertyOp8
 70
     1
102
RTVSPropertyOp9
 70
     1
102
RTVSPropertyOp10
 70
     1
102
RTVSPropertyOp11
 70
     1
102
RTVSPropertyOp12
 70
     1
102
RTVSPropertyOp13
 70
     1
102
RTVSPropertyOp14
 70
     1
102
RTVSPropertyOp15
 70
     1
102
RTVSPropertyOp16
 70
     1
102
RTVSPropertyOp17
 70
     1
102
RTVSPropertyOp18
 70
     1
102
RTVSPropertyOp19
 70
     1
102
RTVSPropertyOp20
 70
     1
102
RTVSPropertyOp21
 70
     1
102
RTVSPropertyOp22
 70
     1
102
RTVSPropertyOp23
 70
     1
102
RTVSPropertyOp24
 70
     1
102
RTVSPropertyOp25
 70
     1
102
RTVSPropertyOp26
 70
     1
102
RTVSPropertyOp27
 70
     1
102
RTVSPropertyOp28
 70
     1
102
RTVSPropertyOp29
 70
     1
102
RTVSPropertyOp30
 70
     1
102
RTVSPropertyOp31
 70
     1
102
RTVSPropertyOp32
 70
     1
  0
XRECORD
  5
344
102
{ACAD_REACTORS
330
343
102
}
330
343
100
AcDbXrecord
280
     1
102
RTVSPropertyOp0
 70
     1
102
RTVSPropertyOp1
 70
     1
102
RTVSPropertyOp2
 70
     1
102
RTVSPropertyOp3
 70
     1
102
RTVSPropertyOp4
 70
     1
102
RTVSPropertyOp5
 70
     1
102
RTVSPropertyOp6
 70
     1
102
RTVSPropertyOp7
 70
     1
102
RTVSPropertyOp8
 70
     1
102
RTVSPropertyOp9
 70
     1
102
RTVSPropertyOp10
 70
     1
102
RTVSPropertyOp11
 70
     1
102
RTVSPropertyOp12
 70
     1
102
RTVSPropertyOp13
 70
     1
102
RTVSPropertyOp14
 70
     1
102
RTVSPropertyOp15
 70
     1
102
RTVSPropertyOp16
 70
     1
102
RTVSPropertyOp17
 70
     1
102
RTVSPropertyOp18
 70
     1
102
RTVSPropertyOp19
 70
     1
102
RTVSPropertyOp20
 70
     1
102
RTVSPropertyOp21
 70
     1
102
RTVSPropertyOp22
 70
     1
102
RTVSPropertyOp23
 70
     1
102
RTVSPropertyOp24
 70
     1
102
RTVSPropertyOp25
 70
     1
102
RTVSPropertyOp26
 70
     1
102
RTVSPropertyOp27
 70
     1
102
RTVSPropertyOp28
 70
     1
102
RTVSPropertyOp29
 70
     1
102
RTVSPropertyOp30
 70
     1
102
RTVSPropertyOp31
 70
     1
102
RTVSPropertyOp32
 70
     1
  0
ENDSEC
  0
EOF
