  0
SECTION
  2
HEADER
  9
$ACADVER
  1
AC1015
  9
$ACADMAINTVER
 70
    20
  9
$DWGCODEPAGE
  3
ANSI_1252
  9
$INSBASE
 10
0.0
 20
0.0
 30
0.0
  9
$EXTMIN
 10
0.5000000000000013
 20
0.4999999999999999
 30
0.0
  9
$EXTMAX
 10
16.5
 20
10.5
 30
0.0
  9
$LIMMIN
 10
0.0
 20
0.0
  9
$LIMMAX
 10
17.0
 20
11.0
  9
$ORTHOMODE
 70
     0
  9
$REGENMODE
 70
     1
  9
$FILLMODE
 70
     1
  9
$QTEXTMODE
 70
     0
  9
$MIRRTEXT
 70
     0
  9
$LTSCALE
 40
1.0
  9
$ATTMODE
 70
     1
  9
$TEXTSIZE
 40
0.2
  9
$TRACEWID
 40
0.05
  9
$TEXTSTYLE
  7
Standard
  9
$CLAYER
  8
0
  9
$CELTYPE
  6
ByLayer
  9
$CECOLOR
 62
   256
  9
$CELTSCALE
 40
1.0
  9
$DISPSILH
 70
     0
  9
$DIMSCALE
 40
1.0
  9
$DIMASZ
 40
0.0708661417322835
  9
$DIMEXO
 40
0.0625
  9
$DIMDLI
 40
0.38
  9
$DIMRND
 40
0.0
  9
$DIMDLE
 40
0.0
  9
$DIMEXE
 40
0.18
  9
$DIMTP
 40
0.0
  9
$DIMTM
 40
0.0
  9
$DIMTXT
 40
0.0708661417322835
  9
$DIMCEN
 40
0.09
  9
$DIMTSZ
 40
0.0
  9
$DIMTOL
 70
     0
  9
$DIMLIM
 70
     0
  9
$DIMTIH
 70
     1
  9
$DIMTOH
 70
     1
  9
$DIMSE1
 70
     0
  9
$DIMSE2
 70
     0
  9
$DIMTAD
 70
     0
  9
$DIMZIN
 70
     0
  9
$DIMBLK
  1

  9
$DIMASO
 70
     1
  9
$DIMSHO
 70
     1
  9
$DIMPOST
  1

  9
$DIMAPOST
  1

  9
$DIMALT
 70
     0
  9
$DIMALTD
 70
     2
  9
$DIMALTF
 40
25.4
  9
$DIMLFAC
 40
1.0
  9
$DIMTOFL
 70
     0
  9
$DIMTVP
 40
0.0
  9
$DIMTIX
 70
     0
  9
$DIMSOXD
 70
     0
  9
$DIMSAH
 70
     0
  9
$DIMBLK1
  1

  9
$DIMBLK2
  1

  9
$DIMSTYLE
  2
Standard
  9
$DIMCLRD
 70
     0
  9
$DIMCLRE
 70
     0
  9
$DIMCLRT
 70
     0
  9
$DIMTFAC
 40
1.0
  9
$DIMGAP
 40
0.09
  9
$DIMJUST
 70
     0
  9
$DIMSD1
 70
     0
  9
$DIMSD2
 70
     0
  9
$DIMTOLJ
 70
     1
  9
$DIMTZIN
 70
     0
  9
$DIMALTZ
 70
     0
  9
$DIMALTTZ
 70
     0
  9
$DIMUPT
 70
     0
  9
$DIMDEC
 70
     4
  9
$DIMTDEC
 70
     4
  9
$DIMALTU
 70
     2
  9
$DIMALTTD
 70
     2
  9
$DIMTXSTY
  7
Standard
  9
$DIMAUNIT
 70
     0
  9
$DIMADEC
 70
     0
  9
$DIMALTRND
 40
0.0
  9
$DIMAZIN
 70
     0
  9
$DIMDSEP
 70
    46
  9
$DIMATFIT
 70
     3
  9
$DIMFRAC
 70
     0
  9
$DIMLDRBLK
  1

  9
$DIMLUNIT
 70
     2
  9
$DIMLWD
 70
    -2
  9
$DIMLWE
 70
    -2
  9
$DIMTMOVE
 70
     0
  9
$LUNITS
 70
     2
  9
$LUPREC
 70
     4
  9
$SKETCHINC
 40
0.1
  9
$FILLETRAD
 40
0.0
  9
$AUNITS
 70
     0
  9
$AUPREC
 70
     0
  9
$MENU
  1
.
  9
$ELEVATION
 40
0.0
  9
$PELEVATION
 40
0.0
  9
$THICKNESS
 40
0.0
  9
$LIMCHECK
 70
     0
  9
$CHAMFERA
 40
0.0
  9
$CHAMFERB
 40
0.0
  9
$CHAMFERC
 40
0.0
  9
$CHAMFERD
 40
0.0
  9
$SKPOLY
 70
     0
  9
$TDCREATE
 40
2456038.565394849
  9
$TDUCREATE
 40
2456038.857061516
  9
$TDUPDATE
 40
2456038.591128461
  9
$TDUUPDATE
 40
2456038.882795127
  9
$TDINDWG
 40
0.0019238657
  9
$TDUSRTIMER
 40
0.0019238657
  9
$USRTIMER
 70
     1
  9
$ANGBASE
 50
0.0
  9
$ANGDIR
 70
     0
  9
$PDMODE
 70
     0
  9
$PDSIZE
 40
0.0
  9
$PLINEWID
 40
0.0
  9
$SPLFRAME
 70
     0
  9
$SPLINETYPE
 70
     6
  9
$SPLINESEGS
 70
     8
  9
$HANDSEED
  5
38B
  9
$SURFTAB1
 70
     6
  9
$SURFTAB2
 70
     6
  9
$SURFTYPE
 70
     6
  9
$SURFU
 70
     6
  9
$SURFV
 70
     6
  9
$UCSBASE
  2

  9
$UCSNAME
  2

  9
$UCSORG
 10
0.0
 20
0.0
 30
0.0
  9
$UCSXDIR
 10
1.0
 20
0.0
 30
0.0
  9
$UCSYDIR
 10
0.0
 20
1.0
 30
0.0
  9
$UCSORTHOREF
  2

  9
$UCSORTHOVIEW
 70
     0
  9
$UCSORGTOP
 10
0.0
 20
0.0
 30
0.0
  9
$UCSORGBOTTOM
 10
0.0
 20
0.0
 30
0.0
  9
$UCSORGLEFT
 10
0.0
 20
0.0
 30
0.0
  9
$UCSORGRIGHT
 10
0.0
 20
0.0
 30
0.0
  9
$UCSORGFRONT
 10
0.0
 20
0.0
 30
0.0
  9
$UCSORGBACK
 10
0.0
 20
0.0
 30
0.0
  9
$PUCSBASE
  2

  9
$PUCSNAME
  2

  9
$PUCSORG
 10
0.0
 20
0.0
 30
0.0
  9
$PUCSXDIR
 10
1.0
 20
0.0
 30
0.0
  9
$PUCSYDIR
 10
0.0
 20
1.0
 30
0.0
  9
$PUCSORTHOREF
  2

  9
$PUCSORTHOVIEW
 70
     0
  9
$PUCSORGTOP
 10
0.0
 20
0.0
 30
0.0
  9
$PUCSORGBOTTOM
 10
0.0
 20
0.0
 30
0.0
  9
$PUCSORGLEFT
 10
0.0
 20
0.0
 30
0.0
  9
$PUCSORGRIGHT
 10
0.0
 20
0.0
 30
0.0
  9
$PUCSORGFRONT
 10
0.0
 20
0.0
 30
0.0
  9
$PUCSORGBACK
 10
0.0
 20
0.0
 30
0.0
  9
$USERI1
 70
     0
  9
$USERI2
 70
     0
  9
$USERI3
 70
     0
  9
$USERI4
 70
     0
  9
$USERI5
 70
     0
  9
$USERR1
 40
0.0
  9
$USERR2
 40
0.0
  9
$USERR3
 40
0.0
  9
$USERR4
 40
0.0
  9
$USERR5
 40
0.0
  9
$WORLDVIEW
 70
     1
  9
$SHADEDGE
 70
     3
  9
$SHADEDIF
 70
    70
  9
$TILEMODE
 70
     1
  9
$MAXACTVP
 70
    64
  9
$PINSBASE
 10
0.0
 20
0.0
 30
0.0
  9
$PLIMCHECK
 70
     0
  9
$PEXTMIN
 10
0.0
 20
0.0
 30
0.0
  9
$PEXTMAX
 10
17.0
 20
11.0
 30
0.0
  9
$PLIMMIN
 10
0.0
 20
0.0
  9
$PLIMMAX
 10
17.0
 20
11.0
  9
$UNITMODE
 70
     0
  9
$VISRETAIN
 70
     1
  9
$PLINEGEN
 70
     0
  9
$PSLTSCALE
 70
     1
  9
$TREEDEPTH
 70
  3020
  9
$CMLSTYLE
  2
Standard
  9
$CMLJUST
 70
     0
  9
$CMLSCALE
 40
1.0
  9
$PROXYGRAPHICS
 70
     1
  9
$MEASUREMENT
 70
     0
  9
$CELWEIGHT
370
    -1
  9
$ENDCAPS
280
     0
  9
$JOINSTYLE
280
     0
  9
$LWDISPLAY
290
     0
  9
$INSUNITS
 70
     1
  9
$HYPERLINKBASE
  1

  9
$STYLESHEET
  1

  9
$XEDIT
290
     1
  9
$CEPSNTYPE
380
     0
  9
$PSTYLEMODE
290
     1
  9
$FINGERPRINTGUID
  2
{1195199C-C07F-49F2-AF72-05536967055E}
  9
$VERSIONGUID
  2
{3BFF3694-C372-4B5D-9C89-823740026BFD}
  9
$EXTNAMES
290
     1
  9
$PSVPSCALE
 40
0.0
  9
$OLESTARTUP
290
     0
  0
ENDSEC
  0
SECTION
  2
CLASSES
  0
CLASS
  1
ACDBDICTIONARYWDFLT
  2
AcDbDictionaryWithDefault
  3
ObjectDBX Classes
 90
        0
280
     0
281
     0
  0
CLASS
  1
MATERIAL
  2
AcDbMaterial
  3
ObjectDBX Classes
 90
     1153
280
     0
281
     0
  0
CLASS
  1
VISUALSTYLE
  2
AcDbVisualStyle
  3
ObjectDBX Classes
 90
     4095
280
     0
281
     0
  0
CLASS
  1
SCALE
  2
AcDbScale
  3
ObjectDBX Classes
 90
     1153
280
     0
281
     0
  0
CLASS
  1
TABLESTYLE
  2
AcDbTableStyle
  3
ObjectDBX Classes
 90
     4095
280
     0
281
     0
  0
CLASS
  1
MLEADERSTYLE
  2
AcDbMLeaderStyle
  3
ACDB_MLEADERSTYLE_CLASS
 90
     4095
280
     0
281
     0
  0
CLASS
  1
DICTIONARYVAR
  2
AcDbDictionaryVar
  3
ObjectDBX Classes
 90
        0
280
     0
281
     0
  0
CLASS
  1
CELLSTYLEMAP
  2
AcDbCellStyleMap
  3
ObjectDBX Classes
 90
     1152
280
     0
281
     0
  0
CLASS
  1
ACDBPLACEHOLDER
  2
AcDbPlaceHolder
  3
ObjectDBX Classes
 90
        0
280
     0
281
     0
  0
CLASS
  1
LAYOUT
  2
AcDbLayout
  3
ObjectDBX Classes
 90
        0
280
     0
281
     0
  0
ENDSEC
  0
SECTION
  2
TABLES
  0
TABLE
  2
VPORT
  5
8
102
{ACAD_XDICTIONARY
360
2FE
102
}
330
0
100
AcDbSymbolTable
 70
     1
  0
VPORT
  5
57
330
8
100
AcDbSymbolTableRecord
100
AcDbViewportTableRecord
  2
*Active
 70
     0
 10
0.0
 20
0.0
 11
1.0
 21
1.0
 12
11.56649282920469
 22
5.5
 13
0.0
 23
0.0
 14
1.0
 24
1.0
 15
0.0
 25
0.0
 16
0.0
 26
0.0
 36
1.0
 17
0.0
 27
0.0
 37
0.0
 40
11.00336417565475
 41
2.102998696219035
 42
50.0
 43
0.0
 44
0.0
 50
0.0
 51
0.0
 71
     0
 72
   100
 73
     1
 74
     1
 75
     0
 76
     0
 77
     0
 78
     0
281
     0
 65
     1
110
0.0
120
0.0
130
0.0
111
1.0
121
0.0
131
0.0
112
0.0
122
1.0
132
0.0
 79
     0
146
0.0
1001
ACAD_NAV_VCDISPLAY
1070
     3
  0
ENDTAB
  0
TABLE
  2
LTYPE
  5
5
330
0
100
AcDbSymbolTable
 70
    59
  0
LTYPE
  5
5B
330
5
100
AcDbSymbolTableRecord
100
AcDbLinetypeTableRecord
  2
ByBlock
 70
     0
  3

 72
    65
 73
     0
 40
0.0
  0
LTYPE
  5
5C
330
5
100
AcDbSymbolTableRecord
100
AcDbLinetypeTableRecord
  2
ByLayer
 70
     0
  3

 72
    65
 73
     0
 40
0.0
  0
LTYPE
  5
5D
330
5
100
AcDbSymbolTableRecord
100
AcDbLinetypeTableRecord
  2
Continuous
 70
     0
  3
Solid line
 72
    65
 73
     0
 40
0.0
  0
LTYPE
  5
7C
330
5
100
AcDbSymbolTableRecord
100
AcDbLinetypeTableRecord
  2
BY_STANDARD
 70
     0
  3
By Standard ____________    ____    ____   _
 72
    65
 73
     6
 40
1.240299999999999
 49
0.6614
 74
     0
 49
-0.0827
 74
     0
 49
0.1654
 74
     0
 49
-0.0827
 74
     0
 49
0.1654
 74
     0
 49
-0.0827
 74
     0
  0
LTYPE
  5
7D
330
5
100
AcDbSymbolTableRecord
100
AcDbLinetypeTableRecord
  2
CHAIN
 70
     0
  3
Chain ____ _ ____ _ ____ _ ____ _ ____ _ ____
 72
    65
 73
     4
 40
0.7087
 49
0.4724000000000001
 74
     0
 49
-0.0591
 74
     0
 49
0.1181
 74
     0
 49
-0.0591
 74
     0
  0
LTYPE
  5
7E
330
5
100
AcDbSymbolTableRecord
100
AcDbLinetypeTableRecord
  2
DASH_DOT
 70
     0
  3
Dash dot __ . __ . __ . __ . __ . __ . __ . __
 72
    65
 73
     4
 40
0.37
 49
0.24
 74
     0
 49
-0.06
 74
     0
 49
0.01
 74
     0
 49
-0.06
 74
     0
  0
LTYPE
  5
7F
330
5
100
AcDbSymbolTableRecord
100
AcDbLinetypeTableRecord
  2
DOUBLE_DASH_DOT
 70
     0
  3
Double-Dash Dot __ __ . __ __ . __ __ . __ _
 72
    65
 73
     6
 40
0.4398
 49
0.24
 74
     0
 49
-0.06
 74
     0
 49
0.0098
 74
     0
 49
-0.06
 74
     0
 49
0.01
 74
     0
 49
-0.06
 74
     0
  0
LTYPE
  5
80
330
5
100
AcDbSymbolTableRecord
100
AcDbLinetypeTableRecord
  2
DASH_TRIPLE_DOT
 70
     0
  3
Dash Triple-Dot _ . . . _ . . . _ . . . _
 72
    65
 73
     8
 40
0.51
 49
0.24
 74
     0
 49
-0.06
 74
     0
 49
0.01
 74
     0
 49
-0.06
 74
     0
 49
0.01
 74
     0
 49
-0.06
 74
     0
 49
0.01
 74
     0
 49
-0.06
 74
     0
  0
LTYPE
  5
81
330
5
100
AcDbSymbolTableRecord
100
AcDbLinetypeTableRecord
  2
DASHED
 70
     0
  3
Dashed __ __ __ __ __ __ __ __ __ __ __ __ __ _
 72
    65
 73
     2
 40
0.2067
 49
0.1654
 74
     0
 49
-0.0413
 74
     0
  0
LTYPE
  5
82
330
5
100
AcDbSymbolTableRecord
100
AcDbLinetypeTableRecord
  2
DASH_DOUBLE_DOT
 70
     0
  3
Dash Double-Dot __ . . __ . . __ . . __ . .
 72
    65
 73
     6
 40
0.4398
 49
0.24
 74
     0
 49
-0.06
 74
     0
 49
0.0098
 74
     0
 49
-0.06
 74
     0
 49
0.01
 74
     0
 49
-0.06
 74
     0
  0
LTYPE
  5
83
330
5
100
AcDbSymbolTableRecord
100
AcDbLinetypeTableRecord
  2
DASHED_SPACE
 70
     0
  3
Dashed Space __ __ __ __ __ __ __ __ __ __ __ _
 72
    65
 73
     2
 40
0.2067
 49
0.1654
 74
     0
 49
-0.0413
 74
     0
  0
LTYPE
  5
84
330
5
100
AcDbSymbolTableRecord
100
AcDbLinetypeTableRecord
  2
DOTTED
 70
     0
  3
Dotted . . . . . . . . . . . . . . . . . . . . 
 72
    65
 73
     2
 40
0.0482
 49
0.0069
 74
     0
 49
-0.0413
 74
     0
  0
LTYPE
  5
85
330
5
100
AcDbSymbolTableRecord
100
AcDbLinetypeTableRecord
  2
DOUBLE_DASH_CHAIN
 70
     0
  3
Double-Dash Chain ______  __  __  ______  __  _
 72
    65
 73
     6
 40
1.240299999999999
 49
0.6614
 74
     0
 49
-0.0827
 74
     0
 49
0.1654
 74
     0
 49
-0.0827
 74
     0
 49
0.1654
 74
     0
 49
-0.0827
 74
     0
  0
LTYPE
  5
87
330
5
100
AcDbSymbolTableRecord
100
AcDbLinetypeTableRecord
  2
DOUBLE_DASH_DOUBLE_DOT
 70
     0
  3
Double-Dash Double-dot _ _ . . _ _ . . _
 72
    65
 73
     8
 40
0.7400000000000001
 49
0.24
 74
     0
 49
-0.06
 74
     0
 49
0.24
 74
     0
 49
-0.06
 74
     0
 49
0.01
 74
     0
 49
-0.06
 74
     0
 49
0.01
 74
     0
 49
-0.06
 74
     0
  0
LTYPE
  5
88
330
5
100
AcDbSymbolTableRecord
100
AcDbLinetypeTableRecord
  2
DOUBLE_DASH_TRIPLE_DOT
 70
     0
  3
Double Dash Triple Dot __ __ . . . __ __ . .
 72
    65
 73
    10
 40
0.8100000000000001
 49
0.24
 74
     0
 49
-0.06
 74
     0
 49
0.24
 74
     0
 49
-0.06
 74
     0
 49
0.01
 74
     0
 49
-0.06
 74
     0
 49
0.01
 74
     0
 49
-0.06
 74
     0
 49
0.01
 74
     0
 49
-0.06
 74
     0
  0
LTYPE
  5
89
330
5
100
AcDbSymbolTableRecord
100
AcDbLinetypeTableRecord
  2
LONG_DASH_DOTTED
 70
     0
  3
Long Dash Dotted ____ . ____ . ____ . ____ . _
 72
    65
 73
     4
 40
0.3543
 49
0.2362
 74
     0
 49
-0.0295
 74
     0
 49
0.0591
 74
     0
 49
-0.0295
 74
     0
  0
LTYPE
  5
8A
330
5
100
AcDbSymbolTableRecord
100
AcDbLinetypeTableRecord
  2
LONG_DASH_DOUBLE_DOT
 70
     0
  3
Long Dash Double Dot ________  .  .  ________  
 72
    65
 73
     6
 40
0.6799999999999999
 49
0.48
 74
     0
 49
-0.06
 74
     0
 49
0.01
 74
     0
 49
-0.06
 74
     0
 49
0.01
 74
     0
 49
-0.06
 74
     0
  0
LTYPE
  5
8B
330
5
100
AcDbSymbolTableRecord
100
AcDbLinetypeTableRecord
  2
LONG_DASH_TRIPLE_DOT
 70
     0
  3
Long Dash Triple Dot ____ ... ____ ... ____
 72
    65
 73
     8
 40
0.3689
 49
0.2362
 74
     0
 49
-0.0295
 74
     0
 49
0.0049
 74
     0
 49
-0.0295
 74
     0
 49
0.0049
 74
     0
 49
-0.0295
 74
     0
 49
0.0049
 74
     0
 49
-0.0295
 74
     0
  0
LTYPE
  5
8C
330
5
100
AcDbSymbolTableRecord
100
AcDbLinetypeTableRecord
  2
BORDER
 70
     0
  3
Border __ __ . __ __ . __ __ . __ __ . __ __ .
 72
    65
 73
     6
 40
1.75
 49
0.5
 74
     0
 49
-0.25
 74
     0
 49
0.5
 74
     0
 49
-0.25
 74
     0
 49
0.0
 74
     0
 49
-0.25
 74
     0
  0
LTYPE
  5
8D
330
5
100
AcDbSymbolTableRecord
100
AcDbLinetypeTableRecord
  2
BORDER2
 70
     0
  3
Border (.5x) __.__.__.__.__.__.__.__.__.__.__.
 72
    65
 73
     6
 40
0.875
 49
0.25
 74
     0
 49
-0.125
 74
     0
 49
0.25
 74
     0
 49
-0.125
 74
     0
 49
0.0
 74
     0
 49
-0.125
 74
     0
  0
LTYPE
  5
8E
330
5
100
AcDbSymbolTableRecord
100
AcDbLinetypeTableRecord
  2
BORDERX2
 70
     0
  3
Border (2x) ____  ____  .  ____  ____  .  ___
 72
    65
 73
     6
 40
3.5
 49
1.0
 74
     0
 49
-0.5
 74
     0
 49
1.0
 74
     0
 49
-0.5
 74
     0
 49
0.0
 74
     0
 49
-0.5
 74
     0
  0
LTYPE
  5
8F
330
5
100
AcDbSymbolTableRecord
100
AcDbLinetypeTableRecord
  2
CENTER
 70
     0
  3
Center ____ _ ____ _ ____ _ ____ _ ____ _ ____
 72
    65
 73
     4
 40
2.0
 49
1.25
 74
     0
 49
-0.25
 74
     0
 49
0.25
 74
     0
 49
-0.25
 74
     0
  0
LTYPE
  5
90
330
5
100
AcDbSymbolTableRecord
100
AcDbLinetypeTableRecord
  2
CENTER2
 70
     0
  3
Center (.5x) ___ _ ___ _ ___ _ ___ _ ___ _ ___
 72
    65
 73
     4
 40
1.125
 49
0.75
 74
     0
 49
-0.125
 74
     0
 49
0.125
 74
     0
 49
-0.125
 74
     0
  0
LTYPE
  5
91
330
5
100
AcDbSymbolTableRecord
100
AcDbLinetypeTableRecord
  2
CENTERX2
 70
     0
  3
Center (2x) ________  __  ________  __  _____
 72
    65
 73
     4
 40
4.0
 49
2.5
 74
     0
 49
-0.5
 74
     0
 49
0.5
 74
     0
 49
-0.5
 74
     0
  0
LTYPE
  5
92
330
5
100
AcDbSymbolTableRecord
100
AcDbLinetypeTableRecord
  2
DASHDOT2
 70
     0
  3
Dash dot (.5x) _._._._._._._._._._._._._._._.
 72
    65
 73
     4
 40
0.5
 49
0.25
 74
     0
 49
-0.125
 74
     0
 49
0.0
 74
     0
 49
-0.125
 74
     0
  0
LTYPE
  5
93
330
5
100
AcDbSymbolTableRecord
100
AcDbLinetypeTableRecord
  2
DASHDOTX2
 70
     0
  3
Dash dot (2x) ____  .  ____  .  ____  .  ___
 72
    65
 73
     4
 40
2.0
 49
1.0
 74
     0
 49
-0.5
 74
     0
 49
0.0
 74
     0
 49
-0.5
 74
     0
  0
LTYPE
  5
95
330
5
100
AcDbSymbolTableRecord
100
AcDbLinetypeTableRecord
  2
DASHED2
 70
     0
  3
Dashed (.5x) _ _ _ _ _ _ _ _ _ _ _ _ _ _ _ _ _
 72
    65
 73
     2
 40
0.375
 49
0.25
 74
     0
 49
-0.125
 74
     0
  0
LTYPE
  5
96
330
5
100
AcDbSymbolTableRecord
100
AcDbLinetypeTableRecord
  2
DASHEDX2
 70
     0
  3
Dashed (2x) ____  ____  ____  ____  ____  ___
 72
    65
 73
     2
 40
1.5
 49
1.0
 74
     0
 49
-0.5
 74
     0
  0
LTYPE
  5
97
330
5
100
AcDbSymbolTableRecord
100
AcDbLinetypeTableRecord
  2
DIVIDE
 70
     0
  3
Divide ____ . . ____ . . ____ . . ____ . . ____
 72
    65
 73
     6
 40
1.25
 49
0.5
 74
     0
 49
-0.25
 74
     0
 49
0.0
 74
     0
 49
-0.25
 74
     0
 49
0.0
 74
     0
 49
-0.25
 74
     0
  0
LTYPE
  5
98
330
5
100
AcDbSymbolTableRecord
100
AcDbLinetypeTableRecord
  2
DIVIDE2
 70
     0
  3
Divide (.5x) __..__..__..__..__..__..__..__.._
 72
    65
 73
     6
 40
0.625
 49
0.25
 74
     0
 49
-0.125
 74
     0
 49
0.0
 74
     0
 49
-0.125
 74
     0
 49
0.0
 74
     0
 49
-0.125
 74
     0
  0
LTYPE
  5
99
330
5
100
AcDbSymbolTableRecord
100
AcDbLinetypeTableRecord
  2
DIVIDEX2
 70
     0
  3
Divide (2x) ________  .  .  ________  .  .  _
 72
    65
 73
     6
 40
2.5
 49
1.0
 74
     0
 49
-0.5
 74
     0
 49
0.0
 74
     0
 49
-0.5
 74
     0
 49
0.0
 74
     0
 49
-0.5
 74
     0
  0
LTYPE
  5
9A
330
5
100
AcDbSymbolTableRecord
100
AcDbLinetypeTableRecord
  2
DOT
 70
     0
  3
Dot . . . . . . . . . . . . . . . . . . . . . .
 72
    65
 73
     2
 40
0.25
 49
0.0
 74
     0
 49
-0.25
 74
     0
  0
LTYPE
  5
9B
330
5
100
AcDbSymbolTableRecord
100
AcDbLinetypeTableRecord
  2
DOT2
 70
     0
  3
Dot (.5x) .....................................
 72
    65
 73
     2
 40
0.125
 49
0.0
 74
     0
 49
-0.125
 74
     0
  0
LTYPE
  5
9C
330
5
100
AcDbSymbolTableRecord
100
AcDbLinetypeTableRecord
  2
DOTX2
 70
     0
  3
Dot (2x) .  .  .  .  .  .  .  .  .  .  .  .  . 
 72
    65
 73
     2
 40
0.5
 49
0.0
 74
     0
 49
-0.5
 74
     0
  0
LTYPE
  5
9D
330
5
100
AcDbSymbolTableRecord
100
AcDbLinetypeTableRecord
  2
HIDDEN
 70
     0
  3
Hidden __ __ __ __ __ __ __ __ __ __ __ __ __ _
 72
    65
 73
     2
 40
0.375
 49
0.25
 74
     0
 49
-0.125
 74
     0
  0
LTYPE
  5
9E
330
5
100
AcDbSymbolTableRecord
100
AcDbLinetypeTableRecord
  2
HIDDEN2
 70
     0
  3
Hidden (.5x) _ _ _ _ _ _ _ _ _ _ _ _ _ _ _ _ _
 72
    65
 73
     2
 40
0.1875
 49
0.125
 74
     0
 49
-0.0625
 74
     0
  0
LTYPE
  5
9F
330
5
100
AcDbSymbolTableRecord
100
AcDbLinetypeTableRecord
  2
HIDDENX2
 70
     0
  3
Hidden (2x) ____ ____ ____ ____ ____ ____ ____
 72
    65
 73
     2
 40
0.75
 49
0.5
 74
     0
 49
-0.25
 74
     0
  0
LTYPE
  5
A0
330
5
100
AcDbSymbolTableRecord
100
AcDbLinetypeTableRecord
  2
PHANTOM
 70
     0
  3
Phantom ______  __  __  ______  __  __  ______
 72
    65
 73
     6
 40
2.5
 49
1.25
 74
     0
 49
-0.25
 74
     0
 49
0.25
 74
     0
 49
-0.25
 74
     0
 49
0.25
 74
     0
 49
-0.25
 74
     0
  0
LTYPE
  5
A1
330
5
100
AcDbSymbolTableRecord
100
AcDbLinetypeTableRecord
  2
PHANTOM2
 70
     0
  3
Phantom (.5x) ___ _ _ ___ _ _ ___ _ _ ___ _ _
 72
    65
 73
     6
 40
1.25
 49
0.625
 74
     0
 49
-0.125
 74
     0
 49
0.125
 74
     0
 49
-0.125
 74
     0
 49
0.125
 74
     0
 49
-0.125
 74
     0
  0
LTYPE
  5
A2
330
5
100
AcDbSymbolTableRecord
100
AcDbLinetypeTableRecord
  2
PHANTOMX2
 70
     0
  3
Phantom (2x) ____________    ____    ____   _
 72
    65
 73
     6
 40
5.0
 49
2.5
 74
     0
 49
-0.5
 74
     0
 49
0.5
 74
     0
 49
-0.5
 74
     0
 49
0.5
 74
     0
 49
-0.5
 74
     0
  0
LTYPE
  5
A3
330
5
100
AcDbSymbolTableRecord
100
AcDbLinetypeTableRecord
  2
ACAD_ISO02W100
 70
     0
  3
ISO dash __ __ __ __ __ __ __ __ __ __ __ __ __
 72
    65
 73
     2
 40
0.59
 49
0.47
 74
     0
 49
-0.12
 74
     0
  0
LTYPE
  5
A4
330
5
100
AcDbSymbolTableRecord
100
AcDbLinetypeTableRecord
  2
ACAD_ISO03W100
 70
     0
  3
ISO dash space __    __    __    __    __    __
 72
    65
 73
     2
 40
1.179999999999999
 49
0.47
 74
     0
 49
-0.71
 74
     0
  0
LTYPE
  5
A5
330
5
100
AcDbSymbolTableRecord
100
AcDbLinetypeTableRecord
  2
ACAD_ISO04W100
 70
     0
  3
ISO long-dash dot ____ . ____ . ____ . ____ . _
 72
    65
 73
     4
 40
1.179999999999999
 49
0.9399999999999998
 74
     0
 49
-0.12
 74
     0
 49
0.0
 74
     0
 49
-0.12
 74
     0
  0
LTYPE
  5
A6
330
5
100
AcDbSymbolTableRecord
100
AcDbLinetypeTableRecord
  2
ACAD_ISO05W100
 70
     0
  3
ISO long-dash double-dot ____ .. ____ .. ____ .
 72
    65
 73
     6
 40
1.299999999999999
 49
0.9399999999999998
 74
     0
 49
-0.12
 74
     0
 49
0.0
 74
     0
 49
-0.12
 74
     0
 49
0.0
 74
     0
 49
-0.12
 74
     0
  0
LTYPE
  5
A7
330
5
100
AcDbSymbolTableRecord
100
AcDbLinetypeTableRecord
  2
ACAD_ISO06W100
 70
     0
  3
ISO long-dash triple-dot ____ ... ____ ... ____
 72
    65
 73
     8
 40
1.419999999999999
 49
0.9399999999999998
 74
     0
 49
-0.12
 74
     0
 49
0.0
 74
     0
 49
-0.12
 74
     0
 49
0.0
 74
     0
 49
-0.12
 74
     0
 49
0.0
 74
     0
 49
-0.12
 74
     0
  0
LTYPE
  5
A8
330
5
100
AcDbSymbolTableRecord
100
AcDbLinetypeTableRecord
  2
ACAD_ISO07W100
 70
     0
  3
ISO dot . . . . . . . . . . . . . . . . . . . .
 72
    65
 73
     2
 40
0.12
 49
0.0
 74
     0
 49
-0.12
 74
     0
  0
LTYPE
  5
A9
330
5
100
AcDbSymbolTableRecord
100
AcDbLinetypeTableRecord
  2
ACAD_ISO08W100
 70
     0
  3
ISO long-dash short-dash ____ __ ____ __ ____ _
 72
    65
 73
     4
 40
0.95
 49
0.47
 74
     0
 49
-0.12
 74
     0
 49
0.24
 74
     0
 49
-0.12
 74
     0
  0
LTYPE
  5
AA
330
5
100
AcDbSymbolTableRecord
100
AcDbLinetypeTableRecord
  2
ACAD_ISO09W100
 70
     0
  3
ISO long-dash double-short-dash ____ __ __ ____
 72
    65
 73
     6
 40
1.31
 49
0.47
 74
     0
 49
-0.12
 74
     0
 49
0.24
 74
     0
 49
-0.12
 74
     0
 49
0.24
 74
     0
 49
-0.12
 74
     0
  0
LTYPE
  5
AB
330
5
100
AcDbSymbolTableRecord
100
AcDbLinetypeTableRecord
  2
ACAD_ISO10W100
 70
     0
  3
ISO dash dot __ . __ . __ . __ . __ . __ . __ .
 72
    65
 73
     4
 40
0.71
 49
0.47
 74
     0
 49
-0.12
 74
     0
 49
0.0
 74
     0
 49
-0.12
 74
     0
  0
LTYPE
  5
AC
330
5
100
AcDbSymbolTableRecord
100
AcDbLinetypeTableRecord
  2
ACAD_ISO11W100
 70
     0
  3
ISO double-dash dot __ __ . __ __ . __ __ . __ 
 72
    65
 73
     6
 40
1.299999999999999
 49
0.47
 74
     0
 49
-0.12
 74
     0
 49
0.47
 74
     0
 49
-0.12
 74
     0
 49
0.0
 74
     0
 49
-0.12
 74
     0
  0
LTYPE
  5
AD
330
5
100
AcDbSymbolTableRecord
100
AcDbLinetypeTableRecord
  2
ACAD_ISO12W100
 70
     0
  3
ISO dash double-dot __ . . __ . . __ . . __ . .
 72
    65
 73
     6
 40
0.8299999999999998
 49
0.47
 74
     0
 49
-0.12
 74
     0
 49
0.0
 74
     0
 49
-0.12
 74
     0
 49
0.0
 74
     0
 49
-0.12
 74
     0
  0
LTYPE
  5
AE
330
5
100
AcDbSymbolTableRecord
100
AcDbLinetypeTableRecord
  2
ACAD_ISO13W100
 70
     0
  3
ISO double-dash double-dot __ __ . . __ __ . . 
 72
    65
 73
     8
 40
1.419999999999999
 49
0.47
 74
     0
 49
-0.12
 74
     0
 49
0.47
 74
     0
 49
-0.12
 74
     0
 49
0.0
 74
     0
 49
-0.12
 74
     0
 49
0.0
 74
     0
 49
-0.12
 74
     0
  0
LTYPE
  5
AF
330
5
100
AcDbSymbolTableRecord
100
AcDbLinetypeTableRecord
  2
ACAD_ISO14W100
 70
     0
  3
ISO dash triple-dot __ . . . __ . . . __ . . . 
 72
    65
 73
     8
 40
0.95
 49
0.47
 74
     0
 49
-0.12
 74
     0
 49
0.0
 74
     0
 49
-0.12
 74
     0
 49
0.0
 74
     0
 49
-0.12
 74
     0
 49
0.0
 74
     0
 49
-0.12
 74
     0
  0
LTYPE
  5
B0
330
5
100
AcDbSymbolTableRecord
100
AcDbLinetypeTableRecord
  2
ACAD_ISO15W100
 70
     0
  3
ISO double-dash triple-dot __ __ . . . __ __ . 
 72
    65
 73
    10
 40
1.539999999999999
 49
0.47
 74
     0
 49
-0.12
 74
     0
 49
0.47
 74
     0
 49
-0.12
 74
     0
 49
0.0
 74
     0
 49
-0.12
 74
     0
 49
0.0
 74
     0
 49
-0.12
 74
     0
 49
0.0
 74
     0
 49
-0.12
 74
     0
  0
LTYPE
  5
B3
330
5
100
AcDbSymbolTableRecord
100
AcDbLinetypeTableRecord
  2
FENCELINE1
 70
     0
  3
Fenceline circle ----0-----0----0-----0----0---
 72
    65
 73
     4
 40
1.45
 49
0.25
 74
     0
 49
-0.1
 74
     4
 75
   133
340
B2
 46
0.1
 50
0.0
 44
-0.1
 45
0.0
 49
-0.1
 74
     0
 49
1.0
 74
     0
  0
LTYPE
  5
B4
330
5
100
AcDbSymbolTableRecord
100
AcDbLinetypeTableRecord
  2
FENCELINE2
 70
     0
  3
Fenceline square ----[]-----[]----[]-----[]----
 72
    65
 73
     4
 40
1.45
 49
0.25
 74
     0
 49
-0.1
 74
     4
 75
   132
340
B2
 46
0.1
 50
0.0
 44
-0.1
 45
0.0
 49
-0.1
 74
     0
 49
1.0
 74
     0
  0
LTYPE
  5
B5
330
5
100
AcDbSymbolTableRecord
100
AcDbLinetypeTableRecord
  2
TRACKS
 70
     0
  3
Tracks -|-|-|-|-|-|-|-|-|-|-|-|-|-|-|-|-|-|-|-|
 72
    65
 73
     2
 40
0.3
 49
0.15
 74
     4
 75
   130
340
B2
 46
0.25
 50
0.0
 44
0.0
 45
0.0
 49
0.15
 74
     0
  0
LTYPE
  5
B6
330
5
100
AcDbSymbolTableRecord
100
AcDbLinetypeTableRecord
  2
BATTING
 70
     0
  3
Batting SSSSSSSSSSSSSSSSSSSSSSSSSSSSSSSSSSSSSSS
 72
    65
 73
     4
 40
0.4001000000000001
 49
0.0001
 74
     0
 49
-0.1
 74
     4
 75
   134
340
B2
 46
0.1
 50
0.0
 44
-0.1
 45
0.0
 49
-0.2
 74
     4
 75
   134
340
B2
 46
0.1
 50
180.0
 44
0.1
 45
0.0
 49
-0.1
 74
     0
  0
LTYPE
  5
B7
330
5
100
AcDbSymbolTableRecord
100
AcDbLinetypeTableRecord
  2
HOT_WATER_SUPPLY
 70
     0
  3
Hot water supply ---- HW ---- HW ---- HW ----
 72
    65
 73
     3
 40
0.9
 49
0.5
 74
     0
 49
-0.2
 74
     2
 75
     0
340
55
 46
0.1
 50
0.0
 44
-0.1
 45
-0.05
  9
HW
 49
-0.2
 74
     0
  0
LTYPE
  5
B8
330
5
100
AcDbSymbolTableRecord
100
AcDbLinetypeTableRecord
  2
GAS_LINE
 70
     0
  3
Gas line ----GAS----GAS----GAS----GAS----GAS---
 72
    65
 73
     3
 40
0.95
 49
0.5
 74
     0
 49
-0.2
 74
     2
 75
     0
340
55
 46
0.1
 50
0.0
 44
-0.1
 45
-0.05
  9
GAS
 49
-0.25
 74
     0
  0
LTYPE
  5
B9
330
5
100
AcDbSymbolTableRecord
100
AcDbLinetypeTableRecord
  2
ZIGZAG
 70
     0
  3
Zig zag /\/\/\/\/\/\/\/\/\/\/\/\/\/\/\/\/\/\/\/
 72
    65
 73
     4
 40
0.8001000000000001
 49
0.0001
 74
     0
 49
-0.2
 74
     4
 75
   131
340
B2
 46
0.2
 50
0.0
 44
-0.2
 45
0.0
 49
-0.4
 74
     4
 75
   131
340
B2
 46
0.2
 50
180.0
 44
0.2
 45
0.0
 49
-0.2
 74
     0
  0
ENDTAB
  0
TABLE
  2
LAYER
  5
2
330
0
100
AcDbSymbolTable
 70
     4
  0
LAYER
  5
54
330
2
100
AcDbSymbolTableRecord
100
AcDbLayerTableRecord
  2
0
 70
     0
 62
     7
  6
Continuous
370
    -3
390
F
  0
LAYER
  5
BF
330
2
100
AcDbSymbolTableRecord
100
AcDbLayerTableRecord
  2
Border (ANSI)
 70
     0
 62
     7
  6
Continuous
370
    25
390
F
  0
LAYER
  5
D1
330
2
100
AcDbSymbolTableRecord
100
AcDbLayerTableRecord
  2
Visible (ANSI)
 70
     0
 62
     7
  6
Continuous
370
    18
390
F
  0
LAYER
  5
D2
330
2
100
AcDbSymbolTableRecord
100
AcDbLayerTableRecord
  2
Visible Narrow (ANSI)
 70
     0
 62
     7
  6
Continuous
370
     9
390
F
  0
ENDTAB
  0
TABLE
  2
STYLE
  5
3
330
0
100
AcDbSymbolTable
 70
     5
  0
STYLE
  5
55
330
3
100
AcDbSymbolTableRecord
100
AcDbTextStyleTableRecord
  2
Standard
 70
     0
 40
0.0
 41
0.899999976158142
 50
0.0
 71
     0
 42
0.2
  3
txt
  4

  0
STYLE
  5
5A
330
3
100
AcDbSymbolTableRecord
100
AcDbTextStyleTableRecord
  2
Annotative
 70
     0
 40
0.0
 41
1.0
 50
0.0
 71
     0
 42
0.2
  3
txt
  4

1001
AcadAnnotative
1000
AnnotativeData
1002
{
1070
     1
1070
     1
1002
}
  0
STYLE
  5
B2
330
3
100
AcDbSymbolTableRecord
100
AcDbTextStyleTableRecord
  2

 70
     1
 40
0.0
 41
1.0
 50
0.0
 71
     0
 42
0.2
  3
ltypeshp.shx
  4

  0
STYLE
  5
D6
330
3
100
AcDbSymbolTableRecord
100
AcDbTextStyleTableRecord
  2
Label Text (ANSI)
 70
     0
 40
0.0
 41
0.899999976158142
 50
0.0
 71
     0
 42
0.2
  3
Txt.shx
  4

  0
STYLE
  5
D7
330
3
100
AcDbSymbolTableRecord
100
AcDbTextStyleTableRecord
  2
Note Text (ANSI)
 70
     0
 40
0.0
 41
0.899999976158142
 50
0.0
 71
     0
 42
0.2
  3
Txt.shx
  4

  0
ENDTAB
  0
TABLE
  2
VIEW
  5
6
330
0
100
AcDbSymbolTable
 70
     0
  0
ENDTAB
  0
TABLE
  2
UCS
  5
7
330
0
100
AcDbSymbolTable
 70
     0
  0
ENDTAB
  0
TABLE
  2
APPID
  5
9
330
0
100
AcDbSymbolTable
 70
     4
  0
APPID
  5
56
330
9
100
AcDbSymbolTableRecord
100
AcDbRegAppTableRecord
  2
ACAD
 70
     0
  0
APPID
  5
5E
330
9
100
AcDbSymbolTableRecord
100
AcDbRegAppTableRecord
  2
AcadAnnotative
 70
     0
  0
APPID
  5
334
330
9
100
AcDbSymbolTableRecord
100
AcDbRegAppTableRecord
  2
ACAD_MLEADERVER
 70
     0
  0
APPID
  5
34B
330
9
100
AcDbSymbolTableRecord
100
AcDbRegAppTableRecord
  2
ACAD_NAV_VCDISPLAY
 70
     0
  0
ENDTAB
  0
TABLE
  2
DIMSTYLE
  5
A
330
0
100
AcDbSymbolTable
 70
    21
100
AcDbDimStyleTable
 71
     0
  0
DIMSTYLE
105
58
330
A
100
AcDbSymbolTableRecord
100
AcDbDimStyleTableRecord
  2
Standard
 70
     0
340
55
  0
DIMSTYLE
105
59
330
A
100
AcDbSymbolTableRecord
100
AcDbDimStyleTableRecord
  2
Annotative
 70
     0
340
55
1001
AcadAnnotative
1000
AnnotativeData
1002
{
1070
     1
1070
     1
1002
}
  0
DIMSTYLE
105
D8
330
A
100
AcDbSymbolTableRecord
100
AcDbDimStyleTableRecord
  2
Architectural (ANSI)
 70
     0
 41
0.0984251946210861
 43
0.2362204724409449
 44
0.125
 45
0.00000001
 46
0.3937007874015748
 78
     3
 79
     3
140
0.0799999982118607
146
1.500000119209289
147
0.031496062992126
171
     1
176
   256
177
   256
178
     5
272
     2
274
     1
276
     2
277
     4
284
    12
285
     4
286
    12
340
D7
371
    -1
372
    -1
  0
DIMSTYLE
105
D9
330
A
100
AcDbSymbolTableRecord
100
AcDbDimStyleTableRecord
  2
Architectural (ANSI)$7
 70
     0
 41
0.0984251946210861
 43
0.2362204724409449
 44
0.125
 45
0.00000001
 46
0.3937007874015748
 78
     3
 79
     3
140
0.0799999982118607
146
1.500000119209289
147
0.031496062992126
171
     1
176
     5
177
   256
178
     5
272
     2
274
     1
276
     2
277
     4
284
    12
285
     4
286
    12
340
D7
371
    -1
372
    -1
  0
DIMSTYLE
105
DA
330
A
100
AcDbSymbolTableRecord
100
AcDbDimStyleTableRecord
  2
Default - Fraction (ANSI)
 70
     0
 41
0.0984251946210861
 43
0.2362204724409449
 44
0.125
 45
0.00000001
 46
0.3937007874015748
 79
     3
140
0.0799999982118607
146
1.500000119209289
147
0.031496062992126
171
     1
176
   256
177
   256
178
     5
272
     2
274
     1
276
     2
277
     5
284
    12
285
     4
286
    12
340
D7
371
    -1
372
    -1
  0
DIMSTYLE
105
DB
330
A
100
AcDbSymbolTableRecord
100
AcDbDimStyleTableRecord
  2
Default - Fraction (ANSI)$7
 70
     0
 41
0.0984251946210861
 43
0.2362204724409449
 44
0.125
 45
0.00000001
 46
0.3937007874015748
 79
     3
140
0.0799999982118607
146
1.500000119209289
147
0.031496062992126
171
     1
176
     5
177
   256
178
     5
272
     2
274
     1
276
     2
277
     5
284
    12
285
     4
286
    12
340
D7
371
    -1
372
    -1
  0
DIMSTYLE
105
DC
330
A
100
AcDbSymbolTableRecord
100
AcDbDimStyleTableRecord
  2
Default - mm (ANSI)
 70
     0
 41
0.0984251946210861
 42
0.063
 43
0.2362204724409449
 44
0.125
 45
0.00000001
 46
0.3937007874015748
 73
     0
 78
     4
 79
     1
140
0.0799999982118607
143
1.0
144
25.4
146
1.500000119209289
147
0.031496062992126
171
     1
176
   256
177
   256
178
     5
179
     1
271
     2
272
     2
274
     1
284
     4
285
     4
340
D7
371
    -1
372
    -1
  0
DIMSTYLE
105
DD
330
A
100
AcDbSymbolTableRecord
100
AcDbDimStyleTableRecord
  2
Default - mm (ANSI)$7
 70
     0
 41
0.0984251946210861
 42
0.063
 43
0.2362204724409449
 44
0.125
 45
0.00000001
 46
0.3937007874015748
 73
     0
 78
     4
 79
     1
140
0.0799999982118607
143
1.0
144
25.4
146
1.500000119209289
147
0.031496062992126
171
     1
176
     5
177
   256
178
     5
179
     1
271
     2
272
     2
274
     1
284
     4
285
     4
340
D7
371
    -1
372
    -1
  0
DIMSTYLE
105
DE
330
A
100
AcDbSymbolTableRecord
100
AcDbDimStyleTableRecord
  2
Default - mm [in] (ANSI)
 70
     0
  4
 in
 41
0.0984251946210861
 42
0.063
 43
0.25
 44
0.125
 45
0.00000001
 46
0.3937007874015748
 73
     0
 78
     4
 79
     1
140
0.0799999982118607
143
0.03937
144
25.4
146
1.500000119209289
147
0.031496062992126
170
     1
171
     3
176
   256
177
   256
178
     5
179
     1
271
     2
272
     2
274
     3
284
     4
285
     4
286
     4
340
D7
371
    -1
372
    -1
  0
DIMSTYLE
105
DF
330
A
100
AcDbSymbolTableRecord
100
AcDbDimStyleTableRecord
  2
Default - mm [in] (ANSI)$7
 70
     0
  4
 in
 41
0.0984251946210861
 42
0.063
 43
0.25
 44
0.125
 45
0.00000001
 46
0.3937007874015748
 73
     0
 78
     4
 79
     1
140
0.0799999982118607
143
0.03937
144
25.4
146
1.500000119209289
147
0.031496062992126
170
     1
171
     3
176
     5
177
   256
178
     5
179
     1
271
     2
272
     2
274
     3
284
     4
285
     4
286
     4
340
D7
371
    -1
372
    -1
  0
DIMSTYLE
105
E0
330
A
100
AcDbSymbolTableRecord
100
AcDbDimStyleTableRecord
  2
Default (ANSI)
 70
     0
 41
0.0984251946210861
 43
0.2362204724409449
 44
0.125
 45
0.00000001
 46
0.3937007874015748
 78
     4
 79
     1
140
0.0799999982118607
146
1.500000119209289
147
0.031496062992126
171
     1
176
   256
177
   256
178
     5
271
     2
272
     2
274
     1
284
     4
285
     4
340
D7
371
    -1
372
    -1
  0
DIMSTYLE
105
E1
330
A
100
AcDbSymbolTableRecord
100
AcDbDimStyleTableRecord
  2
Default (ANSI)$7
 70
     0
 41
0.0984251946210861
 43
0.2362204724409449
 44
0.125
 45
0.00000001
 46
0.3937007874015748
 78
     4
 79
     1
140
0.0799999982118607
146
1.500000119209289
147
0.031496062992126
171
     1
176
     5
177
   256
178
     5
271
     2
272
     2
274
     1
284
     4
285
     4
340
D7
371
    -1
372
    -1
  0
DIMSTYLE
105
E2
330
A
100
AcDbSymbolTableRecord
100
AcDbDimStyleTableRecord
  2
SST-STANDARD DIMEN
 70
     0
 41
0.0984251946210861
 43
0.2362204724409449
 44
0.062
 45
0.00000001
 46
0.3937007874015748
140
0.0799999982118607
147
0.031496062992126
171
     1
176
     5
177
     5
178
     5
271
     3
272
     3
274
     1
286
    12
340
D7
371
     9
372
     9
  0
DIMSTYLE
105
E3
330
A
100
AcDbSymbolTableRecord
100
AcDbDimStyleTableRecord
  2
SST-STANDARD DIMEN$7
 70
     0
 41
0.0984251946210861
 43
0.2362204724409449
 44
0.062
 45
0.00000001
 46
0.3937007874015748
140
0.0799999982118607
147
0.031496062992126
171
     1
176
     5
177
     5
178
     5
271
     3
272
     3
274
     1
286
    12
340
D7
371
    -1
372
     9
  0
DIMSTYLE
105
E4
330
A
100
AcDbSymbolTableRecord
100
AcDbDimStyleTableRecord
  2
SST-STANDARD DIMENSION-METRIC
 70
     0
 41
0.0984251946210861
 43
0.2362204724409449
 44
0.062
 45
0.00000001
 46
0.3937007874015748
140
0.0799999982118607
143
0.03937
144
25.4
147
0.031496062992126
171
     3
176
     5
177
     5
178
     5
271
     1
272
     1
274
     3
286
    12
340
D7
371
    25
372
    25
  0
DIMSTYLE
105
E5
330
A
100
AcDbSymbolTableRecord
100
AcDbDimStyleTableRecord
  2
SST-STANDARD DIMENSION-METRIC$7
 70
     0
 41
0.0984251946210861
 43
0.2362204724409449
 44
0.062
 45
0.00000001
 46
0.3937007874015748
140
0.0799999982118607
143
0.03937
144
25.4
147
0.031496062992126
171
     3
176
     5
177
     5
178
     5
271
     1
272
     1
274
     3
286
    12
340
D7
371
    -1
372
    25
  0
DIMSTYLE
105
E6
330
A
100
AcDbSymbolTableRecord
100
AcDbDimStyleTableRecord
  2
SST-STANDARD DIMENSIONS-FRACTION
 70
     0
 41
0.0984251946210861
 43
0.2362204724409449
 44
0.062
 45
0.00000001
 46
0.3937007874015748
 78
     1
140
0.0799999982118607
147
0.031496062992126
171
     1
176
     5
177
     5
178
     5
271
     5
272
     3
274
     1
276
     2
277
     5
286
    12
340
D7
371
     9
372
     9
  0
DIMSTYLE
105
E7
330
A
100
AcDbSymbolTableRecord
100
AcDbDimStyleTableRecord
  2
SST-STANDARD DIMENSIONS-FRACTION$7
 70
     0
 41
0.0984251946210861
 43
0.2362204724409449
 44
0.062
 45
0.00000001
 46
0.3937007874015748
 78
     1
140
0.0799999982118607
147
0.031496062992126
171
     1
176
     5
177
     5
178
     5
271
     5
272
     3
274
     1
276
     2
277
     5
286
    12
340
D7
371
    -1
372
     9
  0
DIMSTYLE
105
E8
330
A
100
AcDbSymbolTableRecord
100
AcDbDimStyleTableRecord
  2
Alternate (ANSI)
 70
     0
 41
0.0979999974370003
340
55
342
E9
  0
DIMSTYLE
105
FB
330
A
100
AcDbSymbolTableRecord
100
AcDbDimStyleTableRecord
  2
Datum (ANSI)
 70
     0
 41
0.0979999974370003
340
55
342
E9
  0
DIMSTYLE
105
10A
330
A
100
AcDbSymbolTableRecord
100
AcDbDimStyleTableRecord
  2
Large (ANSI)
 70
     0
 41
0.1959999948740005
340
55
342
E9
  0
ENDTAB
  0
TABLE
  2
BLOCK_RECORD
  5
1
330
0
100
AcDbSymbolTable
 70
     5
  0
BLOCK_RECORD
  5
6C
330
1
100
AcDbSymbolTableRecord
100
AcDbBlockTableRecord
  2
*Model_Space
340
6F
  0
BLOCK_RECORD
  5
68
330
1
100
AcDbSymbolTableRecord
100
AcDbBlockTableRecord
  2
*Paper_Space
340
6B
  0
BLOCK_RECORD
  5
70
330
1
100
AcDbSymbolTableRecord
100
AcDbBlockTableRecord
  2
*Paper_Space0
340
73
  0
BLOCK_RECORD
  5
E9
330
1
100
AcDbSymbolTableRecord
100
AcDbBlockTableRecord
  2
_Closed
340
0
  0
BLOCK_RECORD
  5
F0
330
1
100
AcDbSymbolTableRecord
100
AcDbBlockTableRecord
  2
DatumFilled45
340
0
  0
BLOCK_RECORD
  5
FC
330
1
100
AcDbSymbolTableRecord
100
AcDbBlockTableRecord
  2
Filled-1
340
0
  0
BLOCK_RECORD
  5
10B
330
1
100
AcDbSymbolTableRecord
100
AcDbBlockTableRecord
  2
Borders SST-LAND
340
0
102
{BLKREFS
331
112
102
}
  0
ENDTAB
  0
ENDSEC
  0
SECTION
  2
BLOCKS
  0
BLOCK
  5
6D
330
6C
100
AcDbEntity
  8
0
100
AcDbBlockBegin
  2
*Model_Space
 70
     0
 10
0.0
 20
0.0
 30
0.0
  3
*Model_Space
  1

  0
ENDBLK
  5
6E
330
6C
100
AcDbEntity
  8
0
100
AcDbBlockEnd
  0
BLOCK
  5
69
330
68
100
AcDbEntity
 67
     1
  8
0
100
AcDbBlockBegin
  2
*Paper_Space
 70
     0
 10
0.0
 20
0.0
 30
0.0
  3
*Paper_Space
  1

  0
ENDBLK
  5
6A
330
68
100
AcDbEntity
 67
     1
  8
0
100
AcDbBlockEnd
  0
BLOCK
  5
71
330
70
100
AcDbEntity
 67
     1
  8
0
100
AcDbBlockBegin
  2
*Paper_Space0
 70
     0
 10
0.0
 20
0.0
 30
0.0
  3
*Paper_Space0
  1

  0
ENDBLK
  5
72
330
70
100
AcDbEntity
 67
     1
  8
0
100
AcDbBlockEnd
  0
BLOCK
  5
EE
330
E9
100
AcDbEntity
  8
0
100
AcDbBlockBegin
  2
_Closed
 70
     0
 10
0.0
 20
0.0
 30
0.0
  3
_Closed
  1

  0
LINE
  5
EA
330
E9
100
AcDbEntity
  8
0
  6
ByBlock
 62
     0
370
    -2
100
AcDbLine
 10
-1.0
 20
0.1666666666666666
 30
0.0
 11
0.0
 21
0.0
 31
0.0
  0
LINE
  5
EB
330
E9
100
AcDbEntity
  8
0
  6
ByBlock
 62
     0
370
    -2
100
AcDbLine
 10
0.0
 20
0.0
 30
0.0
 11
-1.0
 21
-0.1666666666666666
 31
0.0
  0
LINE
  5
EC
330
E9
100
AcDbEntity
  8
0
  6
ByBlock
 62
     0
370
    -2
100
AcDbLine
 10
-1.0
 20
0.1666666666666666
 30
0.0
 11
-1.0
 21
-0.1666666666666666
 31
0.0
  0
LINE
  5
ED
330
E9
100
AcDbEntity
  8
0
  6
ByBlock
 62
     0
370
    -2
100
AcDbLine
 10
0.0
 20
0.0
 30
0.0
 11
-1.0
 21
0.0
 31
0.0
  0
ENDBLK
  5
EF
330
E9
100
AcDbEntity
  8
0
100
AcDbBlockEnd
  0
BLOCK
  5
F1
330
F0
100
AcDbEntity
  8
0
100
AcDbBlockBegin
  2
DatumFilled45
 70
     0
 10
0.0
 20
0.0
 30
0.0
  3
DatumFilled45
  1

  0
POLYLINE
  5
F3
330
F0
100
AcDbEntity
  8
0
 62
     0
100
AcDb2dPolyline
 66
     1
 10
0.0
 20
0.0
 30
0.0
 70
   128
  0
VERTEX
  5
F4
330
F3
100
AcDbEntity
  8
0
 62
     0
100
AcDbVertex
100
AcDb2dVertex
 10
0.0
 20
0.9999999999999998
 30
0.0
  0
VERTEX
  5
F5
330
F3
100
AcDbEntity
  8
0
 62
     0
100
AcDbVertex
100
AcDb2dVertex
 10
0.0
 20
-0.9999999999999998
 30
0.0
  0
VERTEX
  5
F7
330
F3
100
AcDbEntity
  8
0
 62
     0
100
AcDbVertex
100
AcDb2dVertex
 10
-0.9999999999999998
 20
0.0
 30
0.0
  0
VERTEX
  5
F8
330
F3
100
AcDbEntity
  8
0
 62
     0
100
AcDbVertex
100
AcDb2dVertex
 10
0.0
 20
0.9999999999999998
 30
0.0
  0
SEQEND
  5
F6
330
F3
100
AcDbEntity
  8
0
 62
     0
  0
SOLID
  5
FA
330
F0
100
AcDbEntity
  8
0
 62
     0
100
AcDbTrace
 10
0.0
 20
0.9999999999999998
 30
0.0
 11
0.0
 21
-0.9999999999999998
 31
0.0
 12
-0.9999999999999998
 22
0.0
 32
0.0
 13
0.0
 23
0.9999999999999998
 33
0.0
  0
ENDBLK
  5
F2
330
F0
100
AcDbEntity
  8
0
100
AcDbBlockEnd
  0
BLOCK
  5
FD
330
FC
100
AcDbEntity
  8
0
100
AcDbBlockBegin
  2
Filled-1
 70
     0
 10
0.0
 20
0.0
 30
0.0
  3
Filled-1
  1

  0
LINE
  5
FF
330
FC
100
AcDbEntity
  8
0
 62
     0
100
AcDbLine
 10
-0.9999999999999998
 20
0.0
 30
0.0
 11
0.0
 21
0.0
 31
0.0
  0
POLYLINE
  5
100
330
FC
100
AcDbEntity
  8
0
 62
     0
100
AcDb2dPolyline
 66
     1
 10
0.0
 20
0.0
 30
0.0
 70
   128
  0
VERTEX
  5
101
330
100
100
AcDbEntity
  8
0
 62
     0
100
AcDbVertex
100
AcDb2dVertex
 10
-0.9999999999999998
 20
-0.0994897959183674
 30
0.0
  0
VERTEX
  5
102
330
100
100
AcDbEntity
  8
0
 62
     0
100
AcDbVertex
100
AcDb2dVertex
 10
0.0
 20
0.0
 30
0.0
  0
VERTEX
  5
104
330
100
100
AcDbEntity
  8
0
 62
     0
100
AcDbVertex
100
AcDb2dVertex
 10
-0.9999999999999998
 20
0.0994897959183674
 30
0.0
  0
VERTEX
  5
105
330
100
100
AcDbEntity
  8
0
 62
     0
100
AcDbVertex
100
AcDb2dVertex
 10
-0.9999999999999998
 20
-0.0994897959183674
 30
0.0
  0
SEQEND
  5
103
330
100
100
AcDbEntity
  8
0
 62
     0
  0
SOLID
  5
106
330
FC
100
AcDbEntity
  8
0
 62
     0
100
AcDbTrace
 10
-0.9999999999999998
 20
-0.0994897959183674
 30
0.0
 11
0.0
 21
0.0
 31
0.0
 12
-0.9999999999999998
 22
0.0994897959183674
 32
0.0
 13
-0.9999999999999998
 23
-0.0994897959183674
 33
0.0
  0
LINE
  5
107
330
FC
100
AcDbEntity
  8
0
 62
     0
100
AcDbLine
 10
-0.9999999999999998
 20
-0.0994897959183674
 30
0.0
 11
0.0
 21
0.0
 31
0.0
  0
LINE
  5
108
330
FC
100
AcDbEntity
  8
0
 62
     0
100
AcDbLine
 10
0.0
 20
0.0
 30
0.0
 11
-0.9999999999999998
 21
0.0994897959183674
 31
0.0
  0
LINE
  5
109
330
FC
100
AcDbEntity
  8
0
 62
     0
100
AcDbLine
 10
-0.9999999999999998
 20
0.0994897959183674
 30
0.0
 11
-0.9999999999999998
 21
-0.0994897959183674
 31
0.0
  0
ENDBLK
  5
FE
330
FC
100
AcDbEntity
  8
0
100
AcDbBlockEnd
  0
BLOCK
  5
10C
330
10B
100
AcDbEntity
  8
0
100
AcDbBlockBegin
  2
Borders SST-LAND
 70
     0
 10
0.0
 20
0.0
 30
0.0
  3
Borders SST-LAND
  1

  0
LINE
  5
10E
330
10B
100
AcDbEntity
  8
Border (ANSI)
 62
     7
370
    50
100
AcDbLine
 10
0.5000000000000013
 20
10.5
 30
0.0
 11
0.500000000000005
 21
0.4999999999999999
 31
0.0
  0
LINE
  5
10F
330
10B
100
AcDbEntity
  8
Border (ANSI)
 62
     7
370
    50
100
AcDbLine
 10
16.49999999999999
 20
10.5
 30
0.0
 11
0.5000000000000013
 21
10.5
 31
0.0
  0
LINE
  5
110
330
10B
100
AcDbEntity
  8
Border (ANSI)
 62
     7
370
    50
100
AcDbLine
 10
16.5
 20
0.4999999999999999
 30
0.0
 11
16.49999999999999
 21
10.5
 31
0.0
  0
LINE
  5
111
330
10B
100
AcDbEntity
  8
Border (ANSI)
 62
     7
370
    50
100
AcDbLine
 10
0.500000000000005
 20
0.4999999999999999
 30
0.0
 11
16.5
 21
0.4999999999999999
 31
0.0
  0
ENDBLK
  5
10D
330
10B
100
AcDbEntity
  8
0
100
AcDbBlockEnd
  0
ENDSEC
  0
SECTION
  2
ENTITIES
  0
INSERT
  5
112
330
6C
100
AcDbEntity
  8
0
100
AcDbBlockReference
  2
Borders SST-LAND
 10
0.0
 20
0.0
 30
0.0
  0
SPLINE
  5
113
330
6C
100
AcDbEntity
  8
Visible (ANSI)
100
AcDbSpline
210
0.0
220
0.0
230
1.0
 70
     8
 71
     3
 72
    12
 73
     8
 74
     0
 42
0.0000000001
 43
0.0000000001
 40
0.215023720838616
 40
0.215023720838616
 40
0.215023720838616
 40
0.215023720838616
 40
0.2750881306779171
 40
0.2750881306779171
 40
0.3422257193795573
 40
0.3422257193795573
 40
0.3591123932700024
 40
0.3591123932700024
 40
0.3591123932700024
 40
0.3591123932700024
 10
7.540384480418418
 20
8.468578073039152
 30
0.0
 10
7.537362488490686
 20
8.468578073039152
 30
0.0
 10
7.533139152034403
 20
8.469897492868931
 30
0.0
 10
7.52347193694399
 20
8.474458246112734
 30
0.0
 10
7.517033458251314
 20
8.478258142292432
 30
0.0
 10
7.50812253112238
 20
8.4839136524663
 30
0.0
 10
7.506290625273903
 20
8.485092742002922
 30
0.0
 10
7.504433716914208
 20
8.486298087826748
 30
0.0
  0
SPLINE
  5
114
330
6C
100
AcDbEntity
  8
Visible (ANSI)
100
AcDbSpline
210
0.0
220
0.0
230
1.0
 70
     8
 71
     3
 72
    12
 73
     8
 74
     0
 42
0.0000000001
 43
0.0000000001
 40
2.466043470986127
 40
2.466043470986127
 40
2.466043470986127
 40
2.466043470986127
 40
2.486042468447031
 40
2.486042468447031
 40
2.556409122047472
 40
2.556409122047472
 40
2.610533610399085
 40
2.610533610399085
 40
2.610533610399085
 40
2.610533610399085
 10
7.50443371691424
 20
8.977108058251566
 30
0.0
 10
7.506625451695962
 20
8.978530744703641
 30
0.0
 10
7.508782306111577
 20
8.979916828443109
 30
0.0
 10
7.518256700900465
 20
8.985897258488433
 30
0.0
 10
7.524854271947653
 20
8.989725044487149
 30
0.0
 10
7.533962827583272
 20
8.993766489688971
 30
0.0
 10
7.537623388918615
 20
8.994828073039151
 30
0.0
 10
7.540384480418428
 20
8.994828073039151
 30
0.0
  0
LINE
  5
115
330
6C
100
AcDbEntity
  8
Visible (ANSI)
100
AcDbLine
 10
7.395088926035409
 20
8.827757391556867
 30
0.0
 11
7.437773658209608
 21
8.904828073039151
 31
0.0
  0
ELLIPSE
  5
116
330
6C
100
AcDbEntity
  8
Visible (ANSI)
100
AcDbEllipse
 10
7.503658230890808
 20
8.904828073039151
 30
0.0
 11
0.0717872913680573
 21
0.0827067049141022
 31
0.0
210
0.0
220
0.0
230
0.9999999999999998
 40
0.4943891428362592
 41
1.043650780137469
 42
1.976148980262994
  0
ELLIPSE
  5
117
330
6C
100
AcDbEntity
  8
Visible (ANSI)
100
AcDbEllipse
 10
7.464796062908807
 20
8.731703073039021
 30
0.0
 11
0.0
 21
-0.1459999999999999
 31
0.0
210
0.0
220
0.0
230
1.0
 40
0.6339745962155618
 41
3.994353728665634
 42
5.430424232103744
  0
ELLIPSE
  5
118
330
6C
100
AcDbEntity
  8
Visible (ANSI)
100
AcDbEllipse
 10
7.503658230890728
 20
8.558578073039152
 30
0.0
 11
0.0717872913681336
 21
-0.0827067049140993
 31
0.0
210
0.0
220
0.0
230
1.0
 40
0.494389142835828
 41
4.307036326916495
 42
5.239534527041822
  0
LINE
  5
119
330
6C
100
AcDbEntity
  8
Visible (ANSI)
100
AcDbLine
 10
7.437773658209529
 20
8.558578073039152
 30
0.0
 11
7.395088926035409
 21
8.635648754521174
 31
0.0
  0
LINE
  5
11A
330
6C
100
AcDbEntity
  8
Visible Narrow (ANSI)
100
AcDbLine
 10
7.437773658209608
 20
8.904828073039151
 30
0.0
 11
7.481548306549384
 21
8.904828073039151
 31
0.0
  0
ELLIPSE
  5
11B
330
6C
100
AcDbEntity
  8
Visible (ANSI)
100
AcDbEllipse
 10
7.547432879230582
 20
8.904828073039151
 30
0.0
 11
0.0717872913680572
 21
0.0827067049141022
 31
0.0
210
0.0
220
0.0
230
1.0
 40
0.4943891428362593
 41
1.076400451773995
 42
1.976148980262994
  0
LINE
  5
11C
330
6C
100
AcDbEntity
  8
Visible (ANSI)
100
AcDbLine
 10
7.481548306549384
 20
8.904828073039151
 30
0.0
 11
7.41991612546984
 21
8.793546264413651
 31
0.0
  0
LINE
  5
11D
330
6C
100
AcDbEntity
  8
Visible Narrow (ANSI)
100
AcDbLine
 10
7.41991612546984
 20
8.793546264413651
 30
0.0
 11
7.554235771861336
 21
8.793546264413651
 31
0.0
  0
LINE
  5
11E
330
6C
100
AcDbEntity
  8
Visible Narrow (ANSI)
100
AcDbLine
 10
7.481548306549334
 20
8.558578073039152
 30
0.0
 11
7.437773658209529
 21
8.558578073039152
 31
0.0
  0
LINE
  5
11F
330
6C
100
AcDbEntity
  8
Visible (ANSI)
100
AcDbLine
 10
7.419916125469801
 20
8.669859881664461
 30
0.0
 11
7.481548306549334
 21
8.558578073039152
 31
0.0
  0
ELLIPSE
  5
120
330
6C
100
AcDbEntity
  8
Visible (ANSI)
100
AcDbEllipse
 10
7.464796062908807
 20
8.731703073039021
 30
0.0
 11
0.0
 21
-0.094
 31
0.0
210
0.0
220
0.0
230
1.0
 40
0.6339745962155617
 41
3.994353728663838
 42
5.430424232104536
  0
ELLIPSE
  5
121
330
6C
100
AcDbEntity
  8
Visible (ANSI)
100
AcDbEllipse
 10
7.547432879230533
 20
8.558578073039152
 30
0.0
 11
0.0717872913681335
 21
-0.0827067049140993
 31
0.0
210
0.0
220
0.0
230
1.0
 40
0.4943891428358282
 41
4.307036326916495
 42
5.206784855405688
  0
LINE
  5
122
330
6C
100
AcDbEntity
  8
Visible Narrow (ANSI)
100
AcDbLine
 10
7.419916125469801
 20
8.669859881664461
 30
0.0
 11
7.554235771861336
 21
8.669859881664461
 31
0.0
  0
LINE
  5
123
330
6C
100
AcDbEntity
  8
Visible (ANSI)
100
AcDbLine
 10
7.606235771861337
 20
7.906003073039342
 30
0.0
 11
7.606235771861337
 21
7.557403073039343
 31
0.0
  0
LINE
  5
124
330
6C
100
AcDbEntity
  8
Visible (ANSI)
100
AcDbLine
 10
7.606235771861337
 20
7.557403073039343
 30
0.0
 11
7.606235771861337
 21
7.19418823532662
 31
0.0
  0
LINE
  5
125
330
6C
100
AcDbEntity
  8
Visible (ANSI)
100
AcDbLine
 10
7.606235771861337
 20
7.19418823532662
 30
0.0
 11
7.606235771861337
 21
7.142285916934068
 31
0.0
  0
LINE
  5
126
330
6C
100
AcDbEntity
  8
Visible (ANSI)
100
AcDbLine
 10
7.606235771861337
 20
6.781003073039155
 30
0.0
 11
7.606235771861337
 21
7.142285916934068
 31
0.0
  0
LINE
  5
127
330
6C
100
AcDbEntity
  8
Visible (ANSI)
100
AcDbLine
 10
7.606235771861337
 20
6.781003073039153
 30
0.0
 11
7.606235771861337
 21
6.682403073039153
 31
0.0
  0
LINE
  5
128
330
6C
100
AcDbEntity
  8
Visible (ANSI)
100
AcDbLine
 10
7.606235771861337
 20
6.321120229144209
 30
0.0
 11
7.606235771861337
 21
6.682403073039153
 31
0.0
  0
LINE
  5
129
330
6C
100
AcDbEntity
  8
Visible (ANSI)
100
AcDbLine
 10
7.606235771861337
 20
6.321120229144255
 30
0.0
 11
7.606235771861337
 21
6.269217910751674
 31
0.0
  0
LINE
  5
12A
330
6C
100
AcDbEntity
  8
Visible (ANSI)
100
AcDbLine
 10
7.606235771861337
 20
6.269217910751672
 30
0.0
 11
7.606235771861337
 21
5.906003073039152
 31
0.0
  0
LINE
  5
12B
330
6C
100
AcDbEntity
  8
Visible (ANSI)
100
AcDbLine
 10
7.606235771861337
 20
5.906003073039153
 30
0.0
 11
7.606235771861337
 21
5.807403073039153
 31
0.0
  0
LINE
  5
12C
330
6C
100
AcDbEntity
  8
Visible (ANSI)
100
AcDbLine
 10
7.606235771861337
 20
5.807403073039153
 30
0.0
 11
7.606235771861337
 21
5.443946092107684
 31
0.0
  0
LINE
  5
12D
330
6C
100
AcDbEntity
  8
Visible (ANSI)
100
AcDbLine
 10
7.606235771861337
 20
5.443946092080855
 30
0.0
 11
7.606235771861337
 21
5.393010092616869
 31
0.0
  0
LINE
  5
12E
330
6C
100
AcDbEntity
  8
Visible (ANSI)
100
AcDbLine
 10
7.606235771861337
 20
5.031003073039099
 30
0.0
 11
7.606235771861337
 21
5.393010092616853
 31
0.0
  0
LINE
  5
12F
330
6C
100
AcDbEntity
  8
Visible (ANSI)
100
AcDbLine
 10
7.606235771861337
 20
5.0310030730391
 30
0.0
 11
7.606235771861337
 21
4.668703073039102
 31
0.0
  0
LINE
  5
130
330
6C
100
AcDbEntity
  8
Visible (ANSI)
100
AcDbLine
 10
7.606235771861337
 20
4.668703073039102
 30
0.0
 11
7.606235771861337
 21
4.544203073039152
 31
0.0
  0
LINE
  5
131
330
6C
100
AcDbEntity
  8
Visible (ANSI)
100
AcDbLine
 10
7.606235771861337
 20
4.544203073039152
 30
0.0
 11
7.606235771861337
 21
4.517551600311093
 31
0.0
  0
LINE
  5
132
330
6C
100
AcDbEntity
  8
Visible (ANSI)
100
AcDbLine
 10
7.606235771861337
 20
4.517551600311093
 30
0.0
 11
7.606235771861337
 21
4.008354545767216
 31
0.0
  0
LINE
  5
133
330
6C
100
AcDbEntity
  8
Visible (ANSI)
100
AcDbLine
 10
7.606235771861337
 20
3.981703073039153
 30
0.0
 11
7.606235771861337
 21
4.008354545767222
 31
0.0
  0
LINE
  5
134
330
6C
100
AcDbEntity
  8
Visible (ANSI)
100
AcDbLine
 10
7.606235771861337
 20
3.981703073039153
 30
0.0
 11
7.606235771861337
 21
3.978606730657045
 31
0.0
  0
LINE
  5
135
330
6C
100
AcDbEntity
  8
Visible (ANSI)
100
AcDbLine
 10
7.606235771861336
 20
9.299805563760806
 30
0.0
 11
7.606235771861336
 21
9.15610941813183
 31
0.0
  0
LINE
  5
136
330
6C
100
AcDbEntity
  8
Visible (ANSI)
100
AcDbLine
 10
7.606235771861337
 20
9.15610941813183
 30
0.0
 11
7.606235771861337
 21
8.938663782328024
 31
0.0
  0
LINE
  5
137
330
6C
100
AcDbEntity
  8
Visible (ANSI)
100
AcDbLine
 10
7.606235771861337
 20
8.938663782328024
 30
0.0
 11
7.606235771861337
 21
8.682403073039154
 31
0.0
  0
LINE
  5
138
330
6C
100
AcDbEntity
  8
Visible (ANSI)
100
AcDbLine
 10
7.606235771861337
 20
8.321120229144291
 30
0.0
 11
7.606235771861337
 21
8.682403073039154
 31
0.0
  0
LINE
  5
139
330
6C
100
AcDbEntity
  8
Visible (ANSI)
100
AcDbLine
 10
7.606235771861337
 20
8.321120229144231
 30
0.0
 11
7.606235771861337
 21
8.269217910751677
 31
0.0
  0
LINE
  5
13A
330
6C
100
AcDbEntity
  8
Visible (ANSI)
100
AcDbLine
 10
7.606235771861337
 20
8.269217910751606
 30
0.0
 11
7.606235771861337
 21
7.906003073039342
 31
0.0
  0
LINE
  5
13B
330
6C
100
AcDbEntity
  8
Visible (ANSI)
100
AcDbLine
 10
7.554235771861337
 20
3.981703073039153
 30
0.0
 11
7.554235771861337
 21
3.978606730657045
 31
0.0
  0
LINE
  5
13C
330
6C
100
AcDbEntity
  8
Visible (ANSI)
100
AcDbLine
 10
7.554235771861337
 20
3.981703073039153
 30
0.0
 11
7.554235771861337
 21
4.008354545767222
 31
0.0
  0
LINE
  5
13D
330
6C
100
AcDbEntity
  8
Visible (ANSI)
100
AcDbLine
 10
7.554235771861337
 20
4.517551600311093
 30
0.0
 11
7.554235771861337
 21
4.008354545767216
 31
0.0
  0
LINE
  5
13E
330
6C
100
AcDbEntity
  8
Visible (ANSI)
100
AcDbLine
 10
7.554235771861337
 20
4.544203073039152
 30
0.0
 11
7.554235771861337
 21
4.517551600311093
 31
0.0
  0
LINE
  5
13F
330
6C
100
AcDbEntity
  8
Visible (ANSI)
100
AcDbLine
 10
7.554235771861337
 20
4.668703073039102
 30
0.0
 11
7.554235771861337
 21
4.544203073039152
 31
0.0
  0
LINE
  5
140
330
6C
100
AcDbEntity
  8
Visible (ANSI)
100
AcDbLine
 10
7.554235771861337
 20
5.0310030730391
 30
0.0
 11
7.554235771861337
 21
4.668703073039102
 31
0.0
  0
LINE
  5
141
330
6C
100
AcDbEntity
  8
Visible (ANSI)
100
AcDbLine
 10
7.554235771861337
 20
5.031003073039099
 30
0.0
 11
7.554235771861337
 21
5.393010092616853
 31
0.0
  0
LINE
  5
142
330
6C
100
AcDbEntity
  8
Visible (ANSI)
100
AcDbLine
 10
7.554235771861337
 20
5.443946092080855
 30
0.0
 11
7.554235771861337
 21
5.393010092616869
 31
0.0
  0
LINE
  5
143
330
6C
100
AcDbEntity
  8
Visible (ANSI)
100
AcDbLine
 10
7.554235771861337
 20
5.807403073039153
 30
0.0
 11
7.554235771861337
 21
5.443946092107684
 31
0.0
  0
LINE
  5
144
330
6C
100
AcDbEntity
  8
Visible (ANSI)
100
AcDbLine
 10
7.554235771861337
 20
5.906003073039153
 30
0.0
 11
7.554235771861337
 21
5.807403073039153
 31
0.0
  0
LINE
  5
145
330
6C
100
AcDbEntity
  8
Visible (ANSI)
100
AcDbLine
 10
7.554235771861337
 20
6.269217910751672
 30
0.0
 11
7.554235771861337
 21
5.906003073039152
 31
0.0
  0
LINE
  5
146
330
6C
100
AcDbEntity
  8
Visible (ANSI)
100
AcDbLine
 10
7.554235771861337
 20
6.321120229144255
 30
0.0
 11
7.554235771861337
 21
6.269217910751674
 31
0.0
  0
LINE
  5
147
330
6C
100
AcDbEntity
  8
Visible (ANSI)
100
AcDbLine
 10
7.554235771861337
 20
6.321120229144209
 30
0.0
 11
7.554235771861337
 21
6.682403073039153
 31
0.0
  0
LINE
  5
148
330
6C
100
AcDbEntity
  8
Visible (ANSI)
100
AcDbLine
 10
7.554235771861337
 20
6.781003073039153
 30
0.0
 11
7.554235771861337
 21
6.682403073039153
 31
0.0
  0
LINE
  5
149
330
6C
100
AcDbEntity
  8
Visible (ANSI)
100
AcDbLine
 10
7.554235771861337
 20
6.781003073039155
 30
0.0
 11
7.554235771861337
 21
7.142285916934068
 31
0.0
  0
LINE
  5
14A
330
6C
100
AcDbEntity
  8
Visible (ANSI)
100
AcDbLine
 10
7.554235771861337
 20
7.19418823532662
 30
0.0
 11
7.554235771861337
 21
7.142285916934068
 31
0.0
  0
LINE
  5
14B
330
6C
100
AcDbEntity
  8
Visible (ANSI)
100
AcDbLine
 10
7.554235771861337
 20
7.557403073039343
 30
0.0
 11
7.554235771861337
 21
7.19418823532662
 31
0.0
  0
LINE
  5
14C
330
6C
100
AcDbEntity
  8
Visible (ANSI)
100
AcDbLine
 10
7.554235771861336
 20
7.906003073039342
 30
0.0
 11
7.554235771861336
 21
7.557403073039343
 31
0.0
  0
LINE
  5
14D
330
6C
100
AcDbEntity
  8
Visible (ANSI)
100
AcDbLine
 10
7.554235771861337
 20
8.269217910751606
 30
0.0
 11
7.554235771861337
 21
7.906003073039342
 31
0.0
  0
LINE
  5
14E
330
6C
100
AcDbEntity
  8
Visible (ANSI)
100
AcDbLine
 10
7.554235771861337
 20
8.321120229144231
 30
0.0
 11
7.554235771861336
 21
8.269217910751677
 31
0.0
  0
LINE
  5
14F
330
6C
100
AcDbEntity
  8
Visible (ANSI)
100
AcDbLine
 10
7.554235771861336
 20
8.321120229144291
 30
0.0
 11
7.554235771861336
 21
8.682403073039154
 31
0.0
  0
LINE
  5
150
330
6C
100
AcDbEntity
  8
Visible (ANSI)
100
AcDbLine
 10
7.554235771861336
 20
8.938663782328024
 30
0.0
 11
7.554235771861337
 21
8.682403073039154
 31
0.0
  0
LINE
  5
151
330
6C
100
AcDbEntity
  8
Visible (ANSI)
100
AcDbLine
 10
7.554235771861336
 20
9.15610941813183
 30
0.0
 11
7.554235771861336
 21
8.938663782328024
 31
0.0
  0
LINE
  5
152
330
6C
100
AcDbEntity
  8
Visible (ANSI)
100
AcDbLine
 10
7.554235771861336
 20
9.299805563760806
 30
0.0
 11
7.554235771861336
 21
9.15610941813183
 31
0.0
  0
LINE
  5
153
330
6C
100
AcDbEntity
  8
Visible (ANSI)
100
AcDbLine
 10
9.174151250400006
 20
3.9784259265239
 30
0.0
 11
9.174151250400006
 21
3.981703073039153
 31
0.0
  0
LINE
  5
154
330
6C
100
AcDbEntity
  8
Visible (ANSI)
100
AcDbLine
 10
9.174151250400006
 20
4.038755839117425
 30
0.0
 11
9.174151250400006
 21
3.981703073039153
 31
0.0
  0
LINE
  5
155
330
6C
100
AcDbEntity
  8
Visible (ANSI)
100
AcDbLine
 10
9.174151250400006
 20
4.038755839117426
 30
0.0
 11
9.174151250400006
 21
4.504934335990069
 31
0.0
  0
LINE
  5
156
330
6C
100
AcDbEntity
  8
Visible (ANSI)
100
AcDbLine
 10
9.174151250400006
 20
4.504934335990068
 30
0.0
 11
9.174151250400006
 21
4.543681275892498
 31
0.0
  0
LINE
  5
157
330
6C
100
AcDbEntity
  8
Visible (ANSI)
100
AcDbLine
 10
9.174151250400006
 20
4.543681275892499
 30
0.0
 11
9.174151250400006
 21
4.668703073039202
 31
0.0
  0
LINE
  5
158
330
6C
100
AcDbEntity
  8
Visible (ANSI)
100
AcDbLine
 10
9.174151250400006
 20
4.668703073039202
 30
0.0
 11
9.174151250400006
 21
5.030483794413853
 31
0.0
  0
LINE
  5
159
330
6C
100
AcDbEntity
  8
Visible (ANSI)
100
AcDbLine
 10
9.174151250400006
 20
5.030483794413853
 30
0.0
 11
9.174151250400006
 21
5.394217910751673
 31
0.0
  0
LINE
  5
15A
330
6C
100
AcDbEntity
  8
Visible (ANSI)
100
AcDbLine
 10
9.174151250400006
 20
5.394217910751674
 30
0.0
 11
9.174151250400006
 21
5.446120229144254
 31
0.0
  0
LINE
  5
15B
330
6C
100
AcDbEntity
  8
Visible (ANSI)
100
AcDbLine
 10
9.174151250400006
 20
5.807403073039153
 30
0.0
 11
9.174151250400006
 21
5.446120229144253
 31
0.0
  0
LINE
  5
15C
330
6C
100
AcDbEntity
  8
Visible (ANSI)
100
AcDbLine
 10
9.174151250400006
 20
5.807403073039153
 30
0.0
 11
9.174151250400006
 21
5.906003073039153
 31
0.0
  0
LINE
  5
15D
330
6C
100
AcDbEntity
  8
Visible (ANSI)
100
AcDbLine
 10
9.174151250400006
 20
6.267285916934053
 30
0.0
 11
9.174151250400006
 21
5.906003073039153
 31
0.0
  0
LINE
  5
15E
330
6C
100
AcDbEntity
  8
Visible (ANSI)
100
AcDbLine
 10
9.174151250400006
 20
6.267285916934053
 30
0.0
 11
9.174151250400006
 21
6.319188235326633
 31
0.0
  0
LINE
  5
15F
330
6C
100
AcDbEntity
  8
Visible (ANSI)
100
AcDbLine
 10
9.174151250400006
 20
6.31918823532659
 30
0.0
 11
9.174151250400006
 21
6.682403073039153
 31
0.0
  0
LINE
  5
160
330
6C
100
AcDbEntity
  8
Visible (ANSI)
100
AcDbLine
 10
9.174151250400006
 20
6.682403073039153
 30
0.0
 11
9.174151250400006
 21
6.781003073039153
 31
0.0
  0
LINE
  5
161
330
6C
100
AcDbEntity
  8
Visible (ANSI)
100
AcDbLine
 10
9.174151250400006
 20
6.781003073039153
 30
0.0
 11
9.174151250400006
 21
7.144217910751688
 31
0.0
  0
LINE
  5
162
330
6C
100
AcDbEntity
  8
Visible (ANSI)
100
AcDbLine
 10
9.174151250400006
 20
7.144217910751689
 30
0.0
 11
9.174151250400006
 21
7.196120229144238
 31
0.0
  0
LINE
  5
163
330
6C
100
AcDbEntity
  8
Visible (ANSI)
100
AcDbLine
 10
9.174151250400006
 20
7.557403073040541
 30
0.0
 11
9.174151250400006
 21
7.196120229144239
 31
0.0
  0
LINE
  5
164
330
6C
100
AcDbEntity
  8
Visible (ANSI)
100
AcDbLine
 10
9.174151250400006
 20
7.557403073040541
 30
0.0
 11
9.174151250400006
 21
7.906003073040541
 31
0.0
  0
LINE
  5
165
330
6C
100
AcDbEntity
  8
Visible (ANSI)
100
AcDbLine
 10
9.174151250400006
 20
8.267285916934008
 30
0.0
 11
9.174151250400006
 21
7.906003073040541
 31
0.0
  0
LINE
  5
166
330
6C
100
AcDbEntity
  8
Visible (ANSI)
100
AcDbLine
 10
9.174151250400006
 20
8.267285916934053
 30
0.0
 11
9.174151250400006
 21
8.319188235326635
 31
0.0
  0
LINE
  5
167
330
6C
100
AcDbEntity
  8
Visible (ANSI)
100
AcDbLine
 10
9.174151250400006
 20
8.319188235326649
 30
0.0
 11
9.174151250400006
 21
8.682403073039154
 31
0.0
  0
LINE
  5
168
330
6C
100
AcDbEntity
  8
Visible (ANSI)
100
AcDbLine
 10
9.174151250400006
 20
8.682403073039154
 30
0.0
 11
9.174151250400006
 21
8.938645397472216
 31
0.0
  0
LINE
  5
169
330
6C
100
AcDbEntity
  8
Visible (ANSI)
100
AcDbLine
 10
9.174151250400006
 20
8.938645397472216
 30
0.0
 11
9.174151250400006
 21
9.129638924919611
 31
0.0
  0
LINE
  5
16A
330
6C
100
AcDbEntity
  8
Visible (ANSI)
100
AcDbLine
 10
9.174151250400006
 20
9.196444545289866
 30
0.0
 11
9.174151250400006
 21
9.129638924919611
 31
0.0
  0
LINE
  5
16B
330
6C
100
AcDbEntity
  8
Visible (ANSI)
100
AcDbLine
 10
9.174151250400006
 20
9.196444545289866
 30
0.0
 11
9.174151250400006
 21
9.286471777740823
 31
0.0
  0
LINE
  5
16C
330
6C
100
AcDbEntity
  8
Visible (ANSI)
100
AcDbLine
 10
9.226151250400006
 20
9.196444545289866
 30
0.0
 11
9.226151250400006
 21
9.286471777740823
 31
0.0
  0
LINE
  5
16D
330
6C
100
AcDbEntity
  8
Visible (ANSI)
100
AcDbLine
 10
9.226151250400008
 20
9.196444545289866
 30
0.0
 11
9.226151250400008
 21
9.129638924919611
 31
0.0
  0
LINE
  5
16E
330
6C
100
AcDbEntity
  8
Visible (ANSI)
100
AcDbLine
 10
9.226151250400006
 20
8.938645397472216
 30
0.0
 11
9.226151250400008
 21
9.129638924919611
 31
0.0
  0
LINE
  5
16F
330
6C
100
AcDbEntity
  8
Visible (ANSI)
100
AcDbLine
 10
9.226151250400006
 20
8.682403073039154
 30
0.0
 11
9.226151250400006
 21
8.938645397472216
 31
0.0
  0
LINE
  5
170
330
6C
100
AcDbEntity
  8
Visible (ANSI)
100
AcDbLine
 10
9.226151250400006
 20
8.319188235326649
 30
0.0
 11
9.226151250400006
 21
8.682403073039154
 31
0.0
  0
LINE
  5
171
330
6C
100
AcDbEntity
  8
Visible (ANSI)
100
AcDbLine
 10
9.226151250400006
 20
8.267285916934053
 30
0.0
 11
9.226151250400006
 21
8.319188235326635
 31
0.0
  0
LINE
  5
172
330
6C
100
AcDbEntity
  8
Visible (ANSI)
100
AcDbLine
 10
9.226151250400006
 20
8.267285916934008
 30
0.0
 11
9.226151250400006
 21
7.906003073040541
 31
0.0
  0
LINE
  5
173
330
6C
100
AcDbEntity
  8
Visible (ANSI)
100
AcDbLine
 10
9.226151250400006
 20
7.557403073040541
 30
0.0
 11
9.226151250400006
 21
7.906003073040541
 31
0.0
  0
LINE
  5
174
330
6C
100
AcDbEntity
  8
Visible (ANSI)
100
AcDbLine
 10
9.226151250400006
 20
7.557403073040541
 30
0.0
 11
9.226151250400006
 21
7.196120229144239
 31
0.0
  0
LINE
  5
175
330
6C
100
AcDbEntity
  8
Visible (ANSI)
100
AcDbLine
 10
9.226151250400006
 20
7.144217910751689
 30
0.0
 11
9.226151250400006
 21
7.196120229144238
 31
0.0
  0
LINE
  5
176
330
6C
100
AcDbEntity
  8
Visible (ANSI)
100
AcDbLine
 10
9.226151250400006
 20
6.781003073039153
 30
0.0
 11
9.226151250400006
 21
7.144217910751688
 31
0.0
  0
LINE
  5
177
330
6C
100
AcDbEntity
  8
Visible (ANSI)
100
AcDbLine
 10
9.226151250400008
 20
6.682403073039153
 30
0.0
 11
9.226151250400008
 21
6.781003073039153
 31
0.0
  0
LINE
  5
178
330
6C
100
AcDbEntity
  8
Visible (ANSI)
100
AcDbLine
 10
9.226151250400006
 20
6.31918823532659
 30
0.0
 11
9.226151250400006
 21
6.682403073039153
 31
0.0
  0
LINE
  5
179
330
6C
100
AcDbEntity
  8
Visible (ANSI)
100
AcDbLine
 10
9.226151250400006
 20
6.267285916934053
 30
0.0
 11
9.226151250400008
 21
6.319188235326633
 31
0.0
  0
LINE
  5
17A
330
6C
100
AcDbEntity
  8
Visible (ANSI)
100
AcDbLine
 10
9.226151250400008
 20
6.267285916934053
 30
0.0
 11
9.226151250400008
 21
5.906003073039153
 31
0.0
  0
LINE
  5
17B
330
6C
100
AcDbEntity
  8
Visible (ANSI)
100
AcDbLine
 10
9.226151250400006
 20
5.807403073039153
 30
0.0
 11
9.226151250400006
 21
5.906003073039153
 31
0.0
  0
LINE
  5
17C
330
6C
100
AcDbEntity
  8
Visible (ANSI)
100
AcDbLine
 10
9.226151250400008
 20
5.807403073039153
 30
0.0
 11
9.226151250400008
 21
5.446120229144253
 31
0.0
  0
LINE
  5
17D
330
6C
100
AcDbEntity
  8
Visible (ANSI)
100
AcDbLine
 10
9.226151250400008
 20
5.394217910751674
 30
0.0
 11
9.226151250400006
 21
5.446120229144254
 31
0.0
  0
LINE
  5
17E
330
6C
100
AcDbEntity
  8
Visible (ANSI)
100
AcDbLine
 10
9.226151250400008
 20
5.030483794413853
 30
0.0
 11
9.226151250400008
 21
5.394217910751673
 31
0.0
  0
LINE
  5
17F
330
6C
100
AcDbEntity
  8
Visible (ANSI)
100
AcDbLine
 10
9.226151250400008
 20
4.668703073039202
 30
0.0
 11
9.226151250400008
 21
5.030483794413853
 31
0.0
  0
LINE
  5
180
330
6C
100
AcDbEntity
  8
Visible (ANSI)
100
AcDbLine
 10
9.226151250400008
 20
4.543681275892499
 30
0.0
 11
9.226151250400008
 21
4.668703073039202
 31
0.0
  0
LINE
  5
181
330
6C
100
AcDbEntity
  8
Visible (ANSI)
100
AcDbLine
 10
9.226151250400008
 20
4.504934335990068
 30
0.0
 11
9.226151250400008
 21
4.543681275892498
 31
0.0
  0
LINE
  5
182
330
6C
100
AcDbEntity
  8
Visible (ANSI)
100
AcDbLine
 10
9.226151250400008
 20
4.038755839117426
 30
0.0
 11
9.226151250400008
 21
4.504934335990069
 31
0.0
  0
LINE
  5
183
330
6C
100
AcDbEntity
  8
Visible (ANSI)
100
AcDbLine
 10
9.226151250400008
 20
4.038755839117425
 30
0.0
 11
9.226151250400008
 21
3.981703073039153
 31
0.0
  0
LINE
  5
184
330
6C
100
AcDbEntity
  8
Visible (ANSI)
100
AcDbLine
 10
9.226151250400008
 20
3.9784259265239
 30
0.0
 11
9.226151250400008
 21
3.981703073039153
 31
0.0
  0
LINE
  5
185
330
6C
100
AcDbEntity
  8
Visible (ANSI)
100
AcDbLine
 10
7.577115771861336
 20
9.299805563760806
 30
0.0
 11
7.554235771861336
 21
9.299805563760806
 31
0.0
  0
LINE
  5
186
330
6C
100
AcDbEntity
  8
Visible (ANSI)
100
AcDbLine
 10
7.606235771861337
 20
9.299805563760806
 30
0.0
 11
7.577115771861336
 21
9.299805563760806
 31
0.0
  0
LINE
  5
187
330
6C
100
AcDbEntity
  8
Visible (ANSI)
100
AcDbLine
 10
7.577115771861338
 20
3.978606730657045
 30
0.0
 11
7.606235771861337
 21
3.978606730657045
 31
0.0
  0
LINE
  5
188
330
6C
100
AcDbEntity
  8
Visible (ANSI)
100
AcDbLine
 10
7.554235771861337
 20
3.978606730657045
 30
0.0
 11
7.577115771861338
 21
3.978606730657045
 31
0.0
  0
LINE
  5
189
330
6C
100
AcDbEntity
  8
Visible Narrow (ANSI)
100
AcDbLine
 10
7.515235771861338
 20
3.862816013702587
 30
0.0
 11
7.515235771861338
 21
6.479456321798186
 31
0.0
  0
LINE
  5
18A
330
6C
100
AcDbEntity
  8
Visible Narrow (ANSI)
100
AcDbLine
 10
7.515235771861338
 20
6.983949824280111
 30
0.0
 11
7.515235771861338
 21
8.479456321798185
 31
0.0
  0
LINE
  5
18B
330
6C
100
AcDbEntity
  8
Visible Narrow (ANSI)
100
AcDbLine
 10
7.515235771861338
 20
8.983949824280111
 30
0.0
 11
7.515235771861338
 21
9.461338081236913
 31
0.0
  0
ARC
  5
18C
330
6C
100
AcDbEntity
  8
Visible (ANSI)
100
AcDbCircle
 10
6.944586210212361
 20
9.106703073039149
 30
0.0
 40
0.0854999999999998
100
AcDbArc
 50
90.0
 51
270.0
  0
LINE
  5
18D
330
6C
100
AcDbEntity
  8
Visible (ANSI)
100
AcDbLine
 10
6.944586210212362
 20
9.192203073039161
 30
0.0
 11
7.023586210212369
 21
9.192203073039161
 31
0.0
  0
ARC
  5
18E
330
6C
100
AcDbEntity
  8
Visible (ANSI)
100
AcDbCircle
 10
7.02358621021237
 20
9.106703073039154
 30
0.0
 40
0.0854999999999998
100
AcDbArc
 50
270.0
 51
90.0
  0
LINE
  5
18F
330
6C
100
AcDbEntity
  8
Visible (ANSI)
100
AcDbLine
 10
7.023586210212369
 20
9.021203073039149
 30
0.0
 11
6.944586210212362
 21
9.021203073039139
 31
0.0
  0
LINE
  5
190
330
6C
100
AcDbEntity
  8
Visible (ANSI)
100
AcDbLine
 10
6.944745333076495
 20
8.442203073039149
 30
0.0
 11
7.023608942050072
 21
8.442203073039149
 31
0.0
  0
ARC
  5
191
330
6C
100
AcDbEntity
  8
Visible (ANSI)
100
AcDbCircle
 10
7.023608942050073
 20
8.356703073039149
 30
0.0
 40
0.0854999999999998
100
AcDbArc
 50
270.0
 51
90.0
  0
LINE
  5
192
330
6C
100
AcDbEntity
  8
Visible (ANSI)
100
AcDbLine
 10
7.023608942050072
 20
8.271203073039149
 30
0.0
 11
6.944745333076495
 21
8.271203073039149
 31
0.0
  0
ARC
  5
193
330
6C
100
AcDbEntity
  8
Visible (ANSI)
100
AcDbCircle
 10
6.944745333076495
 20
8.356703073039149
 30
0.0
 40
0.0854999999999998
100
AcDbArc
 50
90.0
 51
270.0
  0
ARC
  5
194
330
6C
100
AcDbEntity
  8
Visible (ANSI)
100
AcDbCircle
 10
6.944745333076495
 20
6.981703073039155
 30
0.0
 40
0.0854999999999998
100
AcDbArc
 50
90.0
 51
270.0
  0
LINE
  5
195
330
6C
100
AcDbEntity
  8
Visible (ANSI)
100
AcDbLine
 10
6.944745333076495
 20
7.067203073039155
 30
0.0
 11
7.023608942050072
 21
7.067203073039155
 31
0.0
  0
ARC
  5
196
330
6C
100
AcDbEntity
  8
Visible (ANSI)
100
AcDbCircle
 10
7.023608942050073
 20
6.981703073039155
 30
0.0
 40
0.0854999999999998
100
AcDbArc
 50
270.0
 51
90.0
  0
LINE
  5
197
330
6C
100
AcDbEntity
  8
Visible (ANSI)
100
AcDbLine
 10
7.023608942050072
 20
6.896203073039155
 30
0.0
 11
6.944745333076495
 21
6.896203073039155
 31
0.0
  0
LINE
  5
198
330
6C
100
AcDbEntity
  8
Visible (ANSI)
100
AcDbLine
 10
7.35914047106486
 20
9.731703073039152
 30
0.0
 11
7.515235771861338
 21
9.461338081236913
 31
0.0
  0
LINE
  5
199
330
6C
100
AcDbEntity
  8
Visible (ANSI)
100
AcDbLine
 10
6.87232540941963
 20
9.731703073039152
 30
0.0
 11
7.35914047106486
 21
9.731703073039152
 31
0.0
  0
LINE
  5
19A
330
6C
100
AcDbEntity
  8
Visible (ANSI)
100
AcDbLine
 10
6.640390471064854
 20
9.499768134684376
 30
0.0
 11
6.87232540941963
 21
9.731703073039152
 31
0.0
  0
LINE
  5
19B
330
6C
100
AcDbEntity
  8
Visible (ANSI)
100
AcDbLine
 10
6.640390471064854
 20
8.968518134684373
 30
0.0
 11
6.640390471064854
 21
9.499768134684376
 31
0.0
  0
ARC
  5
19C
330
6C
100
AcDbEntity
  8
Visible (ANSI)
100
AcDbCircle
 10
6.640390471064854
 20
8.781018134684373
 30
0.0
 40
0.1875000000000001
100
AcDbArc
 50
270.0
 51
90.0
  0
LINE
  5
19D
330
6C
100
AcDbEntity
  8
Visible (ANSI)
100
AcDbLine
 10
6.640390471064855
 20
4.544203028680432
 30
0.0
 11
6.640390471064854
 21
8.593518134684373
 31
0.0
  0
ARC
  5
19E
330
6C
100
AcDbEntity
  8
Visible (ANSI)
100
AcDbCircle
 10
6.640390471064859
 20
4.458702573511262
 30
0.0
 40
0.08550045516917
100
AcDbArc
 50
0.0
 51
90.00000000000188
  0
LINE
  5
19F
330
6C
100
AcDbEntity
  8
Visible (ANSI)
100
AcDbLine
 10
6.725890926234026
 20
4.40876093658028
 30
0.0
 11
6.725890926234029
 21
4.458702573511263
 31
0.0
  0
ARC
  5
1A0
330
6C
100
AcDbEntity
  8
Visible (ANSI)
100
AcDbCircle
 10
6.640390471064859
 20
4.408760936580282
 30
0.0
 40
0.0855004551691708
100
AcDbArc
 50
269.7961075238967
 51
0.0
  0
LINE
  5
1A1
330
6C
100
AcDbEntity
  8
Visible (ANSI)
100
AcDbLine
 10
6.640086210212372
 20
2.823734261642241
 30
0.0
 11
6.640086210212372
 21
4.32326102278226
 31
0.0
  0
LINE
  5
1A2
330
6C
100
AcDbEntity
  8
Visible (ANSI)
100
AcDbLine
 10
7.563836210212384
 20
2.981703073039153
 30
0.0
 11
7.563836210212384
 21
2.823734261642241
 31
0.0
  0
ARC
  5
1A3
330
6C
100
AcDbEntity
  8
Visible (ANSI)
100
AcDbCircle
 10
7.31383621021247
 20
2.981703073039026
 30
0.0
 40
0.2499999999999135
100
AcDbArc
 50
0.0
 51
5.000000000030645
  0
LINE
  5
1A4
330
6C
100
AcDbEntity
  8
Visible (ANSI)
100
AcDbLine
 10
7.516037535689435
 20
3.538959658566112
 30
0.0
 11
7.562884884735309
 21
3.003492008726067
 31
0.0
  0
ARC
  5
1A5
330
6C
100
AcDbEntity
  8
Visible (ANSI)
100
AcDbCircle
 10
7.765086210212442
 20
3.560748594253027
 30
0.0
 40
0.2500000000000702
100
AcDbArc
 50
180.0
 51
184.9999999999987
  0
LINE
  5
1A6
330
6C
100
AcDbEntity
  8
Visible (ANSI)
100
AcDbLine
 10
7.515086210212372
 20
3.856703073039154
 30
0.0
 11
7.515086210212372
 21
3.560748594253024
 31
0.0
  0
ARC
  5
1A7
330
6C
100
AcDbEntity
  8
Visible (ANSI)
100
AcDbCircle
 10
7.640086210212209
 20
3.856703073039158
 30
0.0
 40
0.1249999999998379
100
AcDbArc
 50
177.196916350535
 51
180.0
  0
LINE
  5
1A8
330
6C
100
AcDbEntity
  8
Visible Narrow (ANSI)
100
AcDbLine
 10
9.174151250400006
 20
9.196444545289866
 30
0.0
 11
9.226151250400008
 21
9.196444545289866
 31
0.0
  0
LINE
  5
1A9
330
6C
100
AcDbEntity
  8
Visible Narrow (ANSI)
100
AcDbLine
 10
9.174151250400006
 20
9.129638924919611
 30
0.0
 11
9.226151250400008
 21
9.129638924919611
 31
0.0
  0
LINE
  5
1AA
330
6C
100
AcDbEntity
  8
Visible (ANSI)
100
AcDbLine
 10
9.174151250400006
 20
8.938645397472216
 30
0.0
 11
9.226151250400006
 21
8.938645397472216
 31
0.0
  0
LINE
  5
1AB
330
6C
100
AcDbEntity
  8
Visible Narrow (ANSI)
100
AcDbLine
 10
9.174151250400006
 20
8.682403073039154
 30
0.0
 11
9.226151250400006
 21
8.682403073039154
 31
0.0
  0
LINE
  5
1AC
330
6C
100
AcDbEntity
  8
Visible Narrow (ANSI)
100
AcDbLine
 10
9.174151250400006
 20
8.319188235326635
 30
0.0
 11
9.226151250400006
 21
8.319188235326635
 31
0.0
  0
LINE
  5
1AD
330
6C
100
AcDbEntity
  8
Visible Narrow (ANSI)
100
AcDbLine
 10
9.174151250400006
 20
8.267285916934053
 30
0.0
 11
9.226151250400006
 21
8.267285916934053
 31
0.0
  0
LINE
  5
1AE
330
6C
100
AcDbEntity
  8
Visible Narrow (ANSI)
100
AcDbLine
 10
9.174151250400006
 20
7.906003073040541
 30
0.0
 11
9.226151250400006
 21
7.906003073040541
 31
0.0
  0
LINE
  5
1AF
330
6C
100
AcDbEntity
  8
Visible Narrow (ANSI)
100
AcDbLine
 10
9.174151250400006
 20
7.557403073040541
 30
0.0
 11
9.226151250400006
 21
7.557403073040541
 31
0.0
  0
LINE
  5
1B0
330
6C
100
AcDbEntity
  8
Visible Narrow (ANSI)
100
AcDbLine
 10
9.174151250400006
 20
7.196120229144238
 30
0.0
 11
9.226151250400006
 21
7.196120229144238
 31
0.0
  0
LINE
  5
1B1
330
6C
100
AcDbEntity
  8
Visible Narrow (ANSI)
100
AcDbLine
 10
9.174151250400006
 20
7.144217910751689
 30
0.0
 11
9.226151250400006
 21
7.144217910751689
 31
0.0
  0
LINE
  5
1B2
330
6C
100
AcDbEntity
  8
Visible Narrow (ANSI)
100
AcDbLine
 10
9.174151250400006
 20
6.781003073039153
 30
0.0
 11
9.226151250400008
 21
6.781003073039153
 31
0.0
  0
LINE
  5
1B3
330
6C
100
AcDbEntity
  8
Visible Narrow (ANSI)
100
AcDbLine
 10
9.174151250400006
 20
6.682403073039153
 30
0.0
 11
9.226151250400008
 21
6.682403073039153
 31
0.0
  0
LINE
  5
1B4
330
6C
100
AcDbEntity
  8
Visible Narrow (ANSI)
100
AcDbLine
 10
9.174151250400006
 20
6.319188235326633
 30
0.0
 11
9.226151250400008
 21
6.319188235326633
 31
0.0
  0
LINE
  5
1B5
330
6C
100
AcDbEntity
  8
Visible Narrow (ANSI)
100
AcDbLine
 10
9.174151250400006
 20
6.267285916934053
 30
0.0
 11
9.226151250400006
 21
6.267285916934053
 31
0.0
  0
LINE
  5
1B6
330
6C
100
AcDbEntity
  8
Visible Narrow (ANSI)
100
AcDbLine
 10
9.174151250400006
 20
5.906003073039153
 30
0.0
 11
9.226151250400006
 21
5.906003073039153
 31
0.0
  0
LINE
  5
1B7
330
6C
100
AcDbEntity
  8
Visible Narrow (ANSI)
100
AcDbLine
 10
9.174151250400006
 20
5.807403073039153
 30
0.0
 11
9.226151250400006
 21
5.807403073039153
 31
0.0
  0
LINE
  5
1B8
330
6C
100
AcDbEntity
  8
Visible Narrow (ANSI)
100
AcDbLine
 10
9.174151250400006
 20
5.446120229144254
 30
0.0
 11
9.226151250400006
 21
5.446120229144254
 31
0.0
  0
LINE
  5
1B9
330
6C
100
AcDbEntity
  8
Visible Narrow (ANSI)
100
AcDbLine
 10
9.174151250400006
 20
5.394217910751674
 30
0.0
 11
9.226151250400008
 21
5.394217910751674
 31
0.0
  0
LINE
  5
1BA
330
6C
100
AcDbEntity
  8
Visible Narrow (ANSI)
100
AcDbLine
 10
9.174151250400006
 20
5.030483794413853
 30
0.0
 11
9.226151250400008
 21
5.030483794413853
 31
0.0
  0
LINE
  5
1BB
330
6C
100
AcDbEntity
  8
Visible (ANSI)
100
AcDbLine
 10
9.174151250400006
 20
4.668703073039202
 30
0.0
 11
9.226151250400008
 21
4.668703073039202
 31
0.0
  0
LINE
  5
1BC
330
6C
100
AcDbEntity
  8
Visible Narrow (ANSI)
100
AcDbLine
 10
9.174151250400006
 20
4.543681275892499
 30
0.0
 11
9.226151250400008
 21
4.543681275892499
 31
0.0
  0
LINE
  5
1BD
330
6C
100
AcDbEntity
  8
Visible Narrow (ANSI)
100
AcDbLine
 10
9.174151250400006
 20
4.504934335990069
 30
0.0
 11
9.226151250400008
 21
4.504934335990069
 31
0.0
  0
LINE
  5
1BE
330
6C
100
AcDbEntity
  8
Visible Narrow (ANSI)
100
AcDbLine
 10
9.174151250400006
 20
4.038755839117426
 30
0.0
 11
9.226151250400008
 21
4.038755839117426
 31
0.0
  0
LINE
  5
1BF
330
6C
100
AcDbEntity
  8
Visible (ANSI)
100
AcDbLine
 10
9.174151250400006
 20
3.981703073039153
 30
0.0
 11
9.226151250400008
 21
3.981703073039153
 31
0.0
  0
LINE
  5
1C0
330
6C
100
AcDbEntity
  8
Visible (ANSI)
100
AcDbLine
 10
9.264151250400008
 20
9.439125929851888
 30
0.0
 11
9.433070742777905
 21
9.731703073039152
 31
0.0
  0
ARC
  5
1C1
330
6C
100
AcDbEntity
  8
Visible (ANSI)
100
AcDbCircle
 10
9.756586210212372
 20
9.419203073039149
 30
0.0
 40
0.0854999999999998
100
AcDbArc
 50
90.0
 51
270.0
  0
LINE
  5
1C2
330
6C
100
AcDbEntity
  8
Visible (ANSI)
100
AcDbLine
 10
9.756586210212372
 20
9.504703073039145
 30
0.0
 11
9.835586210212381
 21
9.504703073039152
 31
0.0
  0
ARC
  5
1C3
330
6C
100
AcDbEntity
  8
Visible (ANSI)
100
AcDbCircle
 10
9.83558621021238
 20
9.419203073039149
 30
0.0
 40
0.0854999999999998
100
AcDbArc
 50
270.0
 51
90.0
  0
LINE
  5
1C4
330
6C
100
AcDbEntity
  8
Visible (ANSI)
100
AcDbLine
 10
9.835586210212381
 20
9.333703073039146
 30
0.0
 11
9.756586210212372
 21
9.333703073039153
 31
0.0
  0
ARC
  5
1C5
330
6C
100
AcDbEntity
  8
Visible (ANSI)
100
AcDbCircle
 10
9.756586210212372
 20
7.356703073039152
 30
0.0
 40
0.0854999999999998
100
AcDbArc
 50
90.0
 51
270.0
  0
LINE
  5
1C6
330
6C
100
AcDbEntity
  8
Visible (ANSI)
100
AcDbLine
 10
9.756586210212372
 20
7.442203073039156
 30
0.0
 11
9.835586210212381
 21
7.442203073039165
 31
0.0
  0
ARC
  5
1C7
330
6C
100
AcDbEntity
  8
Visible (ANSI)
100
AcDbCircle
 10
9.835586210212381
 20
7.356703073039153
 30
0.0
 40
0.0854999999999998
100
AcDbArc
 50
270.0
 51
90.0
  0
LINE
  5
1C8
330
6C
100
AcDbEntity
  8
Visible (ANSI)
100
AcDbLine
 10
9.835586210212381
 20
7.271203073039143
 30
0.0
 11
9.756586210212372
 21
7.271203073039149
 31
0.0
  0
ARC
  5
1C9
330
6C
100
AcDbEntity
  8
Visible (ANSI)
100
AcDbCircle
 10
9.756586210212372
 20
6.106703073039148
 30
0.0
 40
0.0854999999999998
100
AcDbArc
 50
90.0
 51
270.0
  0
LINE
  5
1CA
330
6C
100
AcDbEntity
  8
Visible (ANSI)
100
AcDbLine
 10
9.756586210212372
 20
6.192203073039158
 30
0.0
 11
9.835586210212381
 21
6.192203073039152
 31
0.0
  0
ARC
  5
1CB
330
6C
100
AcDbEntity
  8
Visible (ANSI)
100
AcDbCircle
 10
9.835586210212381
 20
6.106703073039156
 30
0.0
 40
0.0854999999999844
100
AcDbArc
 50
270.0
 51
90.0
  0
LINE
  5
1CC
330
6C
100
AcDbEntity
  8
Visible (ANSI)
100
AcDbLine
 10
9.835586210212381
 20
6.021203073039161
 30
0.0
 11
9.756586210212372
 21
6.021203073039137
 31
0.0
  0
ARC
  5
1CD
330
6C
100
AcDbEntity
  8
Visible (ANSI)
100
AcDbCircle
 10
9.140086210212393
 20
3.856703073039154
 30
0.0
 40
0.1249999999999778
100
AcDbArc
 50
0.0
 51
7.012133345802691
  0
LINE
  5
1CE
330
6C
100
AcDbEntity
  8
Visible (ANSI)
100
AcDbLine
 10
9.26508621021237
 20
3.560748594253024
 30
0.0
 11
9.26508621021237
 21
3.856703073039154
 31
0.0
  0
ARC
  5
1CF
330
6C
100
AcDbEntity
  8
Visible (ANSI)
100
AcDbCircle
 10
9.015086210212361
 20
3.560748594253026
 30
0.0
 40
0.2500000000000084
100
AcDbArc
 50
355.0000000000001
 51
0.0
  0
LINE
  5
1D0
330
6C
100
AcDbEntity
  8
Visible (ANSI)
100
AcDbLine
 10
9.217287535689433
 20
3.003492008726067
 30
0.0
 11
9.264134884735305
 21
3.53895965856611
 31
0.0
  0
ARC
  5
1D1
330
6C
100
AcDbEntity
  8
Visible (ANSI)
100
AcDbCircle
 10
9.466336210212359
 20
2.981703073039021
 30
0.0
 40
0.2500000000000011
100
AcDbArc
 50
174.9999999999697
 51
180.0
  0
LINE
  5
1D2
330
6C
100
AcDbEntity
  8
Visible (ANSI)
100
AcDbLine
 10
9.216336210212375
 20
2.823734261642241
 30
0.0
 11
9.216336210212357
 21
2.981703073039153
 31
0.0
  0
LINE
  5
1D3
330
6C
100
AcDbEntity
  8
Visible (ANSI)
100
AcDbLine
 10
10.14008621021237
 20
4.32326102278226
 30
0.0
 11
10.14008621021237
 21
2.823734261642241
 31
0.0
  0
ARC
  5
1D4
330
6C
100
AcDbEntity
  8
Visible (ANSI)
100
AcDbCircle
 10
10.14008621021237
 20
4.40876147795143
 30
0.0
 40
0.0855004551691693
100
AcDbArc
 50
180.0
 51
270.0
  0
LINE
  5
1D5
330
6C
100
AcDbEntity
  8
Visible (ANSI)
100
AcDbLine
 10
10.0545857550432
 20
4.458702573511263
 30
0.0
 11
10.0545857550432
 21
4.408761477951431
 31
0.0
  0
ARC
  5
1D6
330
6C
100
AcDbEntity
  8
Visible (ANSI)
100
AcDbCircle
 10
10.14008621021237
 20
4.458702573511263
 30
0.0
 40
0.0855004551691693
100
AcDbArc
 50
90.00000000004028
 51
180.0
  0
LINE
  5
1D7
330
6C
100
AcDbEntity
  8
Visible (ANSI)
100
AcDbLine
 10
10.14008621021231
 20
8.593518134684373
 30
0.0
 11
10.14008621021231
 21
4.544203028680432
 31
0.0
  0
ARC
  5
1D8
330
6C
100
AcDbEntity
  8
Visible (ANSI)
100
AcDbCircle
 10
10.14008621021231
 20
8.781018134684373
 30
0.0
 40
0.1875000000000001
100
AcDbArc
 50
90.0
 51
270.0
  0
LINE
  5
1D9
330
6C
100
AcDbEntity
  8
Visible (ANSI)
100
AcDbLine
 10
10.14008621021231
 20
9.499772710535685
 30
0.0
 11
10.14008621021231
 21
8.968518134684373
 31
0.0
  0
LINE
  5
1DA
330
6C
100
AcDbEntity
  8
Visible (ANSI)
100
AcDbLine
 10
9.908155847708904
 20
9.731703073039152
 30
0.0
 11
10.14008621021231
 21
9.499772710535685
 31
0.0
  0
LINE
  5
1DB
330
6C
100
AcDbEntity
  8
Visible (ANSI)
100
AcDbLine
 10
9.433070742777905
 20
9.731703073039152
 30
0.0
 11
9.908155847708904
 21
9.731703073039152
 31
0.0
  0
LINE
  5
1DC
330
6C
100
AcDbEntity
  8
Visible (ANSI)
100
AcDbLine
 10
10.14008621021237
 20
2.130083316531952
 30
0.0
 11
9.60933621021237
 21
1.754786392417192
 31
0.0
  0
LINE
  5
1DD
330
6C
100
AcDbEntity
  8
Visible (ANSI)
100
AcDbLine
 10
9.60933621021237
 20
1.754786392417192
 30
0.0
 11
9.256834748211566
 21
1.754786392417192
 31
0.0
  0
ELLIPSE
  5
1DE
330
6C
100
AcDbEntity
  8
Visible (ANSI)
100
AcDbEllipse
 10
9.171336210212372
 20
1.754432839026599
 30
0.0
 11
0.0854999999999983
 21
-0.0000000000000002
 31
0.0
210
0.0
220
0.0
230
1.0
 40
0.7071067811865476
 41
0.0058479865488084
 42
1.017368042251907
  0
ELLIPSE
  5
1DF
330
6C
100
AcDbEntity
  8
Visible (ANSI)
100
AcDbEllipse
 10
9.171336210212372
 20
1.754432839026598
 30
0.0
 11
-0.0855000000000006
 21
-0.0000000000000002
 31
0.0
210
0.0
220
0.0
230
1.0
 40
0.7071067811865446
 41
4.795063415280254
 42
5.974198515998638
  0
LINE
  5
1E0
330
6C
100
AcDbEntity
  8
Visible (ANSI)
100
AcDbLine
 10
9.112275595737171
 20
1.268296926960847
 30
0.0
 11
7.667896824687573
 21
1.268296926960847
 31
0.0
  0
ELLIPSE
  5
1E1
330
6C
100
AcDbEntity
  8
Visible (ANSI)
100
AcDbEllipse
 10
7.608836210212372
 20
1.754432839026599
 30
0.0
 11
0.0855
 21
-0.0000000000000002
 31
0.0
210
0.0
220
0.0
230
1.0
 40
0.7071067811865472
 41
0.3089867911809347
 42
1.488121891899313
  0
ELLIPSE
  5
1E2
330
6C
100
AcDbEntity
  8
Visible (ANSI)
100
AcDbEllipse
 10
7.608836210212372
 20
1.754432839026598
 30
0.0
 11
-0.085500000000001
 21
0.0
 31
0.0
210
0.0
220
0.0
230
0.9999999999999998
 40
0.7071067811865478
 41
5.265817264927679
 42
6.277337320630769
  0
LINE
  5
1E3
330
6C
100
AcDbEntity
  8
Visible (ANSI)
100
AcDbLine
 10
7.523337672213175
 20
1.754786392417192
 30
0.0
 11
7.170836210212372
 21
1.754786392417192
 31
0.0
  0
LINE
  5
1E4
330
6C
100
AcDbEntity
  8
Visible (ANSI)
100
AcDbLine
 10
7.170836210212372
 20
1.754786392417192
 30
0.0
 11
6.640086210212372
 21
2.130083316531952
 31
0.0
  0
ELLIPSE
  5
1E5
330
6C
100
AcDbEntity
  8
Visible (ANSI)
100
AcDbEllipse
 10
8.390086210212372
 20
1.533461969905802
 30
0.0
 11
0.0855
 21
-0.0000000000000001
 31
0.0
210
0.0
220
0.0
230
1.0
 40
0.7071067811865461
 41
0.3089867911809367
 42
2.832605862408853
  0
LINE
  5
1E6
330
6C
100
AcDbEntity
  8
Visible (ANSI)
100
AcDbLine
 10
10.14008621021237
 20
2.786964709020541
 30
0.0
 11
10.14008621021237
 21
2.166852869153653
 31
0.0
  0
LINE
  5
1E7
330
6C
100
AcDbEntity
  8
Visible (ANSI)
100
AcDbLine
 10
10.14008621021237
 20
2.130083316531952
 30
0.0
 11
10.14008621021237
 21
2.166852869153653
 31
0.0
  0
LINE
  5
1E8
330
6C
100
AcDbEntity
  8
Visible (ANSI)
100
AcDbLine
 10
9.112275595737171
 20
1.305066479582547
 30
0.0
 11
7.667896824687573
 21
1.305066479582547
 31
0.0
  0
LINE
  5
1E9
330
6C
100
AcDbEntity
  8
Visible Narrow (ANSI)
100
AcDbLine
 10
7.667896824687573
 20
1.305066479582547
 30
0.0
 11
7.667896824687573
 21
1.268296926960847
 31
0.0
  0
LINE
  5
1EA
330
6C
100
AcDbEntity
  8
Visible Narrow (ANSI)
100
AcDbLine
 10
7.563896824687573
 20
1.341836032204248
 30
0.0
 11
7.615896824687572
 21
1.341836032204248
 31
0.0
  0
LINE
  5
1EB
330
6C
100
AcDbEntity
  8
Visible Narrow (ANSI)
100
AcDbLine
 10
7.667896824687573
 20
1.747486869131625
 30
0.0
 11
7.667896824687573
 21
1.305066479582547
 31
0.0
  0
ELLIPSE
  5
1EC
330
6C
100
AcDbEntity
  8
Visible (ANSI)
100
AcDbEllipse
 10
7.608836210212372
 20
1.791202391648299
 30
0.0
 11
0.0855000000000001
 21
0.0000000000000001
 31
0.0
210
0.0
220
0.0
230
1.0
 40
0.7071067811865469
 41
5.474938822285903
 42
7.771307199078897
  0
ELLIPSE
  5
1ED
330
6C
100
AcDbEntity
  8
Visible (ANSI)
100
AcDbEllipse
 10
7.608836210212372
 20
1.791202391648299
 30
0.0
 11
-0.085500000000001
 21
0.0
 31
0.0
210
0.0
220
0.0
230
0.9999999999999998
 40
0.7071067811865478
 41
5.265817264927679
 42
6.277337320630769
  0
LINE
  5
1EE
330
6C
100
AcDbEntity
  8
Visible (ANSI)
100
AcDbLine
 10
7.523337672213175
 20
1.754786392417192
 30
0.0
 11
7.523337672213175
 21
1.791555945038892
 31
0.0
  0
ELLIPSE
  5
1EF
330
6C
100
AcDbEntity
  8
Visible (ANSI)
100
AcDbEllipse
 10
8.390086210212372
 20
1.570231522527503
 30
0.0
 11
0.0855
 21
0.0
 31
0.0
210
0.0
220
0.0
230
1.0
 40
0.7071067811865474
 41
0.0
 42
6.283185307179586
  0
LINE
  5
1F0
330
6C
100
AcDbEntity
  8
Visible (ANSI)
100
AcDbLine
 10
7.563836210212384
 20
2.786964709020541
 30
0.0
 11
7.563836210212384
 21
2.763474215779802
 31
0.0
  0
ELLIPSE
  5
1F1
330
6C
100
AcDbEntity
  8
Visible (ANSI)
100
AcDbEllipse
 10
7.688836210212383
 20
2.763474215779802
 30
0.0
 11
-0.125
 21
0.0
 31
0.0
210
0.0
220
0.0
230
1.0
 40
0.7071067811865475
 41
0.0
 42
1.570796326794672
  0
LINE
  5
1F2
330
6C
100
AcDbEntity
  8
Visible (ANSI)
100
AcDbLine
 10
7.688836210212356
 20
2.675085868131483
 30
0.0
 11
9.091336210212388
 21
2.675085868131483
 31
0.0
  0
ELLIPSE
  5
1F3
330
6C
100
AcDbEntity
  8
Visible (ANSI)
100
AcDbEllipse
 10
9.091336210212388
 20
2.763474215779802
 30
0.0
 11
0.125
 21
0.0
 31
0.0
210
0.0
220
0.0
230
1.0
 40
0.7071067811865472
 41
4.712388980384689
 42
6.283185307179586
  0
LINE
  5
1F4
330
6C
100
AcDbEntity
  8
Visible (ANSI)
100
AcDbLine
 10
9.216336210212388
 20
2.763474215779802
 30
0.0
 11
9.216336210212382
 21
2.786964709020541
 31
0.0
  0
LINE
  5
1F5
330
6C
100
AcDbEntity
  8
Visible (ANSI)
100
AcDbLine
 10
10.14008621021237
 20
2.166852869153653
 30
0.0
 11
9.60933621021237
 21
1.791555945038892
 31
0.0
  0
LINE
  5
1F6
330
6C
100
AcDbEntity
  8
Visible (ANSI)
100
AcDbLine
 10
9.60933621021237
 20
1.754786392417192
 30
0.0
 11
9.60933621021237
 21
1.791555945038892
 31
0.0
  0
LINE
  5
1F7
330
6C
100
AcDbEntity
  8
Visible (ANSI)
100
AcDbLine
 10
9.60933621021237
 20
1.791555945038892
 30
0.0
 11
9.256834748211566
 21
1.791555945038892
 31
0.0
  0
LINE
  5
1F8
330
6C
100
AcDbEntity
  8
Visible (ANSI)
100
AcDbLine
 10
9.256834748211566
 20
1.754786392417192
 30
0.0
 11
9.256834748211566
 21
1.791555945038892
 31
0.0
  0
ELLIPSE
  5
1F9
330
6C
100
AcDbEntity
  8
Visible (ANSI)
100
AcDbEllipse
 10
9.171336210212372
 20
1.791202391648299
 30
0.0
 11
0.085499999999999
 21
0.0000000000000002
 31
0.0
210
0.0
220
0.0
230
1.0
 40
0.7071067811865476
 41
0.0058479865488085
 42
1.017368042251893
  0
ELLIPSE
  5
1FA
330
6C
100
AcDbEntity
  8
Visible (ANSI)
100
AcDbEllipse
 10
9.17133621021237
 20
1.791202391648299
 30
0.0
 11
-0.0854999999999999
 21
0.0
 31
0.0
210
0.0
220
0.0
230
1.0
 40
0.7071067811865465
 41
4.795063415280257
 42
7.091431792073287
  0
LINE
  5
1FB
330
6C
100
AcDbEntity
  8
Visible (ANSI)
100
AcDbLine
 10
7.523337672213175
 20
1.791555945038892
 30
0.0
 11
7.170836210212372
 21
1.791555945038892
 31
0.0
  0
LINE
  5
1FC
330
6C
100
AcDbEntity
  8
Visible (ANSI)
100
AcDbLine
 10
7.170836210212372
 20
1.754786392417192
 30
0.0
 11
7.170836210212372
 21
1.791555945038892
 31
0.0
  0
LINE
  5
1FD
330
6C
100
AcDbEntity
  8
Visible (ANSI)
100
AcDbLine
 10
7.170836210212372
 20
1.791555945038892
 30
0.0
 11
6.640086210212372
 21
2.166852869153653
 31
0.0
  0
LINE
  5
1FE
330
6C
100
AcDbEntity
  8
Visible (ANSI)
100
AcDbLine
 10
6.640086210212372
 20
2.130083316531952
 30
0.0
 11
6.640086210212372
 21
2.166852869153653
 31
0.0
  0
LINE
  5
1FF
330
6C
100
AcDbEntity
  8
Visible (ANSI)
100
AcDbLine
 10
6.640086210212372
 20
2.166852869153653
 30
0.0
 11
6.640086210212372
 21
2.786964709020541
 31
0.0
  0
LINE
  5
200
330
6C
100
AcDbEntity
  8
Visible (ANSI)
100
AcDbLine
 10
7.563896824687573
 20
2.095922553433249
 30
0.0
 11
7.615896824687572
 21
2.095922553433249
 31
0.0
  0
LINE
  5
201
330
6C
100
AcDbEntity
  8
Visible (ANSI)
100
AcDbLine
 10
7.615896824687572
 20
1.786563336664134
 30
0.0
 11
7.615896824687572
 21
2.095922553433249
 31
0.0
  0
LINE
  5
202
330
6C
100
AcDbEntity
  8
Visible (ANSI)
100
AcDbLine
 10
7.563896824687573
 20
1.786563336664134
 30
0.0
 11
7.563896824687573
 21
2.095922553433249
 31
0.0
  0
LINE
  5
203
330
6C
100
AcDbEntity
  8
Visible (ANSI)
100
AcDbLine
 10
7.563896824687573
 20
1.786563336664134
 30
0.0
 11
7.615896824687572
 21
1.786563336664134
 31
0.0
  0
LINE
  5
204
330
6C
100
AcDbEntity
  8
Visible (ANSI)
100
AcDbLine
 10
7.615896824687572
 20
1.609786641367497
 30
0.0
 11
7.615896824687572
 21
1.786563336664134
 31
0.0
  0
LINE
  5
205
330
6C
100
AcDbEntity
  8
Visible (ANSI)
100
AcDbLine
 10
7.563896824687573
 20
1.609786641367497
 30
0.0
 11
7.563896824687573
 21
1.786563336664134
 31
0.0
  0
LINE
  5
206
330
6C
100
AcDbEntity
  8
Visible (ANSI)
100
AcDbLine
 10
7.563896824687573
 20
1.609786641367497
 30
0.0
 11
7.615896824687572
 21
1.609786641367497
 31
0.0
  0
LINE
  5
207
330
6C
100
AcDbEntity
  8
Visible (ANSI)
100
AcDbLine
 10
7.615896824687572
 20
1.341836032204248
 30
0.0
 11
7.615896824687572
 21
1.609786641367497
 31
0.0
  0
LINE
  5
208
330
6C
100
AcDbEntity
  8
Visible (ANSI)
100
AcDbLine
 10
7.563896824687573
 20
1.341836032204248
 30
0.0
 11
7.563896824687573
 21
1.609786641367497
 31
0.0
  0
LINE
  5
209
330
6C
100
AcDbEntity
  8
Visible (ANSI)
100
AcDbLine
 10
9.164275595737171
 20
1.786563336664133
 30
0.0
 11
9.164275595737171
 21
1.609786641367496
 31
0.0
  0
LINE
  5
20A
330
6C
100
AcDbEntity
  8
Visible (ANSI)
100
AcDbLine
 10
9.216275595737171
 20
1.609786641367496
 30
0.0
 11
9.164275595737171
 21
1.609786641367496
 31
0.0
  0
LINE
  5
20B
330
6C
100
AcDbEntity
  8
Visible (ANSI)
100
AcDbLine
 10
9.216275595737171
 20
1.786563336664133
 30
0.0
 11
9.216275595737171
 21
1.609786641367496
 31
0.0
  0
LINE
  5
20C
330
6C
100
AcDbEntity
  8
Visible (ANSI)
100
AcDbLine
 10
9.216275595737171
 20
1.786563336664133
 30
0.0
 11
9.164275595737171
 21
1.786563336664133
 31
0.0
  0
LINE
  5
20D
330
6C
100
AcDbEntity
  8
Visible (ANSI)
100
AcDbLine
 10
9.164275595737171
 20
2.095922553433247
 30
0.0
 11
9.164275595737171
 21
1.786563336664133
 31
0.0
  0
LINE
  5
20E
330
6C
100
AcDbEntity
  8
Visible (ANSI)
100
AcDbLine
 10
9.216275595737171
 20
2.095922553433247
 30
0.0
 11
9.216275595737171
 21
1.786563336664133
 31
0.0
  0
LINE
  5
20F
330
6C
100
AcDbEntity
  8
Visible (ANSI)
100
AcDbLine
 10
9.216275595737171
 20
2.095922553433247
 30
0.0
 11
9.164275595737171
 21
2.095922553433247
 31
0.0
  0
LINE
  5
210
330
6C
100
AcDbEntity
  8
Visible (ANSI)
100
AcDbLine
 10
9.216275595737171
 20
1.609786641367496
 30
0.0
 11
9.216275595737171
 21
1.341836032204248
 31
0.0
  0
LINE
  5
211
330
6C
100
AcDbEntity
  8
Visible (ANSI)
100
AcDbLine
 10
9.164275595737171
 20
1.609786641367496
 30
0.0
 11
9.164275595737171
 21
1.341836032204248
 31
0.0
  0
LINE
  5
212
330
6C
100
AcDbEntity
  8
Visible (ANSI)
100
AcDbLine
 10
7.606235771861337
 20
9.15610941813183
 30
0.0
 11
7.554235771861336
 21
9.15610941813183
 31
0.0
  0
LINE
  5
213
330
6C
100
AcDbEntity
  8
Visible (ANSI)
100
AcDbLine
 10
7.606235771861337
 20
8.938663782328024
 30
0.0
 11
7.554235771861336
 21
8.938663782328024
 31
0.0
  0
LINE
  5
214
330
6C
100
AcDbEntity
  8
Visible Narrow (ANSI)
100
AcDbLine
 10
7.606235771861337
 20
8.682403073039154
 30
0.0
 11
7.554235771861337
 21
8.682403073039154
 31
0.0
  0
LINE
  5
215
330
6C
100
AcDbEntity
  8
Visible Narrow (ANSI)
100
AcDbLine
 10
7.606235771861337
 20
8.321120229144231
 30
0.0
 11
7.554235771861337
 21
8.321120229144231
 31
0.0
  0
LINE
  5
216
330
6C
100
AcDbEntity
  8
Visible Narrow (ANSI)
100
AcDbLine
 10
7.606235771861337
 20
8.269217910751677
 30
0.0
 11
7.554235771861336
 21
8.269217910751677
 31
0.0
  0
LINE
  5
217
330
6C
100
AcDbEntity
  8
Visible Narrow (ANSI)
100
AcDbLine
 10
7.606235771861337
 20
7.906003073039342
 30
0.0
 11
7.554235771861336
 21
7.906003073039342
 31
0.0
  0
LINE
  5
218
330
6C
100
AcDbEntity
  8
Visible Narrow (ANSI)
100
AcDbLine
 10
7.606235771861337
 20
7.557403073039343
 30
0.0
 11
7.554235771861336
 21
7.557403073039343
 31
0.0
  0
LINE
  5
219
330
6C
100
AcDbEntity
  8
Visible Narrow (ANSI)
100
AcDbLine
 10
7.606235771861337
 20
7.19418823532662
 30
0.0
 11
7.554235771861337
 21
7.19418823532662
 31
0.0
  0
LINE
  5
21A
330
6C
100
AcDbEntity
  8
Visible Narrow (ANSI)
100
AcDbLine
 10
7.606235771861337
 20
7.142285916934068
 30
0.0
 11
7.554235771861337
 21
7.142285916934068
 31
0.0
  0
LINE
  5
21B
330
6C
100
AcDbEntity
  8
Visible Narrow (ANSI)
100
AcDbLine
 10
7.606235771861337
 20
6.781003073039153
 30
0.0
 11
7.554235771861337
 21
6.781003073039153
 31
0.0
  0
LINE
  5
21C
330
6C
100
AcDbEntity
  8
Visible Narrow (ANSI)
100
AcDbLine
 10
7.606235771861337
 20
6.682403073039153
 30
0.0
 11
7.554235771861337
 21
6.682403073039153
 31
0.0
  0
LINE
  5
21D
330
6C
100
AcDbEntity
  8
Visible Narrow (ANSI)
100
AcDbLine
 10
7.606235771861337
 20
6.321120229144255
 30
0.0
 11
7.554235771861337
 21
6.321120229144255
 31
0.0
  0
LINE
  5
21E
330
6C
100
AcDbEntity
  8
Visible Narrow (ANSI)
100
AcDbLine
 10
7.606235771861337
 20
6.269217910751674
 30
0.0
 11
7.554235771861337
 21
6.269217910751674
 31
0.0
  0
LINE
  5
21F
330
6C
100
AcDbEntity
  8
Visible Narrow (ANSI)
100
AcDbLine
 10
7.606235771861337
 20
5.906003073039153
 30
0.0
 11
7.554235771861337
 21
5.906003073039153
 31
0.0
  0
LINE
  5
220
330
6C
100
AcDbEntity
  8
Visible Narrow (ANSI)
100
AcDbLine
 10
7.606235771861337
 20
5.807403073039153
 30
0.0
 11
7.554235771861337
 21
5.807403073039153
 31
0.0
  0
LINE
  5
221
330
6C
100
AcDbEntity
  8
Visible Narrow (ANSI)
100
AcDbLine
 10
7.606235771861337
 20
5.443946092080855
 30
0.0
 11
7.554235771861337
 21
5.443946092080855
 31
0.0
  0
LINE
  5
222
330
6C
100
AcDbEntity
  8
Visible Narrow (ANSI)
100
AcDbLine
 10
7.606235771861337
 20
5.393010092616869
 30
0.0
 11
7.554235771861337
 21
5.393010092616869
 31
0.0
  0
LINE
  5
223
330
6C
100
AcDbEntity
  8
Visible Narrow (ANSI)
100
AcDbLine
 10
7.606235771861337
 20
5.0310030730391
 30
0.0
 11
7.554235771861337
 21
5.0310030730391
 31
0.0
  0
LINE
  5
224
330
6C
100
AcDbEntity
  8
Visible (ANSI)
100
AcDbLine
 10
7.606235771861337
 20
4.668703073039102
 30
0.0
 11
7.554235771861337
 21
4.668703073039102
 31
0.0
  0
LINE
  5
225
330
6C
100
AcDbEntity
  8
Visible (ANSI)
100
AcDbLine
 10
7.606235771861337
 20
4.544203073039152
 30
0.0
 11
7.554235771861337
 21
4.544203073039152
 31
0.0
  0
LINE
  5
226
330
6C
100
AcDbEntity
  8
Visible Narrow (ANSI)
100
AcDbLine
 10
7.606235771861337
 20
4.517551600311093
 30
0.0
 11
7.554235771861337
 21
4.517551600311093
 31
0.0
  0
LINE
  5
227
330
6C
100
AcDbEntity
  8
Visible Narrow (ANSI)
100
AcDbLine
 10
7.606235771861337
 20
4.008354545767216
 30
0.0
 11
7.554235771861337
 21
4.008354545767216
 31
0.0
  0
LINE
  5
228
330
6C
100
AcDbEntity
  8
Visible (ANSI)
100
AcDbLine
 10
7.606235771861337
 20
3.981703073039142
 30
0.0
 11
7.554235771861337
 21
3.981703073039142
 31
0.0
  0
ELLIPSE
  5
229
330
6C
100
AcDbEntity
  8
Visible (ANSI)
100
AcDbEllipse
 10
7.586470400056977
 20
8.904828073039151
 30
0.0
 11
-0.0000000000000001
 21
0.09
 31
0.0
210
0.0
220
0.0
230
0.9999999999999998
 40
0.732050807568878
 41
0.5112400546955627
 42
0.6710477983059891
  0
LINE
  5
22A
330
6C
100
AcDbEntity
  8
Visible (ANSI)
100
AcDbLine
 10
7.540384480418428
 20
8.994828073039151
 30
0.0
 11
7.554235771861336
 21
8.994828073039151
 31
0.0
  0
LINE
  5
22B
330
6C
100
AcDbEntity
  8
Visible (ANSI)
100
AcDbLine
 10
7.554235771861336
 20
8.975313424128833
 30
0.0
 11
7.545502915985038
 21
8.975313424128833
 31
0.0
  0
LINE
  5
22C
330
6C
100
AcDbEntity
  8
Visible (ANSI)
100
AcDbLine
 10
7.540384480418415
 20
8.468578073039152
 30
0.0
 11
7.554235771861337
 21
8.468578073039152
 31
0.0
  0
ELLIPSE
  5
22D
330
6C
100
AcDbEntity
  8
Visible (ANSI)
100
AcDbEllipse
 10
7.586470400056977
 20
8.558578073039152
 30
0.0
 11
-0.0000000000000001
 21
0.09
 31
0.0
210
0.0
220
0.0
230
0.9999999999999998
 40
0.7320508075688781
 41
2.470544855284089
 42
2.630352598894207
  0
LINE
  5
22E
330
6C
100
AcDbEntity
  8
Visible (ANSI)
100
AcDbLine
 10
7.554235771861337
 20
8.488092721949456
 30
0.0
 11
7.545502915985054
 21
8.488092721949456
 31
0.0
  0
LINE
  5
22F
330
6C
100
AcDbEntity
  8
Visible (ANSI)
100
AcDbLine
 10
7.554235771861337
 20
6.488092721949455
 30
0.0
 11
7.545502915985054
 21
6.488092721949455
 31
0.0
  0
LINE
  5
230
330
6C
100
AcDbEntity
  8
Visible (ANSI)
100
AcDbLine
 10
7.554235771861337
 20
6.975313424128833
 30
0.0
 11
7.545502915985038
 21
6.975313424128833
 31
0.0
  0
ELLIPSE
  5
231
330
6C
100
AcDbEntity
  8
Visible (ANSI)
100
AcDbEllipse
 10
7.586470400056978
 20
6.904828073039152
 30
0.0
 11
-0.0000000000000001
 21
0.09
 31
0.0
210
0.0
220
0.0
230
0.9999999999999998
 40
0.732050807568878
 41
0.5112400546955822
 42
0.6710477983059891
  0
LINE
  5
232
330
6C
100
AcDbEntity
  8
Visible (ANSI)
100
AcDbLine
 10
7.540384480418428
 20
6.994828073039153
 30
0.0
 11
7.554235771861337
 21
6.994828073039153
 31
0.0
  0
LINE
  5
233
330
6C
100
AcDbEntity
  8
Visible (ANSI)
100
AcDbLine
 10
7.540384480418417
 20
6.468578073039153
 30
0.0
 11
7.554235771861337
 21
6.468578073039153
 31
0.0
  0
ELLIPSE
  5
234
330
6C
100
AcDbEntity
  8
Visible (ANSI)
100
AcDbEllipse
 10
7.586470400056978
 20
6.558578073039153
 30
0.0
 11
-0.0000000000000001
 21
0.09
 31
0.0
210
0.0
220
0.0
230
0.9999999999999998
 40
0.7320508075688781
 41
2.470544855284089
 42
2.630352598894205
  0
SPLINE
  5
235
330
6C
100
AcDbEntity
  8
Visible (ANSI)
100
AcDbSpline
210
0.0
220
0.0
230
1.0
 70
     8
 71
     3
 72
    12
 73
     8
 74
     0
 42
0.0000000001
 43
0.0000000001
 40
0.2150237208386158
 40
0.2150237208386158
 40
0.2150237208386158
 40
0.2150237208386158
 40
0.2750881306779166
 40
0.2750881306779166
 40
0.3422257193795584
 40
0.3422257193795584
 40
0.3591123932700056
 40
0.3591123932700056
 40
0.3591123932700056
 40
0.3591123932700056
 10
7.540384480418418
 20
6.468578073039153
 30
0.0
 10
7.537362488490686
 20
6.468578073039153
 30
0.0
 10
7.533139152034403
 20
6.46989749286893
 30
0.0
 10
7.523471936943991
 20
6.474458246112733
 30
0.0
 10
7.517033458251316
 20
6.478258142292431
 30
0.0
 10
7.50812253112238
 20
6.4839136524663
 30
0.0
 10
7.506290625273905
 20
6.485092742002923
 30
0.0
 10
7.504433716914208
 20
6.48629808782675
 30
0.0
  0
SPLINE
  5
236
330
6C
100
AcDbEntity
  8
Visible (ANSI)
100
AcDbSpline
210
0.0
220
0.0
230
1.0
 70
     8
 71
     3
 72
    12
 73
     8
 74
     0
 42
0.0000000001
 43
0.0000000001
 40
2.466043470986133
 40
2.466043470986133
 40
2.466043470986133
 40
2.466043470986133
 40
2.486042468447036
 40
2.486042468447036
 40
2.556409122047475
 40
2.556409122047475
 40
2.610533610399091
 40
2.610533610399091
 40
2.610533610399091
 40
2.610533610399091
 10
7.50443371691424
 20
6.977108058251566
 30
0.0
 10
7.506625451695962
 20
6.978530744703643
 30
0.0
 10
7.508782306111577
 20
6.979916828443106
 30
0.0
 10
7.518256700900465
 20
6.985897258488432
 30
0.0
 10
7.524854271947653
 20
6.989725044487149
 30
0.0
 10
7.533962827583272
 20
6.99376648968897
 30
0.0
 10
7.537623388918615
 20
6.994828073039153
 30
0.0
 10
7.540384480418428
 20
6.994828073039153
 30
0.0
  0
LINE
  5
237
330
6C
100
AcDbEntity
  8
Visible (ANSI)
100
AcDbLine
 10
7.395088926035409
 20
6.827757391556866
 30
0.0
 11
7.437773658209609
 21
6.904828073039152
 31
0.0
  0
ELLIPSE
  5
238
330
6C
100
AcDbEntity
  8
Visible (ANSI)
100
AcDbEllipse
 10
7.464796062908809
 20
6.73170307303902
 30
0.0
 11
0.0
 21
-0.1459999999999999
 31
0.0
210
0.0
220
0.0
230
1.0
 40
0.6339745962155618
 41
3.994353728665634
 42
5.430424232103744
  0
LINE
  5
239
330
6C
100
AcDbEntity
  8
Visible (ANSI)
100
AcDbLine
 10
7.437773658209531
 20
6.558578073039153
 30
0.0
 11
7.395088926035409
 21
6.635648754521173
 31
0.0
  0
LINE
  5
23A
330
6C
100
AcDbEntity
  8
Visible (ANSI)
100
AcDbLine
 10
7.419916125469803
 20
6.669859881664462
 30
0.0
 11
7.481548306549336
 21
6.558578073039153
 31
0.0
  0
LINE
  5
23B
330
6C
100
AcDbEntity
  8
Visible (ANSI)
100
AcDbLine
 10
7.481548306549385
 20
6.904828073039152
 30
0.0
 11
7.419916125469842
 21
6.793546264413651
 31
0.0
  0
ELLIPSE
  5
23C
330
6C
100
AcDbEntity
  8
Visible (ANSI)
100
AcDbEllipse
 10
7.464796062908809
 20
6.73170307303902
 30
0.0
 11
0.0
 21
-0.094
 31
0.0
210
0.0
220
0.0
230
1.0
 40
0.6339745962155617
 41
3.994353728663828
 42
5.430424232104536
  0
ELLIPSE
  5
23D
330
6C
100
AcDbEntity
  8
Visible (ANSI)
100
AcDbEllipse
 10
7.503658230890808
 20
6.904828073039152
 30
0.0
 11
0.0717872913680573
 21
0.0827067049141022
 31
0.0
210
0.0
220
0.0
230
0.9999999999999998
 40
0.4943891428362592
 41
1.043650780137469
 42
1.976148980262994
  0
ELLIPSE
  5
23E
330
6C
100
AcDbEntity
  8
Visible (ANSI)
100
AcDbEllipse
 10
7.503658230890729
 20
6.558578073039153
 30
0.0
 11
0.0717872913681335
 21
-0.0827067049140993
 31
0.0
210
0.0
220
0.0
230
1.0
 40
0.494389142835828
 41
4.307036326916495
 42
5.239534527041806
  0
ELLIPSE
  5
23F
330
6C
100
AcDbEntity
  8
Visible (ANSI)
100
AcDbEllipse
 10
7.547432879230535
 20
6.558578073039153
 30
0.0
 11
0.0717872913681335
 21
-0.0827067049140993
 31
0.0
210
0.0
220
0.0
230
1.0
 40
0.4943891428358281
 41
4.307036326916495
 42
5.206784855405688
  0
ELLIPSE
  5
240
330
6C
100
AcDbEntity
  8
Visible (ANSI)
100
AcDbEllipse
 10
7.547432879230584
 20
6.904828073039152
 30
0.0
 11
0.0717872913680572
 21
0.0827067049141022
 31
0.0
210
0.0
220
0.0
230
1.0
 40
0.4943891428362593
 41
1.076400451773995
 42
1.976148980262994
  0
LINE
  5
241
330
6C
100
AcDbEntity
  8
Visible Narrow (ANSI)
100
AcDbLine
 10
7.437773658209609
 20
6.904828073039152
 30
0.0
 11
7.481548306549385
 21
6.904828073039152
 31
0.0
  0
LINE
  5
242
330
6C
100
AcDbEntity
  8
Visible Narrow (ANSI)
100
AcDbLine
 10
7.481548306549336
 20
6.558578073039153
 30
0.0
 11
7.437773658209531
 21
6.558578073039153
 31
0.0
  0
LINE
  5
243
330
6C
100
AcDbEntity
  8
Visible Narrow (ANSI)
100
AcDbLine
 10
7.419916125469803
 20
6.669859881664462
 30
0.0
 11
7.554235771861337
 21
6.669859881664462
 31
0.0
  0
LINE
  5
244
330
6C
100
AcDbEntity
  8
Visible Narrow (ANSI)
100
AcDbLine
 10
7.419916125469842
 20
6.793546264413651
 30
0.0
 11
7.554235771861337
 21
6.793546264413651
 31
0.0
  0
SPLINE
  5
245
330
6C
100
AcDbEntity
  8
Visible (ANSI)
100
AcDbSpline
210
0.0
220
0.0
230
1.0
 70
     8
 71
     3
 72
    12
 73
     8
 74
     0
 42
0.0000000001
 43
0.0000000001
 40
0.2150359196811855
 40
0.2150359196811855
 40
0.2150359196811855
 40
0.2150359196811855
 40
0.2751313054488051
 40
0.2751313054488051
 40
0.3422840281604419
 40
0.3422840281604419
 40
0.3592374510634986
 40
0.3592374510634986
 40
0.3592374510634986
 40
0.3592374510634986
 10
9.23998211213208
 20
6.119828073039153
 30
0.0
 10
9.243003241482803
 20
6.119828073039154
 30
0.0
 10
9.247226609143535
 20
6.118507398906492
 30
0.0
 10
9.256894067046824
 20
6.113942635102318
 30
0.0
 10
9.263332317822461
 20
6.110140246506579
 30
0.0
 10
9.27225002281165
 20
6.104476912063531
 30
0.0
 10
9.274088950877763
 20
6.103292521854529
 30
0.0
 10
9.275953020411202
 20
6.102081726630783
 30
0.0
  0
SPLINE
  5
246
330
6C
100
AcDbEntity
  8
Visible (ANSI)
100
AcDbSpline
210
0.0
220
0.0
230
1.0
 70
     8
 71
     3
 72
    12
 73
     8
 74
     0
 42
0.0000000001
 43
0.0000000001
 40
2.468104024836119
 40
2.468104024836119
 40
2.468104024836119
 40
2.468104024836119
 40
2.48839877358991
 40
2.48839877358991
 40
2.558831865430656
 40
2.558831865430656
 40
2.613093010733096
 40
2.613093010733096
 40
2.613093010733096
 40
2.613093010733096
 10
9.275953020411202
 20
5.611414454689042
 30
0.0
 10
9.273729797880861
 20
5.609967136444382
 30
0.0
 10
9.271542140056096
 20
5.608557146617824
 30
0.0
 10
9.26203875126372
 20
5.602541836931686
 30
0.0
 10
9.255442658136091
 20
5.598702929977119
 30
0.0
 10
9.246333183294124
 20
5.594644728722196
 30
0.0
 10
9.242671556668037
 20
5.59357807304029
 30
0.0
 10
9.239913086882181
 20
5.593578073039155
 30
0.0
  0
LINE
  5
247
330
6C
100
AcDbEntity
  8
Visible (ANSI)
100
AcDbLine
 10
9.385187309593499
 20
5.760774501920473
 30
0.0
 11
9.342433520186405
 21
5.683578073039154
 31
0.0
  0
ELLIPSE
  5
248
330
6C
100
AcDbEntity
  8
Visible (ANSI)
100
AcDbEllipse
 10
9.276548947505208
 20
5.683578073039154
 30
0.0
 11
-0.0717866343523216
 21
-0.0827067297331839
 31
0.0
210
0.0
220
0.0
230
1.0
 40
0.4943928619663799
 41
1.045816943497804
 42
1.976148280953277
  0
ELLIPSE
  5
249
330
6C
100
AcDbEntity
  8
Visible (ANSI)
100
AcDbEllipse
 10
9.315479758784297
 20
5.856828073039152
 30
0.0
 11
-0.0000000000000011
 21
0.1459999999999999
 31
0.0
210
0.0
220
0.0
230
1.0
 40
0.6339745962155634
 41
3.994360526114205
 42
5.430417434655136
  0
ELLIPSE
  5
24A
330
6C
100
AcDbEntity
  8
Visible (ANSI)
100
AcDbEllipse
 10
9.276687405300556
 20
6.029828073039153
 30
0.0
 11
-0.0717866343523199
 21
0.0827067297331838
 31
0.0
210
0.0
220
0.0
230
0.9999999999999998
 40
0.4943928619663972
 41
4.307037026226311
 42
5.23904435301848
  0
LINE
  5
24B
330
6C
100
AcDbEntity
  8
Visible (ANSI)
100
AcDbLine
 10
9.342571977981757
 20
6.029828073039153
 30
0.0
 11
9.385187309593501
 21
5.952881644157828
 31
0.0
  0
ELLIPSE
  5
24C
330
6C
100
AcDbEntity
  8
Visible (ANSI)
100
AcDbEllipse
 10
9.193875919971477
 20
5.683578073039154
 30
0.0
 11
0.0000000000000005
 21
-0.09
 31
0.0
210
0.0
220
0.0
230
0.9999999999999998
 40
0.7320508075688737
 41
0.5119485474431454
 42
0.6754990000547903
  0
LINE
  5
24D
330
6C
100
AcDbEntity
  8
Visible (ANSI)
100
AcDbLine
 10
9.239913086882181
 20
5.593578073039155
 30
0.0
 11
9.226151250400008
 21
5.593578073039155
 31
0.0
  0
LINE
  5
24E
330
6C
100
AcDbEntity
  8
Visible Narrow (ANSI)
100
AcDbLine
 10
9.342433520186405
 20
5.683578073039154
 30
0.0
 11
9.298659131788259
 21
5.683578073039154
 31
0.0
  0
ELLIPSE
  5
24F
330
6C
100
AcDbEntity
  8
Visible (ANSI)
100
AcDbEllipse
 10
9.23277455910706
 20
5.683578073039154
 30
0.0
 11
-0.0717866343523213
 21
-0.082706729733184
 31
0.0
210
0.0
220
0.0
230
1.0
 40
0.4943928619663813
 41
1.08085095421319
 42
1.976148280953276
  0
LINE
  5
250
330
6C
100
AcDbEntity
  8
Visible (ANSI)
100
AcDbLine
 10
9.226151250400008
 20
5.613342520325504
 30
0.0
 11
9.235072674365028
 21
5.613342520325504
 31
0.0
  0
LINE
  5
251
330
6C
100
AcDbEntity
  8
Visible (ANSI)
100
AcDbLine
 10
9.298659131788259
 20
5.683578073039154
 30
0.0
 11
9.360359962729948
 21
5.794985362866853
 31
0.0
  0
LINE
  5
252
330
6C
100
AcDbEntity
  8
Visible Narrow (ANSI)
100
AcDbLine
 10
9.360359962729948
 20
5.794985362866853
 30
0.0
 11
9.226151250400008
 21
5.794985362866851
 31
0.0
  0
LINE
  5
253
330
6C
100
AcDbEntity
  8
Visible Narrow (ANSI)
100
AcDbLine
 10
9.298797589583609
 20
6.029828073039153
 30
0.0
 11
9.342571977981757
 21
6.029828073039153
 31
0.0
  0
LINE
  5
254
330
6C
100
AcDbEntity
  8
Visible (ANSI)
100
AcDbLine
 10
9.360359962729949
 20
5.91867078321145
 30
0.0
 11
9.298797589583609
 21
6.029828073039153
 31
0.0
  0
ELLIPSE
  5
255
330
6C
100
AcDbEntity
  8
Visible (ANSI)
100
AcDbEllipse
 10
9.315479758784297
 20
5.856828073039152
 30
0.0
 11
-0.0000000000000007
 21
0.094
 31
0.0
210
0.0
220
0.0
230
1.0
 40
0.6339745962155633
 41
3.994360526114176
 42
5.430417434655119
  0
LINE
  5
256
330
6C
100
AcDbEntity
  8
Visible (ANSI)
100
AcDbLine
 10
9.239982112132084
 20
6.119828073039153
 30
0.0
 11
9.226151250400008
 21
6.119828073039153
 31
0.0
  0
ELLIPSE
  5
257
330
6C
100
AcDbEntity
  8
Visible (ANSI)
100
AcDbEllipse
 10
9.193875919971477
 20
6.029828073039153
 30
0.0
 11
0.0
 21
-0.09
 31
0.0
210
0.0
220
0.0
230
0.9999999999999998
 40
0.7320508075688736
 41
2.470548458124696
 42
2.629644106146614
  0
ELLIPSE
  5
258
330
6C
100
AcDbEntity
  8
Visible (ANSI)
100
AcDbEllipse
 10
9.23291301690241
 20
6.029828073039153
 30
0.0
 11
-0.0717866343523198
 21
0.0827067297331838
 31
0.0
210
0.0
220
0.0
230
1.0
 40
0.4943928619663981
 41
4.307037026226319
 42
5.206789157556127
  0
LINE
  5
259
330
6C
100
AcDbEntity
  8
Visible Narrow (ANSI)
100
AcDbLine
 10
9.360359962729949
 20
5.91867078321145
 30
0.0
 11
9.226151250400008
 21
5.918670783211449
 31
0.0
  0
LINE
  5
25A
330
6C
100
AcDbEntity
  8
Visible (ANSI)
100
AcDbLine
 10
9.226151250400008
 20
6.100313625752807
 30
0.0
 11
9.234843218140671
 21
6.100313625752807
 31
0.0
  0
SPLINE
  5
25B
330
6C
100
AcDbEntity
  8
Visible (ANSI)
100
AcDbSpline
210
0.0
220
0.0
230
1.0
 70
     8
 71
     3
 72
    12
 73
     8
 74
     0
 42
0.0000000001
 43
0.0000000001
 40
0.2150359196811853
 40
0.2150359196811853
 40
0.2150359196811853
 40
0.2150359196811853
 40
0.2751313054488036
 40
0.2751313054488036
 40
0.3422840281604408
 40
0.3422840281604408
 40
0.3592374510634964
 40
0.3592374510634964
 40
0.3592374510634964
 40
0.3592374510634964
 10
9.23998211213208
 20
7.869828073039154
 30
0.0
 10
9.243003241482803
 20
7.869828073039154
 30
0.0
 10
9.247226609143535
 20
7.868507398906491
 30
0.0
 10
9.256894067046824
 20
7.863942635102318
 30
0.0
 10
9.263332317822461
 20
7.860140246506579
 30
0.0
 10
9.27225002281165
 20
7.85447691206353
 30
0.0
 10
9.274088950877763
 20
7.853292521854529
 30
0.0
 10
9.275953020411202
 20
7.852081726630784
 30
0.0
  0
SPLINE
  5
25C
330
6C
100
AcDbEntity
  8
Visible (ANSI)
100
AcDbSpline
210
0.0
220
0.0
230
1.0
 70
     8
 71
     3
 72
    12
 73
     8
 74
     0
 42
0.0000000001
 43
0.0000000001
 40
2.468104024836124
 40
2.468104024836124
 40
2.468104024836124
 40
2.468104024836124
 40
2.488398773589913
 40
2.488398773589913
 40
2.558831865430659
 40
2.558831865430659
 40
2.613093010733101
 40
2.613093010733101
 40
2.613093010733101
 40
2.613093010733101
 10
9.275953020411202
 20
7.361414454689042
 30
0.0
 10
9.273729797880861
 20
7.359967136444383
 30
0.0
 10
9.271542140056096
 20
7.358557146617825
 30
0.0
 10
9.26203875126372
 20
7.352541836931687
 30
0.0
 10
9.255442658136091
 20
7.348702929977119
 30
0.0
 10
9.246333183294124
 20
7.344644728722196
 30
0.0
 10
9.242671556668037
 20
7.34357807304029
 30
0.0
 10
9.239913086882181
 20
7.343578073039155
 30
0.0
  0
LINE
  5
25D
330
6C
100
AcDbEntity
  8
Visible (ANSI)
100
AcDbLine
 10
9.385187309593499
 20
7.510774501920473
 30
0.0
 11
9.342433520186405
 21
7.433578073039154
 31
0.0
  0
ELLIPSE
  5
25E
330
6C
100
AcDbEntity
  8
Visible (ANSI)
100
AcDbEllipse
 10
9.315479758784297
 20
7.606828073039152
 30
0.0
 11
-0.0000000000000011
 21
0.1459999999999999
 31
0.0
210
0.0
220
0.0
230
1.0
 40
0.6339745962155634
 41
3.994360526114198
 42
5.430417434655132
  0
LINE
  5
25F
330
6C
100
AcDbEntity
  8
Visible (ANSI)
100
AcDbLine
 10
9.342571977981755
 20
7.779828073039154
 30
0.0
 11
9.385187309593501
 21
7.702881644157828
 31
0.0
  0
LINE
  5
260
330
6C
100
AcDbEntity
  8
Visible (ANSI)
100
AcDbLine
 10
9.360359962729948
 20
7.66867078321145
 30
0.0
 11
9.298797589583609
 21
7.779828073039154
 31
0.0
  0
LINE
  5
261
330
6C
100
AcDbEntity
  8
Visible (ANSI)
100
AcDbLine
 10
9.298659131788259
 20
7.433578073039154
 30
0.0
 11
9.360359962729948
 21
7.544985362866853
 31
0.0
  0
ELLIPSE
  5
262
330
6C
100
AcDbEntity
  8
Visible (ANSI)
100
AcDbEllipse
 10
9.315479758784297
 20
7.606828073039152
 30
0.0
 11
-0.0000000000000007
 21
0.094
 31
0.0
210
0.0
220
0.0
230
1.0
 40
0.6339745962155633
 41
3.994360526114171
 42
5.430417434655113
  0
ELLIPSE
  5
263
330
6C
100
AcDbEntity
  8
Visible (ANSI)
100
AcDbEllipse
 10
9.276548947505208
 20
7.433578073039154
 30
0.0
 11
-0.0717866343523216
 21
-0.0827067297331839
 31
0.0
210
0.0
220
0.0
230
1.0
 40
0.4943928619663799
 41
1.045816943497821
 42
1.976148280953277
  0
ELLIPSE
  5
264
330
6C
100
AcDbEntity
  8
Visible (ANSI)
100
AcDbEllipse
 10
9.276687405300556
 20
7.779828073039154
 30
0.0
 11
-0.0717866343523199
 21
0.0827067297331838
 31
0.0
210
0.0
220
0.0
230
0.9999999999999998
 40
0.4943928619663972
 41
4.307037026226304
 42
5.23904435301848
  0
ELLIPSE
  5
265
330
6C
100
AcDbEntity
  8
Visible (ANSI)
100
AcDbEllipse
 10
9.23291301690241
 20
7.779828073039154
 30
0.0
 11
-0.0717866343523198
 21
0.0827067297331838
 31
0.0
210
0.0
220
0.0
230
1.0
 40
0.4943928619663981
 41
4.307037026226304
 42
5.206789157556128
  0
ELLIPSE
  5
266
330
6C
100
AcDbEntity
  8
Visible (ANSI)
100
AcDbEllipse
 10
9.23277455910706
 20
7.433578073039154
 30
0.0
 11
-0.0717866343523213
 21
-0.082706729733184
 31
0.0
210
0.0
220
0.0
230
1.0
 40
0.4943928619663813
 41
1.080850954213189
 42
1.976148280953276
  0
ELLIPSE
  5
267
330
6C
100
AcDbEntity
  8
Visible (ANSI)
100
AcDbEllipse
 10
9.193875919971477
 20
7.433578073039154
 30
0.0
 11
0.0000000000000005
 21
-0.09
 31
0.0
210
0.0
220
0.0
230
0.9999999999999998
 40
0.7320508075688737
 41
0.5119485474431685
 42
0.6754990000547903
  0
LINE
  5
268
330
6C
100
AcDbEntity
  8
Visible (ANSI)
100
AcDbLine
 10
9.239913086882181
 20
7.343578073039155
 30
0.0
 11
9.226151250400008
 21
7.343578073039155
 31
0.0
  0
LINE
  5
269
330
6C
100
AcDbEntity
  8
Visible Narrow (ANSI)
100
AcDbLine
 10
9.342433520186405
 20
7.433578073039154
 30
0.0
 11
9.298659131788259
 21
7.433578073039154
 31
0.0
  0
LINE
  5
26A
330
6C
100
AcDbEntity
  8
Visible Narrow (ANSI)
100
AcDbLine
 10
9.298797589583609
 20
7.779828073039154
 30
0.0
 11
9.342571977981755
 21
7.779828073039154
 31
0.0
  0
LINE
  5
26B
330
6C
100
AcDbEntity
  8
Visible (ANSI)
100
AcDbLine
 10
9.239982112132084
 20
7.869828073039154
 30
0.0
 11
9.226151250400006
 21
7.869828073039154
 31
0.0
  0
ELLIPSE
  5
26C
330
6C
100
AcDbEntity
  8
Visible (ANSI)
100
AcDbEllipse
 10
9.193875919971475
 20
7.779828073039154
 30
0.0
 11
0.0
 21
-0.09
 31
0.0
210
0.0
220
0.0
230
0.9999999999999998
 40
0.7320508075688736
 41
2.470548458124696
 42
2.629644106146608
  0
LINE
  5
26D
330
6C
100
AcDbEntity
  8
Visible Narrow (ANSI)
100
AcDbLine
 10
9.360359962729948
 20
7.66867078321145
 30
0.0
 11
9.226151250400008
 21
7.668670783211448
 31
0.0
  0
LINE
  5
26E
330
6C
100
AcDbEntity
  8
Visible Narrow (ANSI)
100
AcDbLine
 10
9.360359962729948
 20
7.544985362866853
 30
0.0
 11
9.226151250400008
 21
7.54498536286685
 31
0.0
  0
LINE
  5
26F
330
6C
100
AcDbEntity
  8
Visible (ANSI)
100
AcDbLine
 10
9.226151250400006
 20
7.850313625752808
 30
0.0
 11
9.234843218140671
 21
7.850313625752808
 31
0.0
  0
LINE
  5
270
330
6C
100
AcDbEntity
  8
Visible (ANSI)
100
AcDbLine
 10
9.226151250400008
 20
7.363342520325504
 30
0.0
 11
9.235072674365028
 21
7.363342520325504
 31
0.0
  0
SPLINE
  5
271
330
6C
100
AcDbEntity
  8
Visible (ANSI)
100
AcDbSpline
210
0.0
220
0.0
230
1.0
 70
     8
 71
     3
 72
    10
 73
     6
 74
     0
 42
0.0000000001
 43
0.0000000001
 40
0.0
 40
0.0
 40
0.0
 40
0.0
 40
0.063294475169348
 40
0.063294475169348
 40
0.1013225842516109
 40
0.1013225842516109
 40
0.1013225842516109
 40
0.1013225842516109
 10
7.590620994415524
 20
9.356703073039152
 30
0.0
 10
7.593467298293801
 20
9.350132429842604
 30
0.0
 10
7.598364085121568
 20
9.338884299669953
 30
0.0
 10
7.604187826886824
 20
9.318727566285005
 30
0.0
 10
7.606235771861337
 20
9.309713985544423
 30
0.0
 10
7.606235771861337
 20
9.299805563760804
 30
0.0
  0
LINE
  5
272
330
6C
100
AcDbEntity
  8
Visible (ANSI)
100
AcDbLine
 10
7.547543724384559
 20
9.356703073039152
 30
0.0
 11
7.590620994415524
 21
9.356703073039152
 31
0.0
  0
SPLINE
  5
273
330
6C
100
AcDbEntity
  8
Visible (ANSI)
100
AcDbSpline
210
0.0
220
0.0
230
1.0
 70
     8
 71
     3
 72
    10
 73
     6
 74
     0
 42
0.0000000001
 43
0.0000000001
 40
0.0
 40
0.0
 40
0.0
 40
0.0
 40
0.0747173843788453
 40
0.0747173843788453
 40
0.1355437212594887
 40
0.1355437212594887
 40
0.1355437212594887
 40
0.1355437212594887
 10
7.554235771861336
 20
9.299805563760804
 30
0.0
 10
7.554235771861336
 20
9.308599372425069
 30
0.0
 10
7.553524173833781
 20
9.317386206395376
 30
0.0
 10
7.551523522607823
 20
9.33354341056178
 30
0.0
 10
7.550065610444296
 20
9.34310843738914
 30
0.0
 10
7.547543724384559
 20
9.356703073039152
 30
0.0
  0
SPLINE
  5
274
330
6C
100
AcDbEntity
  8
Visible (ANSI)
100
AcDbSpline
210
0.0
220
0.0
230
1.0
 70
     8
 71
     3
 72
    18
 73
    14
 74
     0
 42
0.0000000001
 43
0.0000000001
 40
0.0
 40
0.0
 40
0.0
 40
0.0
 40
0.0881869190644331
 40
0.0881869190644331
 40
0.1801127479292162
 40
0.1801127479292162
 40
0.2806248460123185
 40
0.2806248460123185
 40
0.3811281995640835
 40
0.3811281995640835
 40
0.4389668742848999
 40
0.4389668742848999
 40
0.529432663065458
 40
0.529432663065458
 40
0.529432663065458
 40
0.529432663065458
 10
7.606235771861337
 20
3.978606730657045
 30
0.0
 10
7.606235771861337
 20
3.97683412275735
 30
0.0
 10
7.60408073732847
 20
3.974357549495787
 30
0.0
 10
7.595929969949864
 20
3.967578309044973
 30
0.0
 10
7.589888042384472
 20
3.963306641725381
 30
0.0
 10
7.574693514410687
 20
3.952187754778416
 30
0.0
 10
7.565595950194415
 20
3.945351353528764
 30
0.0
 10
7.547371550496751
 20
3.928789051016503
 30
0.0
 10
7.538645599246229
 20
3.91940788303507
 30
0.0
 10
7.527351847082351
 20
3.902279672921554
 30
0.0
 10
7.523822838544818
 20
3.895634408576495
 30
0.0
 10
7.516846189854846
 20
3.877628344618533
 30
0.0
 10
7.515645787506959
 20
3.868504753467564
 30
0.0
 10
7.515235771861338
 20
3.862816013702587
 30
0.0
  0
SPLINE
  5
275
330
6C
100
AcDbEntity
  8
Visible (ANSI)
100
AcDbSpline
210
0.0
220
0.0
230
1.0
 70
     8
 71
     3
 72
    20
 73
    16
 74
     0
 42
0.0000000001
 43
0.0000000001
 40
0.0
 40
0.0
 40
0.0
 40
0.0
 40
0.0828978750232237
 40
0.0828978750232237
 40
0.144347226979251
 40
0.144347226979251
 40
0.1972601260403557
 40
0.1972601260403557
 40
0.2795039605261754
 40
0.2795039605261754
 40
0.3319584474073272
 40
0.3319584474073272
 40
0.3557496596433421
 40
0.3557496596433421
 40
0.3783712599631237
 40
0.3783712599631237
 40
0.3783712599631237
 40
0.3783712599631237
 10
7.515235771861338
 20
3.862816013702587
 30
0.0
 10
7.515571490899663
 20
3.873689818647445
 30
0.0
 10
7.516841777802649
 20
3.884907484743233
 30
0.0
 10
7.520732982151183
 20
3.903777732131235
 30
0.0
 10
7.522911746305863
 20
3.911633708501197
 30
0.0
 10
7.527908870545789
 20
3.925856399660117
 30
0.0
 10
7.530588820183737
 20
3.932241452999294
 30
0.0
 10
7.53809420142738
 20
3.947869111225545
 30
0.0
 10
7.542597531245927
 20
3.955424382267485
 30
0.0
 10
7.548559371398811
 20
3.965530612525689
 30
0.0
 10
7.550645934049605
 20
3.969062910969416
 30
0.0
 10
7.552794519775234
 20
3.973442076144961
 30
0.0
 10
7.553332695303536
 20
3.974691103069628
 30
0.0
 10
7.554046107538061
 20
3.976870305789892
 30
0.0
 10
7.554235771861337
 20
3.977800892144072
 30
0.0
 10
7.554235771861337
 20
3.978606730657044
 30
0.0
  0
SPLINE
  5
276
330
6C
100
AcDbEntity
  8
Visible (ANSI)
100
AcDbSpline
210
0.0
220
0.0
230
1.0
 70
     8
 71
     3
 72
    12
 73
     8
 74
     0
 42
0.0000000001
 43
0.0000000001
 40
0.0
 40
0.0
 40
0.0
 40
0.0
 40
0.0872706299210047
 40
0.0872706299210047
 40
0.2183770512103642
 40
0.2183770512103642
 40
0.3494849185567912
 40
0.3494849185567912
 40
0.3494849185567912
 40
0.3494849185567912
 10
7.515235771861334
 20
9.461338081236917
 30
0.0
 10
7.522648180158252
 20
9.452607461865808
 30
0.0
 10
7.530032983420491
 20
9.443909816834853
 30
0.0
 10
7.548031733435995
 20
9.422063541016083
 30
0.0
 10
7.558252425342764
 20
9.409056988899129
 30
0.0
 10
7.576505458096581
 20
9.382825270130284
 30
0.0
 10
7.584383590787036
 20
9.369819202261542
 30
0.0
 10
7.590620994415524
 20
9.356703073039154
 30
0.0
  0
SPLINE
  5
277
330
6C
100
AcDbEntity
  8
Visible (ANSI)
100
AcDbSpline
210
0.0
220
0.0
230
1.0
 70
     8
 71
     3
 72
    10
 73
     6
 74
     0
 42
0.0000000001
 43
0.0000000001
 40
0.0
 40
0.0
 40
0.0
 40
0.0
 40
0.1421096872410973
 40
0.1421096872410973
 40
0.284219376790881
 40
0.284219376790881
 40
0.284219376790881
 40
0.284219376790881
 10
7.547543724384559
 20
9.356703073039152
 30
0.0
 10
7.543971823815306
 20
9.374228492607521
 30
0.0
 10
7.539158122958127
 20
9.391495190625008
 30
0.0
 10
7.52789352432456
 20
9.426545963094079
 30
0.0
 10
7.521612758176561
 20
9.443812661383828
 30
0.0
 10
7.515235771861338
 20
9.461338081236913
 30
0.0
  0
ARC
  5
278
330
6C
100
AcDbEntity
  8
Visible (ANSI)
100
AcDbCircle
 10
7.228836210212383
 20
4.195453073039153
 30
0.0
 40
0.1299999999999907
100
AcDbArc
 50
0.0
 51
90.0
  0
LINE
  5
279
330
6C
100
AcDbEntity
  8
Visible (ANSI)
100
AcDbLine
 10
7.358836210212386
 20
4.195453073039151
 30
0.0
 11
7.358836210212372
 21
3.017953073039153
 31
0.0
  0
ARC
  5
27A
330
6C
100
AcDbEntity
  8
Visible (ANSI)
100
AcDbCircle
 10
7.228836210212383
 20
3.017953073039154
 30
0.0
 40
0.1299999999999909
100
AcDbArc
 50
270.0
 51
0.0
  0
LINE
  5
27B
330
6C
100
AcDbEntity
  8
Visible (ANSI)
100
AcDbLine
 10
7.228836210212383
 20
2.887953073039155
 30
0.0
 11
6.988836210212374
 21
2.887953073039137
 31
0.0
  0
ARC
  5
27C
330
6C
100
AcDbEntity
  8
Visible (ANSI)
100
AcDbCircle
 10
6.988836210212374
 20
3.017953073039154
 30
0.0
 40
0.1300000000000002
100
AcDbArc
 50
180.0
 51
270.0
  0
LINE
  5
27D
330
6C
100
AcDbEntity
  8
Visible (ANSI)
100
AcDbLine
 10
6.858836210212357
 20
3.017953073039156
 30
0.0
 11
6.858836210212371
 21
4.195453073039154
 31
0.0
  0
ARC
  5
27E
330
6C
100
AcDbEntity
  8
Visible (ANSI)
100
AcDbCircle
 10
6.988836210212374
 20
4.195453073039153
 30
0.0
 40
0.13
100
AcDbArc
 50
90.0
 51
180.0
  0
LINE
  5
27F
330
6C
100
AcDbEntity
  8
Visible (ANSI)
100
AcDbLine
 10
6.988836210212374
 20
4.325453073039146
 30
0.0
 11
7.228836210212383
 21
4.325453073039146
 31
0.0
  0
ARC
  5
280
330
6C
100
AcDbEntity
  8
Visible (ANSI)
100
AcDbCircle
 10
9.791336210212369
 20
3.017953073039154
 30
0.0
 40
0.1300000000000002
100
AcDbArc
 50
270.0
 51
0.0
  0
LINE
  5
281
330
6C
100
AcDbEntity
  8
Visible (ANSI)
100
AcDbLine
 10
9.791336210212369
 20
2.887953073039137
 30
0.0
 11
9.55133621021236
 21
2.887953073039155
 31
0.0
  0
ARC
  5
282
330
6C
100
AcDbEntity
  8
Visible (ANSI)
100
AcDbCircle
 10
9.55133621021236
 20
3.017953073039154
 30
0.0
 40
0.1299999999999908
100
AcDbArc
 50
180.0
 51
270.0
  0
LINE
  5
283
330
6C
100
AcDbEntity
  8
Visible (ANSI)
100
AcDbLine
 10
9.42133621021237
 20
3.017953073039153
 30
0.0
 11
9.421336210212356
 21
4.195453073039151
 31
0.0
  0
ARC
  5
284
330
6C
100
AcDbEntity
  8
Visible (ANSI)
100
AcDbCircle
 10
9.55133621021236
 20
4.195453073039153
 30
0.0
 40
0.1299999999999907
100
AcDbArc
 50
90.0
 51
180.0
  0
LINE
  5
285
330
6C
100
AcDbEntity
  8
Visible (ANSI)
100
AcDbLine
 10
9.55133621021236
 20
4.325453073039146
 30
0.0
 11
9.791336210212369
 21
4.325453073039146
 31
0.0
  0
ARC
  5
286
330
6C
100
AcDbEntity
  8
Visible (ANSI)
100
AcDbCircle
 10
9.791336210212369
 20
4.195453073039153
 30
0.0
 40
0.13
100
AcDbArc
 50
0.0
 51
90.0
  0
LINE
  5
287
330
6C
100
AcDbEntity
  8
Visible (ANSI)
100
AcDbLine
 10
9.921336210212372
 20
4.195453073039154
 30
0.0
 11
9.921336210212386
 21
3.017953073039156
 31
0.0
  0
ARC
  5
288
330
6C
100
AcDbEntity
  8
Visible Narrow (ANSI)
100
AcDbCircle
 10
7.228836210212383
 20
3.017953073039154
 30
0.0
 40
0.0779999999999909
100
AcDbArc
 50
270.0
 51
0.0
  0
LINE
  5
289
330
6C
100
AcDbEntity
  8
Visible Narrow (ANSI)
100
AcDbLine
 10
7.306836210212385
 20
4.195453073039152
 30
0.0
 11
7.306836210212375
 21
3.017953073039153
 31
0.0
  0
ARC
  5
28A
330
6C
100
AcDbEntity
  8
Visible Narrow (ANSI)
100
AcDbCircle
 10
7.228836210212383
 20
4.195453073039152
 30
0.0
 40
0.0779999999999912
100
AcDbArc
 50
0.0
 51
90.0
  0
LINE
  5
28B
330
6C
100
AcDbEntity
  8
Visible Narrow (ANSI)
100
AcDbLine
 10
6.988836210212374
 20
4.273453073039146
 30
0.0
 11
7.228836210212383
 21
4.273453073039143
 31
0.0
  0
ARC
  5
28C
330
6C
100
AcDbEntity
  8
Visible Narrow (ANSI)
100
AcDbCircle
 10
6.988836210212374
 20
4.195453073039153
 30
0.0
 40
0.0779999999999996
100
AcDbArc
 50
89.99999999999898
 51
180.0
  0
LINE
  5
28D
330
6C
100
AcDbEntity
  8
Visible Narrow (ANSI)
100
AcDbLine
 10
6.910836210212358
 20
3.017953073039155
 30
0.0
 11
6.910836210212375
 21
4.195453073039154
 31
0.0
  0
ARC
  5
28E
330
6C
100
AcDbEntity
  8
Visible Narrow (ANSI)
100
AcDbCircle
 10
6.988836210212374
 20
3.017953073039155
 30
0.0
 40
0.0780000000000004
100
AcDbArc
 50
180.0
 51
270.0
  0
LINE
  5
28F
330
6C
100
AcDbEntity
  8
Visible Narrow (ANSI)
100
AcDbLine
 10
7.228836210212383
 20
2.939953073039164
 30
0.0
 11
6.988836210212374
 21
2.939953073039154
 31
0.0
  0
LINE
  5
290
330
6C
100
AcDbEntity
  8
Visible Narrow (ANSI)
100
AcDbLine
 10
6.988836210212374
 20
2.939953073039154
 30
0.0
 11
6.988836210212374
 21
2.887953073039137
 31
0.0
  0
LINE
  5
291
330
6C
100
AcDbEntity
  8
Visible Narrow (ANSI)
100
AcDbLine
 10
7.228836210212383
 20
2.887953073039163
 30
0.0
 11
7.228836210212383
 21
2.939953073039164
 31
0.0
  0
LINE
  5
292
330
6C
100
AcDbEntity
  8
Visible Narrow (ANSI)
100
AcDbLine
 10
6.910836210212358
 20
3.017953073039155
 30
0.0
 11
6.858836210212357
 21
3.017953073039156
 31
0.0
  0
LINE
  5
293
330
6C
100
AcDbEntity
  8
Visible Narrow (ANSI)
100
AcDbLine
 10
6.910836210212375
 20
4.195453073039153
 30
0.0
 11
6.858836210212372
 21
4.195453073039154
 31
0.0
  0
LINE
  5
294
330
6C
100
AcDbEntity
  8
Visible Narrow (ANSI)
100
AcDbLine
 10
6.988836210212374
 20
4.273453073039146
 30
0.0
 11
6.988836210212374
 21
4.325453073039146
 31
0.0
  0
LINE
  5
295
330
6C
100
AcDbEntity
  8
Visible Narrow (ANSI)
100
AcDbLine
 10
7.228836210212383
 20
4.273453073039143
 30
0.0
 11
7.228836210212383
 21
4.325453073039146
 31
0.0
  0
LINE
  5
296
330
6C
100
AcDbEntity
  8
Visible Narrow (ANSI)
100
AcDbLine
 10
7.306836210212385
 20
4.195453073039152
 30
0.0
 11
7.358836210212386
 21
4.195453073039151
 31
0.0
  0
LINE
  5
297
330
6C
100
AcDbEntity
  8
Visible Narrow (ANSI)
100
AcDbLine
 10
7.306836210212375
 20
3.017953073039153
 30
0.0
 11
7.358836210212372
 21
3.017953073039153
 31
0.0
  0
LINE
  5
298
330
6C
100
AcDbEntity
  8
Visible Narrow (ANSI)
100
AcDbLine
 10
9.791336210212376
 20
2.078464521505339
 30
0.0
 11
9.791336210212374
 21
2.152003626748741
 31
0.0
  0
ELLIPSE
  5
299
330
6C
100
AcDbEntity
  8
Visible (ANSI)
100
AcDbEllipse
 10
9.791336210212371
 20
2.170388403059584
 30
0.0
 11
0.1299999999999906
 21
-0.0000000000000019
 31
0.0
210
0.0
220
0.0
230
1.0
 40
0.7071067811865476
 41
4.712388980384753
 42
6.283185307179624
  0
ELLIPSE
  5
29A
330
6C
100
AcDbEntity
  8
Visible Narrow (ANSI)
100
AcDbEllipse
 10
9.869336210212363
 20
2.170388403059583
 30
0.0
 11
0.052000000000009
 21
-0.0000000000000007
 31
0.0
210
0.0
220
0.0
230
0.9999999999999998
 40
0.7071067811865461
 41
0.0
 42
1.570796326794878
  0
ELLIPSE
  5
29B
330
6C
100
AcDbEntity
  8
Visible Narrow (ANSI)
100
AcDbEllipse
 10
9.791336210212371
 20
2.207157955681286
 30
0.0
 11
0.077999999999991
 21
-0.0000000000000014
 31
0.0
210
0.0
220
0.0
230
0.9999999999999998
 40
0.7071067811865476
 41
4.712388980384774
 42
6.283185307179636
  0
LINE
  5
29C
330
6C
100
AcDbEntity
  8
Visible (ANSI)
100
AcDbLine
 10
9.921336210212388
 20
2.649453247313466
 30
0.0
 11
9.921336210212372
 21
2.170388403059583
 31
0.0
  0
ELLIPSE
  5
29D
330
6C
100
AcDbEntity
  8
Visible Narrow (ANSI)
100
AcDbEllipse
 10
9.86933621021239
 20
2.649453247313467
 30
0.0
 11
0.0520000000000003
 21
-0.000000000000001
 31
0.0
210
0.0
220
0.0
230
0.9999999999999998
 40
0.7071067811865476
 41
0.0
 42
1.570796326794883
  0
LINE
  5
29E
330
6C
100
AcDbEntity
  8
Visible Narrow (ANSI)
100
AcDbLine
 10
9.86933621021239
 20
2.686222799935168
 30
0.0
 11
9.869336210212363
 21
2.207157955681284
 31
0.0
  0
LINE
  5
29F
330
6C
100
AcDbEntity
  8
Visible Narrow (ANSI)
100
AcDbLine
 10
9.79133621021238
 20
2.741377128867721
 30
0.0
 11
9.791336210212376
 21
2.756607576246024
 31
0.0
  0
ELLIPSE
  5
2A0
330
6C
100
AcDbEntity
  8
Visible Narrow (ANSI)
100
AcDbEllipse
 10
9.791336210212389
 20
2.686222799935171
 30
0.0
 11
0.077999999999991
 21
0.0000000000000058
 31
0.0
210
0.0
220
0.0
230
1.0
 40
0.7071067811865472
 41
0.0
 42
1.570796326795005
  0
LINE
  5
2A1
330
6C
100
AcDbEntity
  8
Visible Narrow (ANSI)
100
AcDbLine
 10
9.551336210212367
 20
2.741377128867722
 30
0.0
 11
9.551336210212367
 21
2.756607576246021
 31
0.0
  0
LINE
  5
2A2
330
6C
100
AcDbEntity
  8
Visible Narrow (ANSI)
100
AcDbLine
 10
9.551336210212367
 20
2.741377128867722
 30
0.0
 11
9.791336210212381
 21
2.741377128867716
 31
0.0
  0
ELLIPSE
  5
2A3
330
6C
100
AcDbEntity
  8
Visible Narrow (ANSI)
100
AcDbEllipse
 10
9.473336210212377
 20
2.649453247313471
 30
0.0
 11
-0.0520000000000101
 21
0.000000000000001
 31
0.0
210
0.0
220
0.0
230
1.0
 40
0.7071067811865474
 41
4.712388980384676
 42
6.28318530717953
  0
ELLIPSE
  5
2A4
330
6C
100
AcDbEntity
  8
Visible Narrow (ANSI)
100
AcDbEllipse
 10
9.551336210212367
 20
2.686222799935171
 30
0.0
 11
-0.0779999999999905
 21
0.0000000000000014
 31
0.0
210
0.0
220
0.0
230
1.0
 40
0.7071067811865475
 41
4.712388980384737
 42
6.283185307179635
  0
LINE
  5
2A5
330
6C
100
AcDbEntity
  8
Visible (ANSI)
100
AcDbLine
 10
9.421336210212356
 20
2.170388403059587
 30
0.0
 11
9.421336210212366
 21
2.649453247313473
 31
0.0
  0
ELLIPSE
  5
2A6
330
6C
100
AcDbEntity
  8
Visible Narrow (ANSI)
100
AcDbEllipse
 10
9.473336210212357
 20
2.170388403059587
 30
0.0
 11
-0.0520000000000003
 21
0.0000000000000005
 31
0.0
210
0.0
220
0.0
230
0.9999999999999998
 40
0.7071067811865465
 41
4.712388980384696
 42
6.283185307179581
  0
LINE
  5
2A7
330
6C
100
AcDbEntity
  8
Visible Narrow (ANSI)
100
AcDbLine
 10
9.473336210212357
 20
2.207157955681288
 30
0.0
 11
9.473336210212377
 21
2.686222799935173
 31
0.0
  0
ELLIPSE
  5
2A8
330
6C
100
AcDbEntity
  8
Visible (ANSI)
100
AcDbEllipse
 10
9.551336210212356
 20
2.170388403059584
 30
0.0
 11
-0.1299999999999907
 21
-0.0000000000000045
 31
0.0
210
0.0
220
0.0
230
1.0
 40
0.7071067811865476
 41
0.0
 42
1.570796326794948
  0
LINE
  5
2A9
330
6C
100
AcDbEntity
  8
Visible Narrow (ANSI)
100
AcDbLine
 10
9.551336210212362
 20
2.152003626748747
 30
0.0
 11
9.551336210212364
 21
2.078464521505333
 31
0.0
  0
ELLIPSE
  5
2AA
330
6C
100
AcDbEntity
  8
Visible Narrow (ANSI)
100
AcDbEllipse
 10
9.551336210212356
 20
2.207157955681285
 30
0.0
 11
-0.0779999999999905
 21
-0.000000000000003
 31
0.0
210
0.0
220
0.0
230
1.0
 40
0.7071067811865476
 41
0.0
 42
1.57079632679494
  0
LINE
  5
2AB
330
6C
100
AcDbEntity
  8
Visible (ANSI)
100
AcDbLine
 10
9.791336210212376
 20
2.078464521505333
 30
0.0
 11
9.551336210212364
 21
2.078464521505333
 31
0.0
  0
LINE
  5
2AC
330
6C
100
AcDbEntity
  8
Visible Narrow (ANSI)
100
AcDbLine
 10
9.791336210212374
 20
2.152003626748741
 30
0.0
 11
9.551336210212362
 21
2.152003626748741
 31
0.0
  0
LINE
  5
2AD
330
6C
100
AcDbEntity
  8
Visible Narrow (ANSI)
100
AcDbLine
 10
7.228836210212379
 20
2.078464521505339
 30
0.0
 11
7.228836210212381
 21
2.152003626748741
 31
0.0
  0
ELLIPSE
  5
2AE
330
6C
100
AcDbEntity
  8
Visible (ANSI)
100
AcDbEllipse
 10
7.228836210212386
 20
2.170388403059584
 30
0.0
 11
0.1299999999999907
 21
0.000000000000003
 31
0.0
210
0.0
220
0.0
230
1.0
 40
0.7071067811865478
 41
4.712388980384587
 42
6.283185307179517
  0
ELLIPSE
  5
2AF
330
6C
100
AcDbEntity
  8
Visible Narrow (ANSI)
100
AcDbEllipse
 10
7.306836210212377
 20
2.170388403059586
 30
0.0
 11
0.052000000000009
 21
0.0000000000000012
 31
0.0
210
0.0
220
0.0
230
0.9999999999999998
 40
0.707106781186548
 41
0.0000000000000571
 42
1.570796326794906
  0
ELLIPSE
  5
2B0
330
6C
100
AcDbEntity
  8
Visible Narrow (ANSI)
100
AcDbEllipse
 10
7.228836210212386
 20
2.207157955681285
 30
0.0
 11
0.0779999999999905
 21
0.0000000000000019
 31
0.0
210
0.0
220
0.0
230
1.0
 40
0.7071067811865476
 41
4.712388980384582
 42
6.283185307179509
  0
LINE
  5
2B1
330
6C
100
AcDbEntity
  8
Visible (ANSI)
100
AcDbLine
 10
7.358836210212376
 20
2.649453247313473
 30
0.0
 11
7.358836210212386
 21
2.170388403059587
 31
0.0
  0
ELLIPSE
  5
2B2
330
6C
100
AcDbEntity
  8
Visible Narrow (ANSI)
100
AcDbEllipse
 10
7.306836210212376
 20
2.649453247313472
 30
0.0
 11
0.0520000000000003
 21
0.0000000000000005
 31
0.0
210
0.0
220
0.0
230
0.9999999999999998
 40
0.7071067811865472
 41
0.0000000000000357
 42
1.570796326794889
  0
LINE
  5
2B3
330
6C
100
AcDbEntity
  8
Visible Narrow (ANSI)
100
AcDbLine
 10
7.306836210212377
 20
2.686222799935173
 30
0.0
 11
7.306836210212377
 21
2.207157955681287
 31
0.0
  0
LINE
  5
2B4
330
6C
100
AcDbEntity
  8
Visible Narrow (ANSI)
100
AcDbLine
 10
7.228836210212376
 20
2.741377128867721
 30
0.0
 11
7.228836210212376
 21
2.756607576246024
 31
0.0
  0
ELLIPSE
  5
2B5
330
6C
100
AcDbEntity
  8
Visible Narrow (ANSI)
100
AcDbEllipse
 10
7.228836210212376
 20
2.686222799935171
 30
0.0
 11
0.0779999999999904
 21
0.0000000000000002
 31
0.0
210
0.0
220
0.0
230
1.0
 40
0.7071067811865471
 41
0.0
 42
1.570796326794894
  0
LINE
  5
2B6
330
6C
100
AcDbEntity
  8
Visible Narrow (ANSI)
100
AcDbLine
 10
6.988836210212367
 20
2.741377128867722
 30
0.0
 11
6.988836210212367
 21
2.756607576246021
 31
0.0
  0
LINE
  5
2B7
330
6C
100
AcDbEntity
  8
Visible Narrow (ANSI)
100
AcDbLine
 10
6.988836210212367
 20
2.741377128867722
 30
0.0
 11
7.228836210212376
 21
2.741377128867715
 31
0.0
  0
ELLIPSE
  5
2B8
330
6C
100
AcDbEntity
  8
Visible Narrow (ANSI)
100
AcDbEllipse
 10
6.910836210212363
 20
2.649453247313468
 30
0.0
 11
-0.0520000000000092
 21
-0.0000000000000018
 31
0.0
210
0.0
220
0.0
230
0.9999999999999998
 40
0.7071067811865475
 41
4.712388980384719
 42
6.283185307179682
  0
ELLIPSE
  5
2B9
330
6C
100
AcDbEntity
  8
Visible Narrow (ANSI)
100
AcDbEllipse
 10
6.988836210212354
 20
2.686222799935172
 30
0.0
 11
-0.0779999999999903
 21
-0.000000000000003
 31
0.0
210
0.0
220
0.0
230
1.0
 40
0.7071067811865471
 41
4.712388980384429
 42
6.283185307179475
  0
LINE
  5
2BA
330
6C
100
AcDbEntity
  8
Visible (ANSI)
100
AcDbLine
 10
6.858836210212371
 20
2.170388403059583
 30
0.0
 11
6.858836210212354
 21
2.649453247313466
 31
0.0
  0
ELLIPSE
  5
2BB
330
6C
100
AcDbEntity
  8
Visible Narrow (ANSI)
100
AcDbEllipse
 10
6.910836210212372
 20
2.170388403059583
 30
0.0
 11
-0.0520000000000004
 21
-0.0000000000000009
 31
0.0
210
0.0
220
0.0
230
0.9999999999999998
 40
0.7071067811865469
 41
4.71238898038473
 42
6.283185307179659
  0
LINE
  5
2BC
330
6C
100
AcDbEntity
  8
Visible Narrow (ANSI)
100
AcDbLine
 10
6.910836210212372
 20
2.207157955681284
 30
0.0
 11
6.910836210212363
 21
2.686222799935169
 31
0.0
  0
ELLIPSE
  5
2BD
330
6C
100
AcDbEntity
  8
Visible (ANSI)
100
AcDbEllipse
 10
6.988836210212372
 20
2.170388403059584
 30
0.0
 11
-0.1299999999999906
 21
0.0000000000000028
 31
0.0
210
0.0
220
0.0
230
1.0
 40
0.7071067811865476
 41
0.0
 42
1.570796326794858
  0
LINE
  5
2BE
330
6C
100
AcDbEntity
  8
Visible Narrow (ANSI)
100
AcDbLine
 10
6.988836210212369
 20
2.152003626748747
 30
0.0
 11
6.988836210212367
 21
2.078464521505333
 31
0.0
  0
ELLIPSE
  5
2BF
330
6C
100
AcDbEntity
  8
Visible Narrow (ANSI)
100
AcDbEllipse
 10
6.988836210212372
 20
2.207157955681286
 30
0.0
 11
-0.077999999999991
 21
0.0000000000000019
 31
0.0
210
0.0
220
0.0
230
0.9999999999999998
 40
0.7071067811865471
 41
0.0
 42
1.57079632679486
  0
LINE
  5
2C0
330
6C
100
AcDbEntity
  8
Visible (ANSI)
100
AcDbLine
 10
7.228836210212379
 20
2.078464521505333
 30
0.0
 11
6.988836210212367
 21
2.078464521505333
 31
0.0
  0
LINE
  5
2C1
330
6C
100
AcDbEntity
  8
Visible Narrow (ANSI)
100
AcDbLine
 10
7.228836210212381
 20
2.152003626748741
 30
0.0
 11
6.988836210212369
 21
2.152003626748741
 31
0.0
  0
LINE
  5
2C2
330
6C
100
AcDbEntity
  8
Visible Narrow (ANSI)
100
AcDbLine
 10
9.791336210212369
 20
2.887953073039153
 30
0.0
 11
9.791336210212369
 21
2.939953073039154
 31
0.0
  0
LINE
  5
2C3
330
6C
100
AcDbEntity
  8
Visible Narrow (ANSI)
100
AcDbLine
 10
9.869336210212368
 20
3.017953073039155
 30
0.0
 11
9.921336210212386
 21
3.017953073039156
 31
0.0
  0
ARC
  5
2C4
330
6C
100
AcDbEntity
  8
Visible Narrow (ANSI)
100
AcDbCircle
 10
9.791336210212369
 20
3.017953073039154
 30
0.0
 40
0.0780000000000003
100
AcDbArc
 50
270.0
 51
0.0
  0
LINE
  5
2C5
330
6C
100
AcDbEntity
  8
Visible Narrow (ANSI)
100
AcDbLine
 10
9.86933621021237
 20
4.195453073039154
 30
0.0
 11
9.921336210212372
 21
4.195453073039154
 31
0.0
  0
LINE
  5
2C6
330
6C
100
AcDbEntity
  8
Visible Narrow (ANSI)
100
AcDbLine
 10
9.86933621021237
 20
4.195453073039154
 30
0.0
 11
9.869336210212368
 21
3.017953073039155
 31
0.0
  0
LINE
  5
2C7
330
6C
100
AcDbEntity
  8
Visible Narrow (ANSI)
100
AcDbLine
 10
9.791336210212369
 20
4.273453073039152
 30
0.0
 11
9.791336210212369
 21
4.325453073039146
 31
0.0
  0
ARC
  5
2C8
330
6C
100
AcDbEntity
  8
Visible Narrow (ANSI)
100
AcDbCircle
 10
9.791336210212369
 20
4.195453073039152
 30
0.0
 40
0.0780000000000005
100
AcDbArc
 50
0.0
 51
90.0
  0
LINE
  5
2C9
330
6C
100
AcDbEntity
  8
Visible Narrow (ANSI)
100
AcDbLine
 10
9.55133621021236
 20
4.273453073039146
 30
0.0
 11
9.55133621021236
 21
4.325453073039146
 31
0.0
  0
LINE
  5
2CA
330
6C
100
AcDbEntity
  8
Visible Narrow (ANSI)
100
AcDbLine
 10
9.55133621021236
 20
4.273453073039146
 30
0.0
 11
9.791336210212369
 21
4.273453073039153
 31
0.0
  0
LINE
  5
2CB
330
6C
100
AcDbEntity
  8
Visible Narrow (ANSI)
100
AcDbLine
 10
9.473336210212368
 20
4.195453073039152
 30
0.0
 11
9.421336210212356
 21
4.195453073039151
 31
0.0
  0
ARC
  5
2CC
330
6C
100
AcDbEntity
  8
Visible Narrow (ANSI)
100
AcDbCircle
 10
9.55133621021236
 20
4.195453073039153
 30
0.0
 40
0.077999999999991
100
AcDbArc
 50
90.00000000000104
 51
180.0
  0
LINE
  5
2CD
330
6C
100
AcDbEntity
  8
Visible Narrow (ANSI)
100
AcDbLine
 10
9.473336210212371
 20
3.017953073039153
 30
0.0
 11
9.42133621021237
 21
3.017953073039153
 31
0.0
  0
LINE
  5
2CE
330
6C
100
AcDbEntity
  8
Visible Narrow (ANSI)
100
AcDbLine
 10
9.473336210212371
 20
3.017953073039153
 30
0.0
 11
9.473336210212368
 21
4.195453073039152
 31
0.0
  0
LINE
  5
2CF
330
6C
100
AcDbEntity
  8
Visible Narrow (ANSI)
100
AcDbLine
 10
9.55133621021236
 20
2.939953073039164
 30
0.0
 11
9.55133621021236
 21
2.887953073039155
 31
0.0
  0
ARC
  5
2D0
330
6C
100
AcDbEntity
  8
Visible Narrow (ANSI)
100
AcDbCircle
 10
9.55133621021236
 20
3.017953073039155
 30
0.0
 40
0.0779999999999911
100
AcDbArc
 50
180.0
 51
270.0
  0
LINE
  5
2D1
330
6C
100
AcDbEntity
  8
Visible Narrow (ANSI)
100
AcDbLine
 10
9.791336210212369
 20
2.939953073039154
 30
0.0
 11
9.55133621021236
 21
2.939953073039164
 31
0.0
  0
SPLINE
  5
2D2
330
6C
100
AcDbEntity
  8
Visible (ANSI)
100
AcDbSpline
210
0.0
220
0.0
230
1.0
 70
     8
 71
     3
 72
    18
 73
    14
 74
     0
 42
0.0000000001
 43
0.0000000001
 40
6.283185307179537
 40
6.283185307179537
 40
6.283185307179537
 40
6.283185307179537
 40
6.529364269791397
 40
6.529364269791397
 40
6.789600489706571
 40
6.789600489706571
 40
7.088176909499424
 40
7.088176909499424
 40
7.402336174858434
 40
7.402336174858434
 40
7.716495440217444
 40
7.716495440217444
 40
7.853981633974591
 40
7.853981633974591
 40
7.853981633974591
 40
7.853981633974591
 10
9.92133621021238
 20
2.649453247313464
 30
0.0
 10
9.92133621021238
 20
2.660013786020261
 30
0.0
 10
9.919449997930241
 20
2.670549282660502
 30
0.0
 10
9.912317598261205
 20
2.690620336644492
 30
0.0
 10
9.906929974147626
 20
2.700052150971976
 30
0.0
 10
9.89303855360586
 20
2.717761537031174
 30
0.0
 10
9.884216055799363
 20
2.72569866658882
 30
0.0
 10
9.864558665399909
 20
2.739064248226091
 30
0.0
 10
9.853625262292652
 20
2.744362559185673
 30
0.0
 10
9.830875806298848
 20
2.752165797032534
 30
0.0
 10
9.819049205785132
 20
2.754669968203208
 30
0.0
 10
9.801855703063194
 20
2.756352088289761
 30
0.0
 10
9.796595953195431
 20
2.756607576246015
 30
0.0
 10
9.791336210212376
 20
2.756607576246015
 30
0.0
  0
LINE
  5
2D3
330
6C
100
AcDbEntity
  8
Visible (ANSI)
100
AcDbLine
 10
9.791336210212376
 20
2.756607576246021
 30
0.0
 11
9.551336210212367
 21
2.756607576246021
 31
0.0
  0
SPLINE
  5
2D4
330
6C
100
AcDbEntity
  8
Visible (ANSI)
100
AcDbSpline
210
0.0
220
0.0
230
1.0
 70
     8
 71
     3
 72
    18
 73
    14
 74
     0
 42
0.0000000001
 43
0.0000000001
 40
1.570796326794896
 40
1.570796326794896
 40
1.570796326794896
 40
1.570796326794896
 40
1.88495559215387
 40
1.88495559215387
 40
2.199114857512844
 40
2.199114857512844
 40
2.513274122871818
 40
2.513274122871818
 40
2.827433388230792
 40
2.827433388230792
 40
3.095990979095907
 40
3.095990979095907
 40
3.141592653589766
 40
3.141592653589766
 40
3.141592653589766
 40
3.141592653589766
 10
9.551336210212367
 20
2.756607576246014
 30
0.0
 10
9.53931757076663
 20
2.756607576246014
 30
0.0
 10
9.527298347682593
 20
2.755277969270821
 30
0.0
 10
9.503879847721027
 20
2.749897500509814
 30
0.0
 10
9.492475027344193
 20
2.745849078039427
 30
0.0
 10
9.470978397309391
 20
2.734805331645938
 30
0.0
 10
9.460867911881532
 20
2.727801366018061
 30
0.0
 10
9.44306237493809
 20
2.710472145180927
 30
0.0
 10
9.435362685238626
 20
2.700089383512979
 30
0.0
 10
9.425236624898879
 20
2.678052535590389
 30
0.0
 10
9.422266632877574
 20
2.666804482288161
 30
0.0
 10
9.421399355502829
 20
2.653365665220481
 30
0.0
 10
9.421336210212377
 20
2.65140945934507
 30
0.0
 10
9.421336210212377
 20
2.649453247313473
 30
0.0
  0
SPLINE
  5
2D5
330
6C
100
AcDbEntity
  8
Visible (ANSI)
100
AcDbSpline
210
0.0
220
0.0
230
1.0
 70
     8
 71
     3
 72
    18
 73
    14
 74
     0
 42
0.0000000001
 43
0.0000000001
 40
0.0000000000000266
 40
0.0000000000000266
 40
0.0000000000000266
 40
0.0000000000000266
 40
0.246178962611887
 40
0.246178962611887
 40
0.5064151825270696
 40
0.5064151825270696
 40
0.8049916023199363
 40
0.8049916023199363
 40
1.11915086767891
 40
1.11915086767891
 40
1.433310133037884
 40
1.433310133037884
 40
1.570796326794896
 40
1.570796326794896
 40
1.570796326794896
 40
1.570796326794896
 10
7.358836210212366
 20
2.649453247313473
 30
0.0
 10
7.358836210212366
 20
2.660013786020271
 30
0.0
 10
7.356949997930225
 20
2.670549282660511
 30
0.0
 10
7.349817598261187
 20
2.6906203366445
 30
0.0
 10
7.344429974147608
 20
2.700052150971984
 30
0.0
 10
7.330538553605839
 20
2.717761537031181
 30
0.0
 10
7.321716055799341
 20
2.725698666588827
 30
0.0
 10
7.302058665399888
 20
2.739064248226095
 30
0.0
 10
7.291125262292632
 20
2.744362559185676
 30
0.0
 10
7.268375806298829
 20
2.752165797032535
 30
0.0
 10
7.256549205785113
 20
2.754669968203208
 30
0.0
 10
7.239355703063184
 20
2.75635208828976
 30
0.0
 10
7.234095953195427
 20
2.756607576246014
 30
0.0
 10
7.228836210212376
 20
2.756607576246014
 30
0.0
  0
LINE
  5
2D6
330
6C
100
AcDbEntity
  8
Visible (ANSI)
100
AcDbLine
 10
7.228836210212376
 20
2.756607576246021
 30
0.0
 11
6.988836210212367
 21
2.756607576246021
 31
0.0
  0
SPLINE
  5
2D7
330
6C
100
AcDbEntity
  8
Visible (ANSI)
100
AcDbSpline
210
0.0
220
0.0
230
1.0
 70
     8
 71
     3
 72
    18
 73
    14
 74
     0
 42
0.0000000001
 43
0.0000000001
 40
1.570796326794774
 40
1.570796326794774
 40
1.570796326794774
 40
1.570796326794774
 40
1.884955592153787
 40
1.884955592153787
 40
2.199114857512801
 40
2.199114857512801
 40
2.513274122871814
 40
2.513274122871814
 40
2.827433388230828
 40
2.827433388230828
 40
3.095990979095938
 40
3.095990979095938
 40
3.141592653589841
 40
3.141592653589841
 40
3.141592653589841
 40
3.141592653589841
 10
6.988836210212367
 20
2.756607576246015
 30
0.0
 10
6.97681757076663
 20
2.756607576246016
 30
0.0
 10
6.964798347682591
 20
2.755277969270824
 30
0.0
 10
6.941379847721021
 20
2.749897500509816
 30
0.0
 10
6.929975027344184
 20
2.74584907803943
 30
0.0
 10
6.908478397309381
 20
2.734805331645941
 30
0.0
 10
6.898367911881519
 20
2.727801366018063
 30
0.0
 10
6.880562374938075
 20
2.710472145180927
 30
0.0
 10
6.872862685238611
 20
2.700089383512977
 30
0.0
 10
6.862736624898864
 20
2.678052535590385
 30
0.0
 10
6.859766632877561
 20
2.666804482288157
 30
0.0
 10
6.858899355502816
 20
2.653365665220476
 30
0.0
 10
6.858836210212363
 20
2.651409459345063
 30
0.0
 10
6.858836210212363
 20
2.649453247313465
 30
0.0
  0
LINE
  5
2D8
330
6C
100
AcDbEntity
  8
Visible Narrow (ANSI)
100
AcDbLine
 10
6.640086210212372
 20
2.823734261642241
 30
0.0
 11
7.563836210212384
 21
2.823734261642241
 31
0.0
  0
LINE
  5
2D9
330
6C
100
AcDbEntity
  8
Visible Narrow (ANSI)
100
AcDbLine
 10
9.216336210212375
 20
2.823734261642241
 30
0.0
 11
10.14008621021237
 21
2.823734261642241
 31
0.0
  0
LINE
  5
2DA
330
6C
100
AcDbEntity
  8
Visible (ANSI)
100
AcDbLine
 10
6.640086210212372
 20
2.823734261642241
 30
0.0
 11
6.640086210212372
 21
2.786964709020541
 31
0.0
  0
LINE
  5
2DB
330
6C
100
AcDbEntity
  8
Visible (ANSI)
100
AcDbLine
 10
7.563836210212384
 20
2.786964709020541
 30
0.0
 11
7.563836210212384
 21
2.823734261642241
 31
0.0
  0
LINE
  5
2DC
330
6C
100
AcDbEntity
  8
Visible Narrow (ANSI)
100
AcDbLine
 10
7.563836210212384
 20
2.786964709020541
 30
0.0
 11
6.640086210212372
 21
2.786964709020541
 31
0.0
  0
LINE
  5
2DD
330
6C
100
AcDbEntity
  8
Visible (ANSI)
100
AcDbLine
 10
10.14008621021236
 20
2.786964709020541
 30
0.0
 11
10.14008621021237
 21
2.823734261642241
 31
0.0
  0
LINE
  5
2DE
330
6C
100
AcDbEntity
  8
Visible (ANSI)
100
AcDbLine
 10
9.216336210212382
 20
2.823734261642241
 30
0.0
 11
9.216336210212388
 21
2.786964709020541
 31
0.0
  0
LINE
  5
2DF
330
6C
100
AcDbEntity
  8
Visible Narrow (ANSI)
100
AcDbLine
 10
10.14008621021237
 20
2.786964709020541
 30
0.0
 11
9.216336210212382
 21
2.786964709020541
 31
0.0
  0
SPLINE
  5
2E0
330
6C
100
AcDbEntity
  8
Visible (ANSI)
100
AcDbSpline
210
0.0
220
0.0
230
1.0
 70
     8
 71
     3
 72
    18
 73
    14
 74
     0
 42
0.0000000001
 43
0.0000000001
 40
0.0
 40
0.0
 40
0.0
 40
0.0
 40
0.0429477199617078
 40
0.0429477199617078
 40
0.1265778459627438
 40
0.1265778459627438
 40
0.2264959215315568
 40
0.2264959215315568
 40
0.3278969809668922
 40
0.3278969809668922
 40
0.4042537514703469
 40
0.4042537514703469
 40
0.4798630729381381
 40
0.4798630729381381
 40
0.4798630729381381
 40
0.4798630729381381
 10
9.264151250400008
 20
3.871963014167479
 30
0.0
 10
9.263136129624381
 20
3.877507028665939
 30
0.0
 10
9.26161223968034
 20
3.882879471103265
 30
0.0
 10
9.25569541929271
 20
3.898317001203599
 30
0.0
 10
9.250089419815239
 20
3.907672510349258
 30
0.0
 10
9.235457700758331
 20
3.926453081143515
 30
0.0
 10
9.226292188824645
 20
3.935176878869682
 30
0.0
 10
9.207895324489564
 20
3.950535130897419
 30
0.0
 10
9.199055565720154
 20
3.956831526561166
 30
0.0
 10
9.186302812154972
 20
3.966081857347677
 30
0.0
 10
9.18185410688363
 20
3.969368088002942
 30
0.0
 10
9.175763713543263
 20
3.974782440563208
 30
0.0
 10
9.174151250400006
 20
3.976863460915089
 30
0.0
 10
9.174151250400006
 20
3.9784259265239
 30
0.0
  0
SPLINE
  5
2E1
330
6C
100
AcDbEntity
  8
Visible (ANSI)
100
AcDbSpline
210
0.0
220
0.0
230
1.0
 70
     8
 71
     3
 72
    18
 73
    14
 74
     0
 42
0.0000000001
 43
0.0000000001
 40
0.0
 40
0.0
 40
0.0
 40
0.0
 40
0.0177164848753835
 40
0.0177164848753835
 40
0.0576196370926
 40
0.0576196370926
 40
0.1077238148443354
 40
0.1077238148443354
 40
0.1698257679800971
 40
0.1698257679800971
 40
0.2069807788722149
 40
0.2069807788722149
 40
0.2561959262500117
 40
0.2561959262500117
 40
0.2561959262500117
 40
0.2561959262500117
 10
9.226151250400008
 20
3.9784259265239
 30
0.0
 10
9.226151250400008
 20
3.977608199188729
 30
0.0
 10
9.226336585022522
 20
3.976670892806625
 30
0.0
 10
9.227438679868972
 20
3.973211772925507
 30
0.0
 10
9.228958736451813
 20
3.970254588606552
 30
0.0
 10
9.233267888167016
 20
3.962579729750373
 30
0.0
 10
9.236441949188575
 20
3.957367281569663
 30
0.0
 10
9.244425214726549
 20
3.942925374352499
 30
0.0
 10
9.249175764840948
 20
3.933493600034245
 30
0.0
 10
9.255901448730519
 20
3.91516152987217
 30
0.0
 10
9.258015490939101
 20
3.908107172768987
 30
0.0
 10
9.261930832489536
 20
3.891407721990661
 30
0.0
 10
9.263411652563881
 20
3.881573733365178
 30
0.0
 10
9.264151250400008
 20
3.871963014167479
 30
0.0
  0
LINE
  5
2E2
330
6C
100
AcDbEntity
  8
Visible (ANSI)
100
AcDbLine
 10
9.203271250400007
 20
3.9784259265239
 30
0.0
 11
9.226151250400008
 21
3.9784259265239
 31
0.0
  0
LINE
  5
2E3
330
6C
100
AcDbEntity
  8
Visible (ANSI)
100
AcDbLine
 10
9.174151250400006
 20
3.9784259265239
 30
0.0
 11
9.203271250400007
 21
3.9784259265239
 31
0.0
  0
SPLINE
  5
2E4
330
6C
100
AcDbEntity
  8
Visible (ANSI)
100
AcDbSpline
210
0.0
220
0.0
230
1.0
 70
     8
 71
     3
 72
    12
 73
     8
 74
     0
 42
0.0000000001
 43
0.0000000001
 40
0.0
 40
0.0
 40
0.0
 40
0.0
 40
0.0800114825630928
 40
0.0800114825630928
 40
0.2001877504359146
 40
0.2001877504359146
 40
0.3203652072144746
 40
0.3203652072144746
 40
0.3203652072144746
 40
0.3203652072144746
 10
9.193211564053395
 20
9.343389408559968
 30
0.0
 10
9.197406436698509
 20
9.351376192476097
 30
0.0
 10
9.20219822018792
 20
9.359336863115714
 30
0.0
 10
9.215449930598353
 20
9.37931942997752
 30
0.0
 10
9.224447006243686
 20
9.391228844137824
 30
0.0
 10
9.243748855594855
 20
9.415220742462865
 30
0.0
 10
9.253912773263811
 20
9.427129759992388
 30
0.0
 10
9.264151250400008
 20
9.43912592985189
 30
0.0
  0
LINE
  5
2E5
330
6C
100
AcDbEntity
  8
Visible Narrow (ANSI)
100
AcDbLine
 10
9.234198938386994
 20
9.343389408559968
 30
0.0
 11
9.193211564053395
 21
9.343389408559968
 31
0.0
  0
SPLINE
  5
2E6
330
6C
100
AcDbEntity
  8
Visible (ANSI)
100
AcDbSpline
210
0.0
220
0.0
230
1.0
 70
     8
 71
     3
 72
    10
 73
     6
 74
     0
 42
0.0000000001
 43
0.0000000001
 40
0.0
 40
0.0
 40
0.0
 40
0.0
 40
0.1297924688879781
 40
0.1297924688879781
 40
0.2595849389066674
 40
0.2595849389066674
 40
0.2595849389066674
 40
0.2595849389066674
 10
9.264151250400008
 20
9.43912592985189
 30
0.0
 10
9.25837662314263
 20
9.423101533470303
 30
0.0
 10
9.252677213074809
 20
9.407282039678458
 30
0.0
 10
9.242297540629335
 20
9.375233299007293
 30
0.0
 10
9.237752616173965
 20
9.35941380508115
 30
0.0
 10
9.234198938386994
 20
9.343389408559968
 30
0.0
  0
SPLINE
  5
2E7
330
6C
100
AcDbEntity
  8
Visible (ANSI)
100
AcDbSpline
210
0.0
220
0.0
230
1.0
 70
     8
 71
     3
 72
    10
 73
     6
 74
     0
 42
0.0000000001
 43
0.0000000001
 40
0.0
 40
0.0
 40
0.0
 40
0.0
 40
0.118743169776269
 40
0.118743169776269
 40
0.2382043529275197
 40
0.2382043529275197
 40
0.2382043529275197
 40
0.2382043529275197
 10
9.174151250400006
 20
9.286471777740825
 30
0.0
 10
9.174151250400006
 20
9.2961186976889
 30
0.0
 10
9.176568331053902
 20
9.305101498053073
 30
0.0
 10
9.182077818497065
 20
9.32072652316048
 30
0.0
 10
9.186255225400284
 20
9.330166253812448
 30
0.0
 10
9.193211578536059
 20
9.343389388441856
 30
0.0
  0
LINE
  5
2E8
330
6C
100
AcDbEntity
  8
Visible (ANSI)
100
AcDbLine
 10
9.203271250400007
 20
9.286471777740825
 30
0.0
 11
9.174151250400006
 21
9.286471777740825
 31
0.0
  0
LINE
  5
2E9
330
6C
100
AcDbEntity
  8
Visible (ANSI)
100
AcDbLine
 10
9.226151250400008
 20
9.286471777740825
 30
0.0
 11
9.203271250400007
 21
9.286471777740825
 31
0.0
  0
SPLINE
  5
2EA
330
6C
100
AcDbEntity
  8
Visible (ANSI)
100
AcDbSpline
210
0.0
220
0.0
230
1.0
 70
     8
 71
     3
 72
    12
 73
     8
 74
     0
 42
0.0000000001
 43
0.0000000001
 40
0.0
 40
0.0
 40
0.0
 40
0.0
 40
0.0441126762235112
 40
0.0441126762235112
 40
0.1059624532797741
 40
0.1059624532797741
 40
0.1626723217437075
 40
0.1626723217437075
 40
0.1626723217437075
 40
0.1626723217437075
 10
9.234198946321516
 20
9.343389396633904
 30
0.0
 10
9.232990301714856
 20
9.337943670952814
 30
0.0
 10
9.231895966865288
 20
9.332794049064876
 30
0.0
 10
9.229456556415337
 20
9.320257119227253
 30
0.0
 10
9.228244087798486
 20
9.313063416764387
 30
0.0
 10
9.226620203275068
 20
9.299399268826707
 30
0.0
 10
9.226151250400008
 20
9.292934669915016
 30
0.0
 10
9.226151250400008
 20
9.286471777740825
 30
0.0
  0
LINE
  5
2EB
330
6C
100
AcDbEntity
  8
Visible Narrow (ANSI)
100
AcDbLine
 10
9.264151250400008
 20
9.439125929851888
 30
0.0
 11
9.264151250400008
 21
7.859537393638787
 31
0.0
  0
LINE
  5
2EC
330
6C
100
AcDbEntity
  8
Visible Narrow (ANSI)
100
AcDbLine
 10
9.264151250400008
 20
7.353939857022877
 30
0.0
 11
9.264151250400008
 21
6.109537393638786
 31
0.0
  0
LINE
  5
2ED
330
6C
100
AcDbEntity
  8
Visible Narrow (ANSI)
100
AcDbLine
 10
9.264151250400008
 20
5.603939857022877
 30
0.0
 11
9.264151250400008
 21
3.871963014167479
 31
0.0
  0
ELLIPSE
  5
2EE
330
6C
100
AcDbEntity
  8
Visible (ANSI)
100
AcDbEllipse
 10
9.112275595737171
 20
1.341836032204248
 30
0.0
 11
0.1039999999999997
 21
0.0000000000000002
 31
0.0
210
0.0
220
0.0
230
1.0
 40
0.7071067811865478
 41
4.712388980384687
 42
6.283185307179586
  0
LINE
  5
2EF
330
6C
100
AcDbEntity
  8
Visible Narrow (ANSI)
100
AcDbLine
 10
9.164275595737171
 20
1.341836032204248
 30
0.0
 11
9.216275595737171
 21
1.341836032204248
 31
0.0
  0
ELLIPSE
  5
2F0
330
6C
100
AcDbEntity
  8
Visible (ANSI)
100
AcDbEllipse
 10
9.112275595737171
 20
1.341836032204248
 30
0.0
 11
0.052
 21
-0.0000000000000001
 31
0.0
210
0.0
220
0.0
230
1.0
 40
0.7071067811865478
 41
4.71238898038469
 42
6.283185307179594
  0
LINE
  5
2F1
330
6C
100
AcDbEntity
  8
Visible Narrow (ANSI)
100
AcDbLine
 10
9.112275595737171
 20
1.268296926960847
 30
0.0
 11
9.112275595737171
 21
1.305066479582547
 31
0.0
  0
SPLINE
  5
2F2
330
6C
100
AcDbEntity
  8
Visible (ANSI)
100
AcDbSpline
210
0.0
220
0.0
230
1.0
 70
     8
 71
     3
 72
    20
 73
    16
 74
     0
 42
0.0000000001
 43
0.0000000001
 40
0.0
 40
0.0
 40
0.0
 40
0.0
 40
0.0212505109555761
 40
0.0212505109555761
 40
0.0502700987444427
 40
0.0502700987444427
 40
0.0739596752965142
 40
0.0739596752965142
 40
0.095727407775934
 40
0.095727407775934
 40
0.1184632751069114
 40
0.1184632751069114
 40
0.1409814803697959
 40
0.1409814803697959
 40
0.1732631605018713
 40
0.1732631605018713
 40
0.1732631605018713
 40
0.1732631605018713
 10
9.164275595737171
 20
1.783921379958706
 30
0.0
 10
9.164275595737171
 20
1.781162315419731
 30
0.0
 10
9.164213305350813
 20
1.777216493933212
 30
0.0
 10
9.163116627835046
 20
1.76647964438762
 30
0.0
 10
9.161854872076361
 20
1.760718265431588
 30
0.0
 10
9.158047435625551
 20
1.751506917807413
 30
0.0
 10
9.155778860580353
 20
1.74782684929405
 30
0.0
 10
9.150262421567409
 20
1.742088451808651
 30
0.0
 10
9.147210155007027
 20
1.740031919219407
 30
0.0
 10
9.14037266843432
 20
1.737384255907115
 30
0.0
 10
9.13670014648979
 20
1.736913146056446
 30
0.0
 10
9.129415706856114
 20
1.737507626316054
 30
0.0
 10
9.125898792430364
 20
1.738547514969269
 30
0.0
 10
9.117888519773918
 20
1.742406963521021
 30
0.0
 10
9.114400279776516
 20
1.74543313930295
 30
0.0
 10
9.11227559573717
 20
1.747486869131624
 30
0.0
  0
LINE
  5
2F3
330
6C
100
AcDbEntity
  8
Visible Narrow (ANSI)
100
AcDbLine
 10
9.112275595737171
 20
1.305066479582547
 30
0.0
 11
9.112275595737171
 21
1.747486869131624
 31
0.0
  0
SPLINE
  5
2F4
330
6C
100
AcDbEntity
  8
Visible (ANSI)
100
AcDbSpline
210
0.0
220
0.0
230
1.0
 70
     8
 71
     3
 72
    20
 73
    16
 74
     0
 42
0.0000000001
 43
0.0000000001
 40
0.0
 40
0.0
 40
0.0
 40
0.0
 40
0.021310576099318
 40
0.021310576099318
 40
0.0505839085943616
 40
0.0505839085943616
 40
0.0743931382979775
 40
0.0743931382979775
 40
0.0962051165753044
 40
0.0962051165753044
 40
0.1188954899765515
 40
0.1188954899765515
 40
0.1412884715855117
 40
0.1412884715855117
 40
0.1732751308050367
 40
0.1732751308050367
 40
0.1732751308050367
 40
0.1732751308050367
 10
7.667896824687573
 20
1.747486869131625
 30
0.0
 10
7.666245617934046
 20
1.745890804728529
 30
0.0
 10
7.663783109786917
 20
1.743717930721202
 30
0.0
 10
7.656137112761539
 20
1.739076254824489
 30
0.0
 10
7.651414115246489
 20
1.737486654065256
 30
0.0
 10
7.64286686091834
 20
1.736930916617835
 30
0.0
 10
7.639035306686628
 20
1.737531699325155
 30
0.0
 10
7.6321213804254
 20
1.740532814976663
 30
0.0
 10
7.629133934959739
 20
1.742723965543633
 30
0.0
 10
7.623907746570773
 20
1.748565077369675
 30
0.0
 10
7.621805921115788
 20
1.752151349932574
 30
0.0
 10
7.618640265969531
 20
1.760080177395446
 30
0.0
 10
7.617598885290013
 20
1.764308804785336
 30
0.0
 10
7.615979903640407
 20
1.774879939363874
 30
0.0
 10
7.615896824687572
 20
1.780377112901659
 30
0.0
 10
7.615896824687572
 20
1.783921379958705
 30
0.0
  0
ELLIPSE
  5
2F5
330
6C
100
AcDbEntity
  8
Visible (ANSI)
100
AcDbEllipse
 10
7.667896824687573
 20
1.341836032204248
 30
0.0
 11
-0.104
 21
-0.0000000000000008
 31
0.0
210
0.0
220
0.0
230
1.0
 40
0.7071067811865478
 41
0.0
 42
1.570796326794891
  0
ELLIPSE
  5
2F6
330
6C
100
AcDbEntity
  8
Visible (ANSI)
100
AcDbEllipse
 10
7.667896824687573
 20
1.341836032204248
 30
0.0
 11
-0.0520000000000001
 21
-0.0000000000000017
 31
0.0
210
0.0
220
0.0
230
1.0
 40
0.7071067811865472
 41
0.0
 42
1.570796326794845
  0
ENDSEC
  0
SECTION
  2
OBJECTS
  0
DICTIONARY
  5
C
330
0
100
AcDbDictionary
281
     1
  3
ACAD_CIP_PREVIOUS_PRODUCT_INFO
350
2F7
  3
ACAD_COLOR
350
63
  3
ACAD_GROUP
350
D
  3
ACAD_LAYOUT
350
62
  3
ACAD_MATERIAL
350
10
  3
ACAD_MLEADERSTYLE
350
66
  3
ACAD_MLINESTYLE
350
5F
  3
ACAD_PLOTSETTINGS
350
61
  3
ACAD_PLOTSTYLENAME
350
E
  3
ACAD_SCALELIST
350
42
  3
ACAD_TABLESTYLE
350
64
  3
ACAD_VISUALSTYLE
350
29
  3
ACDB_RECOMPOSE_DATA
350
34F
  3
AcDbVariableDictionary
350
76
  3
DWGPROPS
350
350
  0
DICTIONARY
  5
2FE
330
8
100
AcDbDictionary
280
     1
281
     1
  0
XRECORD
  5
2F7
102
{ACAD_REACTORS
330
C
102
}
330
C
100
AcDbXrecord
280
     1
300
AMECH_PP
300
2012
300
85796PDSU_2012_0F
  0
DICTIONARY
  5
63
102
{ACAD_REACTORS
330
C
102
}
330
C
100
AcDbDictionary
281
     1
  0
DICTIONARY
  5
D
102
{ACAD_REACTORS
330
C
102
}
330
C
100
AcDbDictionary
281
     1
  0
DICTIONARY
  5
62
102
{ACAD_REACTORS
330
C
102
}
330
C
100
AcDbDictionary
281
     1
  3
Layout1
350
6B
  3
Layout2
350
73
  3
Model
350
6F
  0
DICTIONARY
  5
10
102
{ACAD_REACTORS
330
C
102
}
330
C
100
AcDbDictionary
281
     1
  3
ByBlock
350
19
  3
ByLayer
350
11
  3
Global
350
21
  0
DICTIONARY
  5
66
102
{ACAD_REACTORS
330
C
102
}
330
C
100
AcDbDictionary
281
     1
  3
Standard
350
67
  0
DICTIONARY
  5
5F
102
{ACAD_REACTORS
330
C
102
}
330
C
100
AcDbDictionary
281
     1
  3
Standard
350
60
  0
DICTIONARY
  5
61
102
{ACAD_REACTORS
330
C
102
}
330
C
100
AcDbDictionary
281
     1
  0
ACDBDICTIONARYWDFLT
  5
E
102
{ACAD_REACTORS
330
C
102
}
330
C
100
AcDbDictionary
281
     1
  3
Normal
350
F
100
AcDbDictionaryWithDefault
340
F
  0
DICTIONARY
  5
42
102
{ACAD_REACTORS
330
C
102
}
330
C
100
AcDbDictionary
281
     1
  3
A0
350
43
  3
A1
350
44
  3
A2
350
45
  3
A3
350
46
  3
A4
350
47
  3
A5
350
48
  3
A6
350
49
  3
A7
350
4A
  3
A8
350
4B
  3
A9
350
4C
  3
B0
350
4D
  3
B1
350
4E
  3
B2
350
4F
  3
B3
350
50
  3
B4
350
51
  3
B5
350
52
  3
B6
350
53
  0
DICTIONARY
  5
64
102
{ACAD_REACTORS
330
C
102
}
330
C
100
AcDbDictionary
281
     1
  3
Standard
350
65
  0
DICTIONARY
  5
29
102
{ACAD_REACTORS
330
C
102
}
330
C
100
AcDbDictionary
281
     1
  3
2dWireframe
350
2F
  3
Basic
350
2E
  3
Brighten
350
35
  3
ColorChange
350
39
  3
Conceptual
350
32
  3
Dim
350
34
  3
EdgeColorOff
350
41
  3
Facepattern
350
38
  3
Flat
350
2A
  3
FlatWithEdges
350
2B
  3
Gouraud
350
2C
  3
GouraudWithEdges
350
2D
  3
Hidden
350
31
  3
JitterOff
350
3F
  3
Linepattern
350
37
  3
OverhangOff
350
40
  3
Realistic
350
33
  3
Shaded
350
3E
  3
Shaded with edges
350
3D
  3
Shades of Gray
350
3A
  3
Sketchy
350
3B
  3
Thicken
350
36
  3
Wireframe
350
30
  3
X-Ray
350
3C
  0
XRECORD
  5
34F
102
{ACAD_REACTORS
330
C
102
}
330
C
100
AcDbXrecord
280
     1
 90
        1
330
65
  0
DICTIONARY
  5
76
102
{ACAD_REACTORS
330
C
102
}
330
C
100
AcDbDictionary
281
     1
  3
CANNOSCALE
350
79
  3
CMLEADERSTYLE
350
78
  3
CTABLESTYLE
350
77
  3
DIMASSOC
350
342
  3
HIDETEXT
350
341
  3
INDEXCTL
350
340
  3
LAYEREVAL
350
33D
  3
LAYERNOTIFY
350
33E
  3
LIGHTINGUNITS
350
33C
  3
MSLTSCALE
350
33B
  3
SORTENTS
350
33F
  3
XCLIPFRAME
350
34A
  0
XRECORD
  5
350
102
{ACAD_REACTORS
330
C
102
}
330
C
100
AcDbXrecord
280
     1
  1
DWGPROPS COOKIE
  2

  3

  4
JIM WALLS
  6

  7

  8
jwalls
  9

300
Manager=
301
Company=
302
Category=
303
Part Number=
304
Description=
305
Project=
306
Designer=JIM WALLS
307
Engineer=
308
Authority=
309
Cost Center=
 40
0.0019236921296296
 41
2456038.565394849
 42
2456038.591128461
  1

 90
       16
300
Vendor=
300
User Status=
300
Design Status=WorkInProgress
300
Checked by=
300
Engr Approved by=
300
Mfg Approved by=
  0
LAYOUT
  5
6B
102
{ACAD_XDICTIONARY
360
385
102
}
102
{ACAD_REACTORS
330
62
102
}
330
62
100
AcDbPlotSettings
  1

  2

  4

  6

 40
0.0
 41
0.0
 42
0.0
 43
0.0
 44
0.0
 45
0.0
 46
0.0
 47
0.0
 48
0.0
 49
0.0
140
0.0
141
0.0
142
1.0
143
1.0
 70
   688
 72
     0
 73
     0
 74
     5
  7

 75
    16
147
1.0
148
0.0
149
0.0
100
AcDbLayout
  1
Layout1
 70
     1
 71
     1
 10
0.0
 20
0.0
 11
17.0
 21
11.0
 12
0.0
 22
0.0
 32
0.0
 14
0.0
 24
0.0
 34
0.0
 15
17.0
 25
11.0
 35
0.0
146
0.0
 13
0.0
 23
0.0
 33
0.0
 16
1.0
 26
0.0
 36
0.0
 17
0.0
 27
1.0
 37
0.0
 76
     0
330
68
  0
LAYOUT
  5
73
102
{ACAD_XDICTIONARY
360
389
102
}
102
{ACAD_REACTORS
330
62
102
}
330
62
100
AcDbPlotSettings
  1

  2

  4

  6

 40
0.0
 41
0.0
 42
0.0
 43
0.0
 44
0.0
 45
0.0
 46
0.0
 47
0.0
 48
0.0
 49
0.0
140
0.0
141
0.0
142
1.0
143
1.0
 70
   688
 72
     0
 73
     0
 74
     5
  7

 75
    16
147
1.0
148
0.0
149
0.0
100
AcDbLayout
  1
Layout2
 70
     1
 71
     2
 10
0.0
 20
0.0
 11
12.0
 21
9.0
 12
0.0
 22
0.0
 32
0.0
 14
0.0
 24
0.0
 34
0.0
 15
0.0
 25
0.0
 35
0.0
146
0.0
 13
0.0
 23
0.0
 33
0.0
 16
1.0
 26
0.0
 36
0.0
 17
0.0
 27
1.0
 37
0.0
 76
     0
330
70
  0
LAYOUT
  5
6F
102
{ACAD_XDICTIONARY
360
387
102
}
102
{ACAD_REACTORS
330
62
102
}
330
62
100
AcDbPlotSettings
  1

  2

  4

  6

 40
0.0
 41
0.0
 42
0.0
 43
0.0
 44
0.0
 45
0.0
 46
0.0
 47
0.0
 48
0.0
 49
0.0
140
0.0
141
0.0
142
1.0
143
1.0
 70
  1712
 72
     0
 73
     0
 74
     0
  7

 75
     0
147
1.0
148
0.0
149
0.0
100
AcDbLayout
  1
Model
 70
     1
 71
     0
 10
0.0
 20
0.0
 11
12.0
 21
9.0
 12
0.0
 22
0.0
 32
0.0
 14
0.0
 24
0.0
 34
0.0
 15
0.0
 25
0.0
 35
0.0
146
0.0
 13
0.0
 23
0.0
 33
0.0
 16
1.0
 26
0.0
 36
0.0
 17
0.0
 27
1.0
 37
0.0
 76
     0
330
6C
331
57
  0
MATERIAL
  5
19
102
{ACAD_XDICTIONARY
360
1A
102
}
102
{ACAD_REACTORS
330
10
102
}
330
10
100
AcDbMaterial
  1
ByBlock
 72
     0
 43
0.0208333333333333
 43
0.0
 43
0.0
 43
0.0
 43
0.0
 43
0.0208333333333333
 43
0.0
 43
0.0
 43
0.0
 43
0.0
 43
1.0
 43
0.0
 43
0.0
 43
0.0
 43
0.0
 43
1.0
 77
     0
 47
0.0208333333333333
 47
0.0
 47
0.0
 47
0.0
 47
0.0
 47
0.0208333333333333
 47
0.0
 47
0.0
 47
0.0
 47
0.0
 47
1.0
 47
0.0
 47
0.0
 47
0.0
 47
0.0
 47
1.0
171
     0
 49
0.0208333333333333
 49
0.0
 49
0.0
 49
0.0
 49
0.0
 49
0.0208333333333333
 49
0.0
 49
0.0
 49
0.0
 49
0.0
 49
1.0
 49
0.0
 49
0.0
 49
0.0
 49
0.0
 49
1.0
175
     0
142
0.0208333333333333
142
0.0
142
0.0
142
0.0
142
0.0
142
0.0208333333333333
142
0.0
142
0.0
142
0.0
142
0.0
142
1.0
142
0.0
142
0.0
142
0.0
142
0.0
142
1.0
179
     0
144
0.0208333333333333
144
0.0
144
0.0
144
0.0
144
0.0
144
0.0208333333333333
144
0.0
144
0.0
144
0.0
144
0.0
144
1.0
144
0.0
144
0.0
144
0.0
144
0.0
144
1.0
147
0.0208333333333333
147
0.0
147
0.0
147
0.0
147
0.0
147
0.0208333333333333
147
0.0
147
0.0
147
0.0
147
0.0
147
1.0
147
0.0
147
0.0
147
0.0
147
0.0
147
1.0
  0
MATERIAL
  5
11
102
{ACAD_XDICTIONARY
360
12
102
}
102
{ACAD_REACTORS
330
10
102
}
330
10
100
AcDbMaterial
  1
ByLayer
 72
     0
 43
0.0208333333333333
 43
0.0
 43
0.0
 43
0.0
 43
0.0
 43
0.0208333333333333
 43
0.0
 43
0.0
 43
0.0
 43
0.0
 43
1.0
 43
0.0
 43
0.0
 43
0.0
 43
0.0
 43
1.0
 77
     0
 47
0.0208333333333333
 47
0.0
 47
0.0
 47
0.0
 47
0.0
 47
0.0208333333333333
 47
0.0
 47
0.0
 47
0.0
 47
0.0
 47
1.0
 47
0.0
 47
0.0
 47
0.0
 47
0.0
 47
1.0
171
     0
 49
0.0208333333333333
 49
0.0
 49
0.0
 49
0.0
 49
0.0
 49
0.0208333333333333
 49
0.0
 49
0.0
 49
0.0
 49
0.0
 49
1.0
 49
0.0
 49
0.0
 49
0.0
 49
0.0
 49
1.0
175
     0
142
0.0208333333333333
142
0.0
142
0.0
142
0.0
142
0.0
142
0.0208333333333333
142
0.0
142
0.0
142
0.0
142
0.0
142
1.0
142
0.0
142
0.0
142
0.0
142
0.0
142
1.0
179
     0
144
0.0208333333333333
144
0.0
144
0.0
144
0.0
144
0.0
144
0.0208333333333333
144
0.0
144
0.0
144
0.0
144
0.0
144
1.0
144
0.0
144
0.0
144
0.0
144
0.0
144
1.0
147
0.0208333333333333
147
0.0
147
0.0
147
0.0
147
0.0
147
0.0208333333333333
147
0.0
147
0.0
147
0.0
147
0.0
147
1.0
147
0.0
147
0.0
147
0.0
147
0.0
147
1.0
  0
MATERIAL
  5
21
102
{ACAD_XDICTIONARY
360
22
102
}
102
{ACAD_REACTORS
330
10
102
}
330
10
100
AcDbMaterial
  1
Global
 72
     0
 43
0.0208333333333333
 43
0.0
 43
0.0
 43
0.0
 43
0.0
 43
0.0208333333333333
 43
0.0
 43
0.0
 43
0.0
 43
0.0
 43
1.0
 43
0.0
 43
0.0
 43
0.0
 43
0.0
 43
1.0
 77
     0
 47
0.0208333333333333
 47
0.0
 47
0.0
 47
0.0
 47
0.0
 47
0.0208333333333333
 47
0.0
 47
0.0
 47
0.0
 47
0.0
 47
1.0
 47
0.0
 47
0.0
 47
0.0
 47
0.0
 47
1.0
171
     0
 49
0.0208333333333333
 49
0.0
 49
0.0
 49
0.0
 49
0.0
 49
0.0208333333333333
 49
0.0
 49
0.0
 49
0.0
 49
0.0
 49
1.0
 49
0.0
 49
0.0
 49
0.0
 49
0.0
 49
1.0
175
     0
142
0.0208333333333333
142
0.0
142
0.0
142
0.0
142
0.0
142
0.0208333333333333
142
0.0
142
0.0
142
0.0
142
0.0
142
1.0
142
0.0
142
0.0
142
0.0
142
0.0
142
1.0
179
     0
144
0.0208333333333333
144
0.0
144
0.0
144
0.0
144
0.0
144
0.0208333333333333
144
0.0
144
0.0
144
0.0
144
0.0
144
1.0
144
0.0
144
0.0
144
0.0
144
0.0
144
1.0
147
0.0208333333333333
147
0.0
147
0.0
147
0.0
147
0.0
147
0.0208333333333333
147
0.0
147
0.0
147
0.0
147
0.0
147
1.0
147
0.0
147
0.0
147
0.0
147
0.0
147
1.0
  0
MLEADERSTYLE
  5
67
102
{ACAD_XDICTIONARY
360
34D
102
}
102
{ACAD_REACTORS
330
66
102
}
330
66
100
AcDbMLeaderStyle
170
     2
171
     1
172
     0
 90
        2
 40
0.0
 41
0.0
173
     1
 91
-1056964608
340
5B
 92
       -2
290
     1
 42
0.09
291
     1
 43
0.36
  3
Standard
 44
0.18
300

342
55
174
     1
178
     6
175
     1
176
     0
 93
-1056964608
 45
0.18
292
     0
297
     0
 46
0.18
 94
-1056964608
 47
1.0
 49
1.0
140
1.0
293
     1
141
0.0
294
     1
177
     0
142
1.0
295
     0
296
     0
143
0.125
1001
ACAD_MLEADERVER
1070
     2
  0
MLINESTYLE
  5
60
102
{ACAD_REACTORS
330
5F
102
}
330
5F
100
AcDbMlineStyle
  2
STANDARD
 70
     0
  3

 62
   256
 51
90.0
 52
90.0
 71
     2
 49
0.5
 62
   256
  6
BYLAYER
 49
-0.5
 62
   256
  6
BYLAYER
  0
ACDBPLACEHOLDER
  5
F
102
{ACAD_REACTORS
330
E
102
}
330
E
  0
SCALE
  5
43
102
{ACAD_REACTORS
330
42
102
}
330
42
100
AcDbScale
 70
     0
300
1:1
140
1.0
141
1.0
290
     1
  0
SCALE
  5
44
102
{ACAD_REACTORS
330
42
102
}
330
42
100
AcDbScale
 70
     0
300
1/128" = 1'-0"
140
0.0078125
141
12.0
290
     0
  0
SCALE
  5
45
102
{ACAD_REACTORS
330
42
102
}
330
42
100
AcDbScale
 70
     0
300
1/64" = 1'-0"
140
0.015625
141
12.0
290
     0
  0
SCALE
  5
46
102
{ACAD_REACTORS
330
42
102
}
330
42
100
AcDbScale
 70
     0
300
1/32" = 1'-0"
140
0.03125
141
12.0
290
     0
  0
SCALE
  5
47
102
{ACAD_REACTORS
330
42
102
}
330
42
100
AcDbScale
 70
     0
300
1/16" = 1'-0"
140
0.0625
141
12.0
290
     0
  0
SCALE
  5
48
102
{ACAD_REACTORS
330
42
102
}
330
42
100
AcDbScale
 70
     0
300
3/32" = 1'-0"
140
0.09375
141
12.0
290
     0
  0
SCALE
  5
49
102
{ACAD_REACTORS
330
42
102
}
330
42
100
AcDbScale
 70
     0
300
1/8" = 1'-0"
140
0.125
141
12.0
290
     0
  0
SCALE
  5
4A
102
{ACAD_REACTORS
330
42
102
}
330
42
100
AcDbScale
 70
     0
300
3/16" = 1'-0"
140
0.1875
141
12.0
290
     0
  0
SCALE
  5
4B
102
{ACAD_REACTORS
330
42
102
}
330
42
100
AcDbScale
 70
     0
300
1/4" = 1'-0"
140
0.25
141
12.0
290
     0
  0
SCALE
  5
4C
102
{ACAD_REACTORS
330
42
102
}
330
42
100
AcDbScale
 70
     0
300
3/8" = 1'-0"
140
0.375
141
12.0
290
     0
  0
SCALE
  5
4D
102
{ACAD_REACTORS
330
42
102
}
330
42
100
AcDbScale
 70
     0
300
1/2" = 1'-0"
140
0.5
141
12.0
290
     0
  0
SCALE
  5
4E
102
{ACAD_REACTORS
330
42
102
}
330
42
100
AcDbScale
 70
     0
300
3/4" = 1'-0"
140
0.75
141
12.0
290
     0
  0
SCALE
  5
4F
102
{ACAD_REACTORS
330
42
102
}
330
42
100
AcDbScale
 70
     0
300
1" = 1'-0"
140
1.0
141
12.0
290
     0
  0
SCALE
  5
50
102
{ACAD_REACTORS
330
42
102
}
330
42
100
AcDbScale
 70
     0
300
1-1/2" = 1'-0"
140
1.5
141
12.0
290
     0
  0
SCALE
  5
51
102
{ACAD_REACTORS
330
42
102
}
330
42
100
AcDbScale
 70
     0
300
3" = 1'-0"
140
3.0
141
12.0
290
     0
  0
SCALE
  5
52
102
{ACAD_REACTORS
330
42
102
}
330
42
100
AcDbScale
 70
     0
300
6" = 1'-0"
140
6.0
141
12.0
290
     0
  0
SCALE
  5
53
102
{ACAD_REACTORS
330
42
102
}
330
42
100
AcDbScale
 70
     0
300
1'-0" = 1'-0"
140
12.0
141
12.0
290
     0
  0
TABLESTYLE
  5
65
102
{ACAD_XDICTIONARY
360
2F8
102
}
102
{ACAD_REACTORS
330
64
102
}
330
64
100
AcDbTableStyle
  3
Standard
 70
     0
 71
     0
 40
0.06
 41
0.06
280
     0
281
     0
  7
Standard
140
0.18
170
     2
 62
     0
 63
     7
283
     0
274
    -2
284
     1
 64
     0
275
    -2
285
     1
 65
     0
276
    -2
286
     1
 66
     0
277
    -2
287
     1
 67
     0
278
    -2
288
     1
 68
     0
279
    -2
289
     1
 69
     0
  7
Standard
140
0.25
170
     5
 62
     0
 63
     7
283
     0
274
    -2
284
     1
 64
     0
275
    -2
285
     1
 65
     0
276
    -2
286
     1
 66
     0
277
    -2
287
     1
 67
     0
278
    -2
288
     1
 68
     0
279
    -2
289
     1
 69
     0
  7
Standard
140
0.18
170
     5
 62
     0
 63
     7
283
     0
274
    -2
284
     1
 64
     0
275
    -2
285
     1
 65
     0
276
    -2
286
     1
 66
     0
277
    -2
287
     1
 67
     0
278
    -2
288
     1
 68
     0
279
    -2
289
     1
 69
     0
  0
VISUALSTYLE
  5
2F
102
{ACAD_XDICTIONARY
360
35E
102
}
102
{ACAD_REACTORS
330
29
102
}
330
29
100
AcDbVisualStyle
  2
2dWireframe
 70
     4
 71
     0
 72
     2
 73
     0
 90
        0
 40
-0.6
 41
-30.0
 62
     5
 63
     7
 74
     1
 91
        4
 64
     7
 65
   257
 75
     1
175
     1
 42
1.0
 92
        0
 66
   257
 43
1.0
 76
     1
 77
     6
 78
     2
 67
     7
 79
     5
170
     0
171
     0
290
     0
174
     0
 93
        1
 44
0.0
173
     0
291
     0
 45
0.0
1001
ACAD
1000
AcDbSavedByObjectVersion
1070
     0
  0
VISUALSTYLE
  5
2E
102
{ACAD_XDICTIONARY
360
35C
102
}
102
{ACAD_REACTORS
330
29
102
}
330
29
100
AcDbVisualStyle
  2
Basic
 70
     7
 71
     1
 72
     0
 73
     1
 90
        0
 40
-0.6
 41
-30.0
 62
     5
 63
     7
 74
     0
 91
        4
 64
     7
 65
   257
 75
     1
175
     1
 42
1.0
 92
        8
 66
     7
 43
1.0
 76
     1
 77
     6
 78
     2
 67
     7
 79
     5
170
     0
171
     0
290
     0
174
     0
 93
        1
 44
0.0
173
     0
291
     1
 45
0.0
1001
ACAD
1000
AcDbSavedByObjectVersion
1070
     0
  0
VISUALSTYLE
  5
35
102
{ACAD_XDICTIONARY
360
36A
102
}
102
{ACAD_REACTORS
330
29
102
}
330
29
100
AcDbVisualStyle
  2
Brighten
 70
    12
 71
     2
 72
     2
 73
     0
 90
        0
 40
-0.6
 41
-30.0
 62
     5
 63
     7
 74
     1
 91
        4
 64
     7
 65
   257
 75
     1
175
     1
 42
1.0
 92
        8
 66
     7
 43
1.0
 76
     1
 77
     6
 78
     2
 67
     7
 79
     5
170
     0
171
     0
290
     0
174
     0
 93
        1
 44
50.0
173
     0
291
     1
 45
0.0
1001
ACAD
1000
AcDbSavedByObjectVersion
1070
     0
  0
VISUALSTYLE
  5
39
102
{ACAD_XDICTIONARY
360
372
102
}
102
{ACAD_REACTORS
330
29
102
}
330
29
100
AcDbVisualStyle
  2
ColorChange
 70
    16
 71
     2
 72
     2
 73
     3
 90
        0
 40
-0.6
 41
-30.0
 62
     5
 63
     8
 74
     1
 91
        4
 64
     7
 65
   257
 75
     1
175
     1
 42
1.0
 92
        8
 66
     8
 43
1.0
 76
     1
 77
     6
 78
     2
 67
     7
 79
     5
170
     0
171
     0
290
     0
174
     0
 93
        1
 44
0.0
173
     0
291
     1
 45
0.0
1001
ACAD
1000
AcDbSavedByObjectVersion
1070
     0
  0
VISUALSTYLE
  5
32
102
{ACAD_XDICTIONARY
360
364
102
}
102
{ACAD_REACTORS
330
29
102
}
330
29
100
AcDbVisualStyle
  2
Conceptual
 70
     9
 71
     3
 72
     2
 73
     0
 90
        0
 40
-0.6
 41
-30.0
 62
     5
 63
     7
 74
     2
 91
        2
 64
     7
 65
   257
 75
     1
175
     1
 42
179.0
 92
        8
 66
     7
 43
1.0
 76
     1
 77
     6
 78
     2
 67
     7
 79
     3
170
     0
171
     0
290
     0
174
     0
 93
        1
 44
0.0
173
     0
291
     0
 45
0.0
1001
ACAD
1000
AcDbSavedByObjectVersion
1070
     0
  0
VISUALSTYLE
  5
34
102
{ACAD_XDICTIONARY
360
368
102
}
102
{ACAD_REACTORS
330
29
102
}
330
29
100
AcDbVisualStyle
  2
Dim
 70
    11
 71
     2
 72
     2
 73
     0
 90
        0
 40
-0.6
 41
-30.0
 62
     5
 63
     7
 74
     1
 91
        4
 64
     7
 65
   257
 75
     1
175
     1
 42
1.0
 92
        8
 66
     7
 43
1.0
 76
     1
 77
     6
 78
     2
 67
     7
 79
     5
170
     0
171
     0
290
     0
174
     0
 93
        1
 44
-50.0
173
     0
291
     1
 45
0.0
1001
ACAD
1000
AcDbSavedByObjectVersion
1070
     0
  0
VISUALSTYLE
  5
41
102
{ACAD_XDICTIONARY
360
382
102
}
102
{ACAD_REACTORS
330
29
102
}
330
29
100
AcDbVisualStyle
  2
EdgeColorOff
 70
    22
 71
     2
 72
     2
 73
     0
 90
        0
 40
-0.6
 41
-30.0
 62
     5
 63
     7
 74
     1
 91
        4
 64
     7
 65
   257
 75
     1
175
     1
 42
1.0
 92
        8
 66
     7
 43
1.0
 76
     1
 77
     6
 78
     2
 67
     7
 79
     5
170
     0
171
     0
290
     0
174
     0
 93
        1
 44
0.0
173
     0
291
     1
 45
0.0
1001
ACAD
1000
AcDbSavedByObjectVersion
1070
     0
  0
VISUALSTYLE
  5
38
102
{ACAD_XDICTIONARY
360
370
102
}
102
{ACAD_REACTORS
330
29
102
}
330
29
100
AcDbVisualStyle
  2
Facepattern
 70
    15
 71
     2
 72
     2
 73
     0
 90
        0
 40
-0.6
 41
-30.0
 62
     5
 63
     7
 74
     1
 91
        4
 64
     7
 65
   257
 75
     1
175
     1
 42
1.0
 92
        8
 66
     7
 43
1.0
 76
     1
 77
     6
 78
     2
 67
     7
 79
     5
170
     0
171
     0
290
     0
174
     0
 93
        1
 44
0.0
173
     0
291
     1
 45
0.0
1001
ACAD
1000
AcDbSavedByObjectVersion
1070
     0
  0
VISUALSTYLE
  5
2A
102
{ACAD_XDICTIONARY
360
354
102
}
102
{ACAD_REACTORS
330
29
102
}
330
29
100
AcDbVisualStyle
  2
Flat
 70
     0
 71
     2
 72
     1
 73
     1
 90
        2
 40
-0.6
 41
30.0
 62
     5
 63
     7
 74
     0
 91
        0
 64
     7
 65
   257
 75
     1
175
     1
 42
1.0
 92
        8
 66
     7
 43
1.0
 76
     1
 77
     6
 78
     2
 67
     7
 79
     5
170
     0
171
     0
290
     0
174
     0
 93
       13
 44
0.0
173
     0
291
     1
 45
0.0
1001
ACAD
1000
AcDbSavedByObjectVersion
1070
     0
  0
VISUALSTYLE
  5
2B
102
{ACAD_XDICTIONARY
360
356
102
}
102
{ACAD_REACTORS
330
29
102
}
330
29
100
AcDbVisualStyle
  2
FlatWithEdges
 70
     1
 71
     2
 72
     1
 73
     1
 90
        2
 40
-0.6
 41
30.0
 62
     5
 63
     7
 74
     1
 91
        0
 64
     7
 65
   257
 75
     1
175
     1
 42
1.0
 92
        0
 66
   257
 43
1.0
 76
     1
 77
     6
 78
     2
 67
     7
 79
     5
170
     0
171
     0
290
     0
174
     0
 93
       13
 44
0.0
173
     0
291
     1
 45
0.0
1001
ACAD
1000
AcDbSavedByObjectVersion
1070
     0
  0
VISUALSTYLE
  5
2C
102
{ACAD_XDICTIONARY
360
358
102
}
102
{ACAD_REACTORS
330
29
102
}
330
29
100
AcDbVisualStyle
  2
Gouraud
 70
     2
 71
     2
 72
     2
 73
     1
 90
        2
 40
-0.6
 41
30.0
 62
     5
 63
     7
 74
     0
 91
        0
 64
     7
 65
   257
 75
     1
175
     1
 42
1.0
 92
        0
 66
     7
 43
1.0
 76
     1
 77
     6
 78
     2
 67
     7
 79
     5
170
     0
171
     0
290
     0
174
     0
 93
       13
 44
0.0
173
     0
291
     1
 45
0.0
1001
ACAD
1000
AcDbSavedByObjectVersion
1070
     0
  0
VISUALSTYLE
  5
2D
102
{ACAD_XDICTIONARY
360
35A
102
}
102
{ACAD_REACTORS
330
29
102
}
330
29
100
AcDbVisualStyle
  2
GouraudWithEdges
 70
     3
 71
     2
 72
     2
 73
     1
 90
        2
 40
-0.6
 41
30.0
 62
     5
 63
     7
 74
     1
 91
        0
 64
     7
 65
   257
 75
     1
175
     1
 42
1.0
 92
        0
 66
   257
 43
1.0
 76
     1
 77
     6
 78
     2
 67
     7
 79
     5
170
     0
171
     0
290
     0
174
     0
 93
       13
 44
0.0
173
     0
291
     1
 45
0.0
1001
ACAD
1000
AcDbSavedByObjectVersion
1070
     0
  0
VISUALSTYLE
  5
31
102
{ACAD_XDICTIONARY
360
362
102
}
102
{ACAD_REACTORS
330
29
102
}
330
29
100
AcDbVisualStyle
  2
Hidden
 70
     6
 71
     1
 72
     2
 73
     2
 90
        0
 40
-0.6
 41
-30.0
 62
     5
 63
     7
 74
     2
 91
        2
 64
     7
 65
   257
 75
     2
175
     1
 42
40.0
 92
        0
 66
   257
 43
1.0
 76
     1
 77
     6
 78
     2
 67
     7
 79
     3
170
     0
171
     0
290
     0
174
     0
 93
        1
 44
0.0
173
     0
291
     0
 45
0.0
1001
ACAD
1000
AcDbSavedByObjectVersion
1070
     0
  0
VISUALSTYLE
  5
3F
102
{ACAD_XDICTIONARY
360
37E
102
}
102
{ACAD_REACTORS
330
29
102
}
330
29
100
AcDbVisualStyle
  2
JitterOff
 70
    20
 71
     2
 72
     2
 73
     0
 90
        0
 40
-0.6
 41
-30.0
 62
     5
 63
     7
 74
     1
 91
        4
 64
     7
 65
   257
 75
     1
175
     1
 42
1.0
 92
       10
 66
     7
 43
1.0
 76
     1
 77
     6
 78
     2
 67
     7
 79
     5
170
     0
171
     0
290
     0
174
     0
 93
        1
 44
0.0
173
     0
291
     1
 45
0.0
1001
ACAD
1000
AcDbSavedByObjectVersion
1070
     0
  0
VISUALSTYLE
  5
37
102
{ACAD_XDICTIONARY
360
36E
102
}
102
{ACAD_REACTORS
330
29
102
}
330
29
100
AcDbVisualStyle
  2
Linepattern
 70
    14
 71
     2
 72
     2
 73
     0
 90
        0
 40
-0.6
 41
-30.0
 62
     5
 63
     7
 74
     1
 91
        4
 64
     7
 65
   257
 75
     7
175
     7
 42
1.0
 92
        8
 66
     7
 43
1.0
 76
     1
 77
     6
 78
     2
 67
     7
 79
     5
170
     0
171
     0
290
     0
174
     0
 93
        1
 44
0.0
173
     0
291
     1
 45
0.0
1001
ACAD
1000
AcDbSavedByObjectVersion
1070
     0
  0
VISUALSTYLE
  5
40
102
{ACAD_XDICTIONARY
360
380
102
}
102
{ACAD_REACTORS
330
29
102
}
330
29
100
AcDbVisualStyle
  2
OverhangOff
 70
    21
 71
     2
 72
     2
 73
     0
 90
        0
 40
-0.6
 41
-30.0
 62
     5
 63
     7
 74
     1
 91
        4
 64
     7
 65
   257
 75
     1
175
     1
 42
1.0
 92
        9
 66
     7
 43
1.0
 76
     1
 77
     6
 78
     2
 67
     7
 79
     5
170
     0
171
     0
290
     0
174
     0
 93
        1
 44
0.0
173
     0
291
     1
 45
0.0
1001
ACAD
1000
AcDbSavedByObjectVersion
1070
     0
  0
VISUALSTYLE
  5
33
102
{ACAD_XDICTIONARY
360
366
102
}
102
{ACAD_REACTORS
330
29
102
}
330
29
100
AcDbVisualStyle
  2
Realistic
 70
     8
 71
     2
 72
     2
 73
     0
 90
        2
 40
-0.6
 41
30.0
 62
     5
 63
     7
 74
     0
 91
        0
 64
     7
 65
   257
 75
     1
175
     1
 42
1.0
 92
        8
 66
   257
 43
1.0
 76
     1
 77
     6
 78
     2
 67
     7
 79
     3
170
     0
171
     0
290
     0
174
     0
 93
       13
 44
0.0
173
     0
291
     0
 45
0.0
1001
ACAD
1000
AcDbSavedByObjectVersion
1070
     0
  0
VISUALSTYLE
  5
3E
102
{ACAD_XDICTIONARY
360
37C
102
}
102
{ACAD_REACTORS
330
29
102
}
330
29
100
AcDbVisualStyle
  2
Shaded
 70
    27
 71
     2
 72
     2
 73
     1
 90
        2
 40
-0.6
 41
30.0
 62
     5
 63
     7
 74
     0
 91
        4
 64
     7
 65
   257
 75
     1
175
     1
 42
1.0
 92
        8
 66
   257
 43
1.0
 76
     1
 77
     6
 78
     2
 67
     8
 79
     3
170
     0
171
     0
290
     0
174
     0
 93
        5
 44
0.0
173
     0
291
     0
 45
0.0
1001
ACAD
1000
AcDbSavedByObjectVersion
1070
     0
  0
VISUALSTYLE
  5
3D
102
{ACAD_XDICTIONARY
360
37A
102
}
102
{ACAD_REACTORS
330
29
102
}
330
29
100
AcDbVisualStyle
  2
Shaded with edges
 70
    26
 71
     2
 72
     2
 73
     1
 90
        2
 40
-0.6
 41
30.0
 62
     5
 63
     7
 74
     1
 91
       10
 64
     7
 65
   257
 75
     2
175
     1
 42
1.0
 92
        8
 66
   257
 43
1.0
 76
     1
 77
     6
 78
     2
 67
     7
 79
     3
170
     0
171
     0
290
     0
174
     0
 93
        5
 44
0.0
173
     0
291
     0
 45
0.0
1001
ACAD
1000
AcDbSavedByObjectVersion
1070
     0
  0
VISUALSTYLE
  5
3A
102
{ACAD_XDICTIONARY
360
374
102
}
102
{ACAD_REACTORS
330
29
102
}
330
29
100
AcDbVisualStyle
  2
Shades of Gray
 70
    23
 71
     2
 72
     2
 73
     3
 90
        0
 40
-0.6
 41
-30.0
 62
     5
 63
     7
 74
     2
 91
        2
 64
     7
 65
     7
 75
     1
175
     1
 42
40.0
 92
        8
 66
     7
 43
1.0
 76
     1
 77
     6
 78
     2
 67
     7
 79
     3
170
     0
171
     0
290
     0
174
     0
 93
        1
 44
0.0
173
     0
291
     0
 45
0.0
1001
ACAD
1000
AcDbSavedByObjectVersion
1070
     0
  0
VISUALSTYLE
  5
3B
102
{ACAD_XDICTIONARY
360
376
102
}
102
{ACAD_REACTORS
330
29
102
}
330
29
100
AcDbVisualStyle
  2
Sketchy
 70
    24
 71
     1
 72
     2
 73
     2
 90
        0
 40
-0.6
 41
-30.0
 62
     5
 63
     7
 74
     2
 91
        2
 64
     7
 65
     7
 75
     1
175
     1
 42
40.0
 92
       11
 66
     7
 43
1.0
 76
     1
 77
     6
 78
     2
 67
     7
 79
     6
170
     0
171
     0
290
     0
174
     0
 93
        1
 44
0.0
173
     0
291
     0
 45
0.0
1001
ACAD
1000
AcDbSavedByObjectVersion
1070
     0
  0
VISUALSTYLE
  5
36
102
{ACAD_XDICTIONARY
360
36C
102
}
102
{ACAD_REACTORS
330
29
102
}
330
29
100
AcDbVisualStyle
  2
Thicken
 70
    13
 71
     2
 72
     2
 73
     0
 90
        0
 40
-0.6
 41
-30.0
 62
     5
 63
     7
 74
     1
 91
        4
 64
     7
 65
   257
 75
     1
175
     1
 42
1.0
 92
       12
 66
     7
 43
1.0
 76
     1
 77
     6
 78
     2
 67
     7
 79
     5
170
     0
171
     0
290
     0
174
     0
 93
        1
 44
0.0
173
     0
291
     1
 45
0.0
1001
ACAD
1000
AcDbSavedByObjectVersion
1070
     0
  0
VISUALSTYLE
  5
30
102
{ACAD_XDICTIONARY
360
360
102
}
102
{ACAD_REACTORS
330
29
102
}
330
29
100
AcDbVisualStyle
  2
Wireframe
 70
     5
 71
     0
 72
     2
 73
     0
 90
        0
 40
-0.6
 41
-30.0
 62
     5
 63
     7
 74
     1
 91
        4
 64
     7
 65
   257
 75
     1
175
     1
 42
1.0
 92
        0
 66
   257
 43
1.0
 76
     1
 77
     6
 78
     2
 67
     7
 79
     3
170
     0
171
     0
290
     0
174
     0
 93
        1
 44
0.0
173
     0
291
     0
 45
0.0
1001
ACAD
1000
AcDbSavedByObjectVersion
1070
     0
  0
VISUALSTYLE
  5
3C
102
{ACAD_XDICTIONARY
360
378
102
}
102
{ACAD_REACTORS
330
29
102
}
330
29
100
AcDbVisualStyle
  2
X-Ray
 70
    25
 71
     2
 72
     2
 73
     1
 90
        1
 40
0.5
 41
-30.0
 62
     5
 63
     7
 74
     1
 91
        0
 64
     7
 65
   257
 75
     1
175
     1
 42
1.0
 92
        8
 66
     7
 43
1.0
 76
     1
 77
     6
 78
     2
 67
     7
 79
     3
170
     0
171
     0
290
     0
174
     0
 93
       13
 44
0.0
173
     0
291
     0
 45
0.0
1001
ACAD
1000
AcDbSavedByObjectVersion
1070
     0
  0
DICTIONARYVAR
  5
79
102
{ACAD_REACTORS
330
76
102
}
330
76
100
DictionaryVariables
280
     0
  1
1:1
  0
DICTIONARYVAR
  5
78
102
{ACAD_REACTORS
330
76
102
}
330
76
100
DictionaryVariables
280
     0
  1
STANDARD
  0
DICTIONARYVAR
  5
77
102
{ACAD_REACTORS
330
76
102
}
330
76
100
DictionaryVariables
280
     0
  1
STANDARD
  0
DICTIONARYVAR
  5
342
102
{ACAD_REACTORS
330
76
102
}
330
76
100
DictionaryVariables
280
     0
  1
1
  0
DICTIONARYVAR
  5
341
102
{ACAD_REACTORS
330
76
102
}
330
76
100
DictionaryVariables
280
     0
  1
1
  0
DICTIONARYVAR
  5
340
102
{ACAD_REACTORS
330
76
102
}
330
76
100
DictionaryVariables
280
     0
  1
0
  0
DICTIONARYVAR
  5
33D
102
{ACAD_REACTORS
330
76
102
}
330
76
100
DictionaryVariables
280
     0
  1
0
  0
DICTIONARYVAR
  5
33E
102
{ACAD_REACTORS
330
76
102
}
330
76
100
DictionaryVariables
280
     0
  1
0
  0
DICTIONARYVAR
  5
33C
102
{ACAD_REACTORS
330
76
102
}
330
76
100
DictionaryVariables
280
     0
  1
2
  0
DICTIONARYVAR
  5
33B
102
{ACAD_REACTORS
330
76
102
}
330
76
100
DictionaryVariables
280
     0
  1
1
  0
DICTIONARYVAR
  5
33F
102
{ACAD_REACTORS
330
76
102
}
330
76
100
DictionaryVariables
280
     0
  1
127
  0
DICTIONARYVAR
  5
34A
102
{ACAD_REACTORS
330
76
102
}
330
76
100
DictionaryVariables
280
     0
  1
2
  0
DICTIONARY
  5
385
330
6B
100
AcDbDictionary
280
     1
281
     1
  3
ACAD_XREC_ROUNDTRIP
360
386
  0
DICTIONARY
  5
389
330
73
100
AcDbDictionary
280
     1
281
     1
  3
ACAD_XREC_ROUNDTRIP
360
38A
  0
DICTIONARY
  5
387
330
6F
100
AcDbDictionary
280
     1
281
     1
  3
ACAD_XREC_ROUNDTRIP
360
388
  0
DICTIONARY
  5
1A
330
19
100
AcDbDictionary
280
     1
281
     1
  3
ACAD_XREC_ROUNDTRIP
360
352
  3
BUMPTILE
360
1C
  3
DIFFUSETILE
360
1B
  3
OPACITYTILE
360
1F
  3
REFLECTIONTILE
360
1E
  3
REFRACTIONTILE
360
20
  3
SPECULARTILE
360
1D
  0
DICTIONARY
  5
12
330
11
100
AcDbDictionary
280
     1
281
     1
  3
ACAD_XREC_ROUNDTRIP
360
351
  3
BUMPTILE
360
14
  3
DIFFUSETILE
360
13
  3
FBXASSET
360
F9
  3
OPACITYTILE
360
17
  3
REFLECTIONTILE
360
16
  3
REFRACTIONTILE
360
18
  3
SPECULARTILE
360
15
  0
DICTIONARY
  5
22
330
21
100
AcDbDictionary
280
     1
281
     1
  3
ACAD_XREC_ROUNDTRIP
360
353
  3
BUMPTILE
360
24
  3
DIFFUSETILE
360
23
  3
FBXASSET
360
BA
  3
OPACITYTILE
360
27
  3
REFLECTIONTILE
360
26
  3
REFRACTIONTILE
360
28
  3
SPECULARTILE
360
25
  0
DICTIONARY
  5
34D
330
67
100
AcDbDictionary
280
     1
281
     1
  3
ACAD_XREC_ROUNDTRIP
360
34E
  0
DICTIONARY
  5
2F8
330
65
100
AcDbDictionary
280
     1
281
     1
  3
ACAD_ROUNDTRIP_2008_TABLESTYLE_CELLSTYLEMAP
360
34C
  3
ACAD_XREC_ROUNDTRIP
360
384
  0
DICTIONARY
  5
35E
330
2F
100
AcDbDictionary
280
     1
281
     1
  3
ACAD_XREC_ROUNDTRIP
360
35F
  0
DICTIONARY
  5
35C
330
2E
100
AcDbDictionary
280
     1
281
     1
  3
ACAD_XREC_ROUNDTRIP
360
35D
  0
DICTIONARY
  5
36A
330
35
100
AcDbDictionary
280
     1
281
     1
  3
ACAD_XREC_ROUNDTRIP
360
36B
  0
DICTIONARY
  5
372
330
39
100
AcDbDictionary
280
     1
281
     1
  3
ACAD_XREC_ROUNDTRIP
360
373
  0
DICTIONARY
  5
364
330
32
100
AcDbDictionary
280
     1
281
     1
  3
ACAD_XREC_ROUNDTRIP
360
365
  0
DICTIONARY
  5
368
330
34
100
AcDbDictionary
280
     1
281
     1
  3
ACAD_XREC_ROUNDTRIP
360
369
  0
DICTIONARY
  5
382
330
41
100
AcDbDictionary
280
     1
281
     1
  3
ACAD_XREC_ROUNDTRIP
360
383
  0
DICTIONARY
  5
370
330
38
100
AcDbDictionary
280
     1
281
     1
  3
ACAD_XREC_ROUNDTRIP
360
371
  0
DICTIONARY
  5
354
330
2A
100
AcDbDictionary
280
     1
281
     1
  3
ACAD_XREC_ROUNDTRIP
360
355
  0
DICTIONARY
  5
356
330
2B
100
AcDbDictionary
280
     1
281
     1
  3
ACAD_XREC_ROUNDTRIP
360
357
  0
DICTIONARY
  5
358
330
2C
100
AcDbDictionary
280
     1
281
     1
  3
ACAD_XREC_ROUNDTRIP
360
359
  0
DICTIONARY
  5
35A
330
2D
100
AcDbDictionary
280
     1
281
     1
  3
ACAD_XREC_ROUNDTRIP
360
35B
  0
DICTIONARY
  5
362
330
31
100
AcDbDictionary
280
     1
281
     1
  3
ACAD_XREC_ROUNDTRIP
360
363
  0
DICTIONARY
  5
37E
330
3F
100
AcDbDictionary
280
     1
281
     1
  3
ACAD_XREC_ROUNDTRIP
360
37F
  0
DICTIONARY
  5
36E
330
37
100
AcDbDictionary
280
     1
281
     1
  3
ACAD_XREC_ROUNDTRIP
360
36F
  0
DICTIONARY
  5
380
330
40
100
AcDbDictionary
280
     1
281
     1
  3
ACAD_XREC_ROUNDTRIP
360
381
  0
DICTIONARY
  5
366
330
33
100
AcDbDictionary
280
     1
281
     1
  3
ACAD_XREC_ROUNDTRIP
360
367
  0
DICTIONARY
  5
37C
330
3E
100
AcDbDictionary
280
     1
281
     1
  3
ACAD_XREC_ROUNDTRIP
360
37D
  0
DICTIONARY
  5
37A
330
3D
100
AcDbDictionary
280
     1
281
     1
  3
ACAD_XREC_ROUNDTRIP
360
37B
  0
DICTIONARY
  5
374
330
3A
100
AcDbDictionary
280
     1
281
     1
  3
ACAD_XREC_ROUNDTRIP
360
375
  0
DICTIONARY
  5
376
330
3B
100
AcDbDictionary
280
     1
281
     1
  3
ACAD_XREC_ROUNDTRIP
360
377
  0
DICTIONARY
  5
36C
330
36
100
AcDbDictionary
280
     1
281
     1
  3
ACAD_XREC_ROUNDTRIP
360
36D
  0
DICTIONARY
  5
360
330
30
100
AcDbDictionary
280
     1
281
     1
  3
ACAD_XREC_ROUNDTRIP
360
361
  0
DICTIONARY
  5
378
330
3C
100
AcDbDictionary
280
     1
281
     1
  3
ACAD_XREC_ROUNDTRIP
360
379
  0
XRECORD
  5
386
102
{ACAD_REACTORS
330
385
102
}
330
385
100
AcDbXrecord
280
     1
102
SHADEPLOT
 70
     0
102
SHADEPLOTRESLEVEL
 70
     2
102
SHADEPLOTCUSTOMDPI
 70
   300
  0
XRECORD
  5
38A
102
{ACAD_REACTORS
330
389
102
}
330
389
100
AcDbXrecord
280
     1
102
SHADEPLOT
 70
     0
102
SHADEPLOTRESLEVEL
 70
     2
102
SHADEPLOTCUSTOMDPI
 70
   300
  0
XRECORD
  5
388
102
{ACAD_REACTORS
330
387
102
}
330
387
100
AcDbXrecord
280
     1
102
SHADEPLOT
 70
     0
102
SHADEPLOTRESLEVEL
 70
     2
102
SHADEPLOTCUSTOMDPI
 70
   300
  0
XRECORD
  5
352
102
{ACAD_REACTORS
330
1A
102
}
330
1A
100
AcDbXrecord
280
     1
102
MATERIAL
148
0.0
149
0.0
149
0.0
 93
        0
 94
      127
282
     0
 72
     0
 77
     0
171
     0
175
     0
179
     0
273
     0
  0
XRECORD
  5
1C
102
{ACAD_REACTORS
330
1A
102
}
330
1A
100
AcDbXrecord
280
     1
270
     1
271
     1
  0
XRECORD
  5
1B
102
{ACAD_REACTORS
330
1A
102
}
330
1A
100
AcDbXrecord
280
     1
270
     1
271
     1
  0
XRECORD
  5
1F
102
{ACAD_REACTORS
330
1A
102
}
330
1A
100
AcDbXrecord
280
     1
270
     1
271
     1
  0
XRECORD
  5
1E
102
{ACAD_REACTORS
330
1A
102
}
330
1A
100
AcDbXrecord
280
     1
270
     1
271
     1
  0
XRECORD
  5
20
102
{ACAD_REACTORS
330
1A
102
}
330
1A
100
AcDbXrecord
280
     1
270
     1
271
     1
  0
XRECORD
  5
1D
102
{ACAD_REACTORS
330
1A
102
}
330
1A
100
AcDbXrecord
280
     1
270
     1
271
     1
  0
XRECORD
  5
351
102
{ACAD_REACTORS
330
12
102
}
330
12
100
AcDbXrecord
280
     1
102
MATERIAL
148
0.0
149
0.0
149
0.0
 93
        0
 94
      127
282
     0
 72
     0
 77
     0
171
     0
175
     0
179
     0
273
     0
  0
XRECORD
  5
14
102
{ACAD_REACTORS
330
12
102
}
330
12
100
AcDbXrecord
280
     1
270
     1
271
     1
  0
XRECORD
  5
13
102
{ACAD_REACTORS
330
12
102
}
330
12
100
AcDbXrecord
280
     1
270
     1
271
     1
  0
XRECORD
  5
F9
102
{ACAD_REACTORS
330
12
102
}
330
12
100
AcDbXrecord
280
     1
 70
     1
 90
1959938040
 71
     1
  1
FFE6FD1C-3D3A-4B29-9076-2F23A8F39FFA
311
504B03040A0000080000456C94403DEE336E79000000790000001B0000006175746F6465736B2D64657369676E2D7061636B6167652E786D6C3C3F786D6C2076657273696F6E3D22312E302220656E636F64696E673D227574662D3822203F3E3C666F726D6174733E3C666F726D61743E687474703A2F2F736368656D612E
311
6175746F6465736B2E636F6D2F64657369676E2D7061636B6167652F323030393C2F666F726D61743E3C2F666F726D6174733E504B0304140006080800456C9440D486FD9CA0000000F4000000130000005B436F6E74656E745F54797065735D2E786D6C7D8EC10E82300C865F65E91D8A1E8C310C0EEA1BF002731658846E
311
D98AC1B77784ABF1D8FE5FBFBF75BBCE937A534CCEB38643598122B6FEE978D0B0485F9C41B54DDD7D022595594E1A469170414C76A4D9A4D207E29CF43ECE46F218070CC6BECC4078ACAA135ACF422C856C0E68EA1BF5669944DDD7BCDE7B1F8E415D77AECB980613C2E4AC91FC167A2B244592486606FC29C8FD7F045B9A
311
EF7053A7E60B504B0304140006080800456C9440AF9EF887EA0000007C01000008000000636F72652E786D6C8D90416EC3201045AF82668F0DB6EB1A0B13396973825E0001715162B00C543D7E71E248EDAEAB19FDF96F66F4F9E17BBEA12FB306EBDD00B420808C535E5B370D90E20577800E82AFDEC75F36404ECE66804D
311
06C1A7D5A765979477D1B89855E7B5D94519828980D42D370304F5696659C814B3235C8B45AAAB9C4C419F5D8653B21A3D8E589DF7D98B352B88F644597B7E6D3065478A9BF1F8823BF23662C646723EBDB78431C6CB0D163CDAF9795FAD4646A3415484569834B8221FB4EEEBA6A70493AE2784979BFD0F9416FD4F285917
311
EB6A7FF7810510343F721F085E6E59E4720F2AD72D37F103504B0304140006080800456C944055019EA25F0000007C00000007000000636E782E786D6C4DCB3B0E80201045D1AD90E915ED2CF8AC45050C11660C8261F98AB1B07AC9C97D42D718D865D3E909258CFD00CCE24AC6E326A164D74DC0B4128928FF326038472B
311
A13128B1252AC747C6BAB984FC68F0B87FE8960A5C09FE86CFB69FBA01504B0304140006080800456C94400E52356666010000020300000C0000006662782F636F72652E786D6C8D52ED8E8320107C15C27F04ACD7AB0DD2B4BDEB13DC0B50A59EA98241307DFC5B3F1AAF97A6B9982099D9D99D1D15BB5B53A35EBBAEB226
311
C33C62186993DBA232658683BF900D463B299CB5FE57194646353AC3038CA5289D0DED0CE5D6786D3CA0C6167A0655D7698F515EC325C35DFEAD1B15A9E0A1A2BB46ADCAAFAAD4118F80863A293AEFC0009A860C279697F34DD009972284AA98D9AA8069D5A5D20ECBF591A7EBD37B42787AE024D91FDEC8867DEC499AEED9
311
E9F8B966699A0A3A88A5F0557377973BADBC2EB08C198F094B48CCBEF86ABB4AB69C11B6D93226E850FE200A6DF14F51A88C5FC5B3DD49D661C9C1C848FCD91622F2A8533DF8A152D02144788D093F060D8140C85E9DEBFB1E57807A9D7BEB12600A1B16AA5775D03095A1F1117462A1F3D800367BDA277ED1E7750FF880CA
311
94604D79B89E831FA68B69EA1C45AB1DE9FD0D19EB1A552FE6268BCBB90C7A2ACF6D6DDD7FD4745E95CE61D2E1EF953F504B0304140006080800456C944018DED1DE7E0000009D0000000B0000006662782F636E782E786D6C4DCCDF0A83201C86E15B91DFB9CBB61C0DD4F0CFBA8F581692E9703A76F9ABD1C18E3E78F878
311
59F7593D7ADBF4723170A84F04900D8F38BA30732879C22DA04EB01463FEBB010AC36A39EC0C82CD2996E741A39D86E2F3A6DE85E5C04B4FA8A1678D492B096EB421F826AF0AAB5ED6EA4EB56CA4814AB0EA57DA760F8B2F504B0304140006080800456C94400248D4C92B01000014020000310000006662782F3346303544
311
3532432D303841302D344344302D394136422D4246413142453543413441442F636F72652E786D6C8D51CB6EC23010FC95C8277A70B2CE8312E41805285FD01F30B6A116C48EFCA8F8FC3A4D90DA1B17AF353B333BDAA5BBC770CFBE95F3DA9A0E911C50A68CB0529B6B8762B8E00DCA768C3A6BC31F1ACA0C1F5487261831
311
7A75368E0B24AC09CA84841A2BD50272EF554099B8A74F87BCF85203CF790C89E16FF9C8C58D5F554EF2D44E3C467D702940360F995EC4AA1334C7A63C60D8F480EBC31170DBAFF7787FEAC9FEA339F4757FA4C52C6434462D17B996298EBE68E55E3599C48C063D3CE30BA7785012B1124889A1C6257C926A5BD55B0229CF
311
16801613FD9F288EF24551D42654E512779679C4082DE606A3D2C6F3FD19463D46EB4236CD5B7925DE10831CE01DA02D5B5ACCD4B480E4B9AE174F1FAC4B0B5EDDCE894D9AD9785D335A4C374AE5F780A94EF7643F504B0304140006080800456C9440E418C5874D01000033030000300000006662782F3346303544353243
311
2D303841302D344344302D394136422D4246413142453543413441442F636E782E786D6CD593CD6EC32010845F0571B78D132B8A224CA41EFA043DF48A6193D260B0F8A99AB7EF929034971C7AEC0559B3C3CCEA13E6FBEFD9922F08D17837D2BE659480535E1B771C694E87664BC95EF0E07D7AB051E2E40C232D3215FC18
311
7C5EAAA4E120B34DA85AE34E550C107D0E0A22CAE526B15E498B01E09A8C22CC13680D9ADC8DF8758080ABA0389D49FA00F2FAF24EFCF4092A45DE9514C1BBD22178396BD383891265658C238DEA0366D9CA9CBC86786AB54CB2EDDB5BD7939D7E9348B970ABCCC190523ED2725251376A9123EF7028784C01E955533A2F40
311
855C166B944C08B9BB18AF1EC1B371693354AF41F001DDFD663D0C187699099ECC0CD5A102C8049A8A15EB570D1B9A157BEBD7BBF5B0EB59C3B63BC67857EC824FDEDB7A096320F88528EF12B84445CFBB327E86AFFA88360159FB70FE034804505BAF74EE19FF994F7779DF882BE05F207E00504B0304140006080800456C
311
9440D0F45390A405000081100000340000006662782F33463035443532432D303841302D344344302D394136422D4246413142453543413441442F6F626A656374732E786D6CAD575D8F9B3814FD2B887DD97D4808493A9DAC18AA4CD254513B6DD568AA7D881419308C77CC876C33CDECAFDF63300432C934BBEA0B60635F
311
DF7BEEB91FF6DEED536E3D5121599EDDD8EE70645B340BF38865C98D5DAA78706D5BEF7C4FE4B9EA2CB3AD8CA4F4C6D6D3B6EF25222F0B3315D198945C1DCDAE6EFFB26448336A5B212752DED8327CA029199252E511958FC38828324CE2FDD01DD60BFB6213418A8723A105113453D014F319A458B5526E7F38B21DDF73F4
311
7FDFD34FB36A727E9553D9D33F9F6552912C7C71D89198893B5DBE1FBF990DDE4CA793C1F46AEC0E6E57B7CB81FB76325A5C2D16B3F9FB190E964A4092D144D0D8F63F001BC142CFA97FF95EC93235199B25C6418EA04F4C7BCAF6C796EB39F59AD63A63E429F5C33CCB68586105342AFB8CE88816348BE073462534EB2034
311
EA0F5D8D63E7F7448FCD91DDE9CB10E8EEE8086A746FDE5D4DF3E06F98202F6190905433B0C6D2185A7375744038C8736EFE3169A54451C108B7380B0411CFB68FA57A89EFF5C468260B1D0DDA02DB8717EADF7DBA208C7ECEF3535AC625E79AC6B65F45C10EB14295AC3463FF5071D0BE8B0C7482AF341BAE8D41EAB9A0B6
311
3FAB29727DC4A61A482BE62481CB61A6DE39191F19BAD071BA5EDAFEC755B0DFE8D83D7D7821F2820AA5E9036A358E6BDE1A25A3937B91E7F406FB48950328DF80FC6784FA4115F84DB0FD743F35A728413219E722856FAC913518E131B2DCEAA9BF3B5F9ED36EEE7BEF1C9E70B686EA17E0D9B7A1EBCB0E9CBEF704C2E762
311
624CDB8484236DDCB10C006992583CC714F2701CEC6D7F8D2C87AC8C5D84FB2E4C86BA4FF8F41C230689A23AA9F3CE80E5515ABC204103B68A9150A326BF51F0E0A717E9AC3AD82C3B07EF9B5F42D7F972F371538A9884F4CEC4F492C62C630A25EEC09BAE423DCC7B163DD2E71FB98860E84BBC375DBC53739404DA1A730D
311
7CD2E4743D389CDC3B20C4BE24D7E9C6FBC909304217D68EFC3B2643CA39C9685E36E7BE5A3F50366A8875B06B26B705E65058409AFACF510CA2488782151AC4B65AB5497378C6BAFBF56730D2F66F9F3F91E76EF60A0EB937CC792E76C1F3AE4E4B27A1FEDEE7B6C1C0D15240F72A489AF837A0EF2216C7A544123C81EBF7
311
F5A2EB3B9D1690221AA975B44C613F828B0843DA462EAAB520A8A479B663A89B88BB930774E50352C3804AE0398D25E5F18E715EA6BB987154A35D4A8A3370FC7FFD83322D7624CDCB4C9D91DD531DD5A1AF7B8FBDF20751E183ED6FAAF7E016B937A2D11932E85A7202AB9E6B57ABF757ABA5BB184C9693F9607A3B9E0D66
311
A3B75783F16A3C995FAF26B3D56ADEF8A9D6C4F79A52D38D687809A5CD2B0533EEBB5F237E4C12B0FD3BA2E4F6431D9ECDFB7E3D442FEC39D8837AD96E9C474FE8FB68F4730187952705ADD382D394668AE818BAD31FFC1B419FD153A69E5FA724A11748F9F26173640C662ED8F755C73BFD71B4D7CC2E74409E14A21ECA34
311
C808E3471B931AC961912506BFC627EDBB2E34CD508F8C63D099CA9CB3087930B2129AA754211B5E5084444A25A8D7EDE92373F7B860F753DD212A1270DA68F240D0247389B000B5CA50F5E7ADDFD0D4E9BEEAC646B91D3EE26132856D813337369A74C5422A87010AB46E852AE1E052B79347E34FB284A3D7AE37B5E37697
311
C6A65792DB2597F44FC6AE3A851B0390460AF40D6888E09D4A19DFAB7433FFC3FF6478A38E45143E8352B5B61C265A63AA6310A2B551E6B68026E6D11CBD47A0BE6E963BACD6F410B9E896F52A096AA903454452DD14B47E46A5F9F2AB830EC55A7FB10A5E26F0E5E592068282CCA50E70B008AC30320BA240D5C59FDBAF22
311
C74D36B5560C14B07EDF5F5FFDB15DE4699A67F5D4766EEEC3D6E601B7DB688BE440F5B5446EC72377BCADAE03E686B20B88A44312C9474CC0B382B540F7DC0F5ED67746178B8CFB8D271CED8A2386AE9796296CD3C3FA6E6ED5E0A0F1C8A88518D2574A1D31DD05C5AB3702A75A0A55057A79FF5F504B0304140006080000
311
456C9440000000000000000000000000350000006662782F33463035443532432D303841302D344344302D394136422D4246413142453543413441442F76657274696365732E62696E504B0304140006080800456C9440F270F1330600000004000000360000006662782F33463035443532432D303841302D344344302D39
311
4136422D4246413142453543413441442F747269616E676C65732E62696E636660600000504B0304140006080000456C9440000000000000000000000000370000006662782F33463035443532432D303841302D344344302D394136422D4246413142453543413441442F617474726962757465732E62696E504B03041400
311
06080800456C9440D5987DFC8F00000041010000360000006662782F33463035443532432D303841302D344344302D394136422D4246413142453543413441442F6469726563746F72792E786D6C858F410EC2201045AF4266AF15DDB800BA74E7C21B903225242D6328188F2FA5C4183471359997F9FF81E89FF3C41E1816
311
475E02DF1F80A11FC8386F25A438EECEC07A250251FC3803E6F58C12560C4AD840E95E91C151A72936F496F35732D860FE635F62C8F2DA16B505C545B74125BAA2FA9E05D7CC053D063734D5C7665FD55B6B8D15D5E9BFEAFD8490FFA45E504B0304140006080800456C944070F0323FFD000000A00100003B000000666278
311
2F33463035443532432D303841302D344344302D394136422D4246413142453543413441442F7265736F75726365732F636F72652E786D6C8D504B6E833010BD0A9ABDC1064A63641C91B439412F6099496225D8913F558F5F13A8D4EEBA9919BD8FE6E989FDD77C2F3ED107E3EC00ACA450A0D56E32F632408A67B283622F
311
85772EFE924161D58C032C304871F12E3D36483B1BD1C68C5A37E106AA103042A1EFF91820E82BCEAA54296645B8950FA56FEA82252B339D755284E87380627DB24C901E834B5E6310D5CA4A919299368D99F24F7336E8417647C6BBD36B43183F30D28E8717B2A36F23E17CA4A7E37B4739E7A25ACC524433FF64D41E55C4
311
09644D594D684B6AFAC19ABE697B4609DDF5948A6A91FF31A5C7F44F53323636F51677B505902C07791252544B5F793DCBCC7BE9567E03504B010214000A0000080000456C94403DEE336E79000000790000001B00000000000000000000000000000000006175746F6465736B2D64657369676E2D7061636B6167652E786D
311
6C504B01021400140006080800456C9440D486FD9CA0000000F40000001300000000000000000000000000B20000005B436F6E74656E745F54797065735D2E786D6C504B01021400140006080800456C9440AF9EF887EA0000007C010000080000000000000000000000000083010000636F72652E786D6C504B0102140014
311
0006080800456C944055019EA25F0000007C000000070000000000000000000000000093020000636E782E786D6C504B01021400140006080800456C94400E52356666010000020300000C00000000000000000000000000170300006662782F636F72652E786D6C504B01021400140006080800456C944018DED1DE7E0000
311
009D0000000B00000000000000000000000000A70400006662782F636E782E786D6C504B01021400140006080800456C94400248D4C92B0100001402000031000000000000000000000000004E0500006662782F33463035443532432D303841302D344344302D394136422D4246413142453543413441442F636F72652E78
311
6D6C504B01021400140006080800456C9440E418C5874D010000330300003000000000000000000000000000C80600006662782F33463035443532432D303841302D344344302D394136422D4246413142453543413441442F636E782E786D6C504B01021400140006080800456C9440D0F45390A405000081100000340000
311
0000000000000000000000630800006662782F33463035443532432D303841302D344344302D394136422D4246413142453543413441442F6F626A656374732E786D6C504B01021400140006080000456C94400000000000000000000000003500000000000000000000000000590E00006662782F33463035443532432D30
311
3841302D344344302D394136422D4246413142453543413441442F76657274696365732E62696E504B01021400140006080800456C9440F270F13306000000040000003600000000000000000000000000AC0E00006662782F33463035443532432D303841302D344344302D394136422D4246413142453543413441442F74
311
7269616E676C65732E62696E504B01021400140006080000456C94400000000000000000000000003700000000000000000000000000060F00006662782F33463035443532432D303841302D344344302D394136422D4246413142453543413441442F617474726962757465732E62696E504B01021400140006080800456C
311
9440D5987DFC8F0000004101000036000000000000000000000000005B0F00006662782F33463035443532432D303841302D344344302D394136422D4246413142453543413441442F6469726563746F72792E786D6C504B01021400140006080800456C944070F0323FFD000000A00100003B000000000000000000000000
311
003E1000006662782F33463035443532432D303841302D344344302D394136422D4246413142453543413441442F7265736F75726365732F636F72652E786D6C504B0506000000000E000E0080040000941100000000
310
504B03040A0000080000456C94403DEE336E79000000790000001B0000006175746F6465736B2D64657369676E2D7061636B6167652E786D6C3C3F786D6C2076657273696F6E3D22312E302220656E636F64696E673D227574662D3822203F3E3C666F726D6174733E3C666F726D61743E687474703A2F2F736368656D612E
310
6175746F6465736B2E636F6D2F64657369676E2D7061636B6167652F323030393C2F666F726D61743E3C2F666F726D6174733E504B0304140006080800456C9440D486FD9CA0000000F4000000130000005B436F6E74656E745F54797065735D2E786D6C7D8EC10E82300C865F65E91D8A1E8C310C0EEA1BF002731658846E
310
D98AC1B77784ABF1D8FE5FBFBF75BBCE937A534CCEB38643598122B6FEE978D0B0485F9C41B54DDD7D022595594E1A469170414C76A4D9A4D207E29CF43ECE46F218070CC6BECC4078ACAA135ACF422C856C0E68EA1BF5669944DDD7BCDE7B1F8E415D77AECB980613C2E4AC91FC167A2B244592486606FC29C8FD7F045B9A
310
EF7053A7E60B504B0304140006080800456C9440D082C570E70000007C01000008000000636F72652E786D6C8D90416EC3201045AF82668F0DD852B1858914A73E412F8030715162B00C543D7E2171A476D7D58CFEFC3733FAE2F4BDDED197D983F56E005A1140C6693F5BB70C90E2157340272976EFE32F1B20A756334091
310
418A65F7693B24ED5D342E66D5F9D91CA20AC14440FA9E9B0182FE34ABAA548AD9116ED5A6F44D2DA6A2AF2EC329D9193D8FD839EFB3576B76906FED3B1D0923789C2E0CB7ACA3984F9CE1EE72EE463AF186532AEA024B11EDFABAAF77A3A29941324219262D66E483367DD3F69460C27B42445DEC7FA0B4CDFF849275B161
310
C7BB4F2C802C8F3C0652D4258B5C1E41E55A72933F504B0304140006080800456C944055019EA25F0000007C00000007000000636E782E786D6C4DCB3B0E80201045D1AD90E915ED2CF8AC45050C11660C8261F98AB1B07AC9C97D42D718D865D3E909258CFD00CCE24AC6E326A164D74DC0B4128928FF326038472BA13128
310
B1252AC747C6BAB984FC68F0B87FE8960A5C09FE86CFB69FBA01504B0304140006080800456C94406F5E1C7264010000020300000C0000006662782F636F72652E786D6C8D52ED8A8330107C9590FF311F0A674B4CE1DAEB13DC0BA49AF6A49A484CA48F7FEB47F17A945284186676766747E5EED6366830BEAF9D2D304F18
310
46C696AEAAEDA5C0319C498ED14E49EF5CF8538691D5AD29F00863252FDEC56E814A6783B10150EB2AB380BAEF4DC0A86CE052E0BEFC31AD4E740C50D15F934E97577D31094F80863A25FBE0C1009A878C2756E7D34DD2195732C6BA5AD8BA8269F5B9361EAB8FEC8BEF9960647F3C0892890D27F931176473F8DCECF9314F
310
73CE251DC54A86BABDBB2BBDD1C1545809C605611911EC9BA7DB34DB724658BE654CD2B1FC4114BBEA4D51AC6D48C5627796F5588D4626E2DFB6105140BD1EC00F55928E21C26B4AF831680804420EFAD4DCF7B802349832389F0153B9B852836EA281A90C4D8FA4330B9DA706B0D9D33EE2459FD73DE0036A7B016B3AC0F5
310
14C3385DCE5397283AE3C9106EC83ADFEA6635375B5CCF75D05379E91AE7DF51D36555BA8449C7BF57FD02504B0304140006080800456C9440D4C2BA457C0000009D0000000B0000006662782F636E782E786D6C4DCCD10AC2201886E15B91FFDCA6902D411D267A1FA3B921390DD3E8F2DB62071D7DF0F0F18AE1B346F4F6
310
E5157292404F04904FF73C85B4486875C65740831225E7FA770394C6D54BD81994584A6ECF83263F8F2DD64D63488F032FCC68C3688F6F9A517C269660EEB8C3843A6DB93594D81E3A25BA5F69DB3DACBE504B0304140006080800456C94404FFAE0CC2D01000015020000310000006662782F36354341433531372D424135
310
312D343045302D394639462D3031464145394543313045372F636F72652E786D6C8D51CB6EC23010FC95C8277A70B24E4208C831A2287C417F2024062C881DF951F1F95D37416A6F5CBCD6ECCCEC6897EF9FE323F996D629A31BC2522089D4BD1994BE3624F80BAD49B217DC1AE3FFD048A2BB513624C244F0AB35615AA0DE
310
682FB547549B412E60E79CF424E91FF86988EB6F72ECD22E7864B87B3A75FDBDBBCA94A5D8469EE0CE5B0C90CC43E24B44B53E1E8E6BB6A19F8735A325B440B7A7ED89023B1DDA6D7B64D06E78360B050F410D8B5C0D18475D94B4EF9A44B1E05E8DAFF8BD959D97031139B09C424973F862C5AE28770C28D43B009E45FA3F
310
519886374541695FE44BDC59E688603C9B1B820F269C1FAF30F23919EB93386FE564FF4104A400559DD7C5063533173780A655B9983A6F2C6E78753F23BD405674AE4AC1B378242CBF17C41A0F2A7E00504B0304140006080800456C944082BF0A905301000033030000300000006662782F36354341433531372D42413531
310
2D343045302D394639462D3031464145394543313045372F636E782E786D6CBD93CD6EC32010845F0571F7BF15591126520F7D821E7AC5B04968305880ABE6EDBB2424CD25874A552FC89A1D66569F30DB7DCD867C820FDAD99136654D0958E994B68791AE715F0C94EC38F3CEC5071B2556CC30D22453CE0EDEAD4B9614EC
310
C56A22AA46DB53163D04B77A0901E57493182785C100B0C58A22CC1328058ADC8DF8B5078FABA0389D493C02797D79276EFA001903AB520A6755EAE02C9DB9E9C14489342284910679845994628D4E4138954A445136E5ADEBC94E3F49245DB855AE5E93543ED274529E372A9123AB70C859881EE965533C2F40B95816A3A5
310
8808B9BA18AF1ECE566DE3A6CF5E8DE03DBABB76330C1876997116F50CD9213D88088AF2B66EDAA2EE8BB67E6BBA6DD76F9BBAA8876D5DB32AD9399B9C33F912C680770B91CE46B091F2865569FC0C5FF611A53DB276FEFC0B900820B75EE9DC33FE924FB3E9FAFE1FF95497F78DB83CFE05FC1B504B030414000608080045
310
6C94405C222AA8630700009A1B0000340000006662782F36354341433531372D424135312D343045302D394639462D3031464145394543313045372F6F626A656374732E786D6CED59DD73A33610FF5718FAD23E181BDB49930EA193D8E71BCF35ED4DDDEBF4C1338C0C3251230423895CDCBFBEAB0F301093E0367DEB830D
310
0869B5FBDB4F2DC18FCF19759E3017246737AEEF4D5C07B3384F084B6FDC52EE4757AEF36318F03C978D69AEC350866F5C35EC8641CAF3B2B04309DEA392CACEE8EAEE0F47C49861D7892912E2C615F103CE90874A9927583C7A0992C84BF7CF9EEF99896DB22947C54387688138661238857106541CC394DF7E9CB8E33018
310
ABF761A0FEEDACD9A059F3FE59632D759B4BC284442C7EC15287CC6C104B337FBEFC30BDB81E5DCCE7B3D1FC72EA8FEE5677CB91FFFD6CB2B85C2CAE6F3F5C037BBB3CA756A604179825A0BF831BFAC158BDA945B7089CE23ACE19C3B10612A0D2627509122C60AB067C93F6A3AF246ABCD612369EE7EABD65A1313C6B53E9
310
9B350C88165D10C46E57495C5D9BF2E5BB3F417031C428B9C012B8159283762D3C1CBCC20D27C1D88C86C1EEA80B229C0C49CC09A20E253B8E382805A6AA296160165832CA3938907294045A73E675DBB6C033DF769D535CEE4B4A9567B8A176AC08DC0F4BA139237F617EE4BE890CF004D29684C92BCBA53C14D80DAF83B1
310
1E0C0375994DED4B03A4B3A728151A11F3B623E842B9FE7AE9869F56BBE78D0A07A7372F785E602E95D1293D6ABEC090ED55A164B7F507694E2D00610CA876E511945F01F99F217A1C5901BD71F23C7F9EDBB9922326F639CF4037CEC4194DE06FE2F8FA5FDD37EE8271BDB8ADBD3E3CC14D155457FF1ECFB60C1A2BCB7F03
310
CE30780283CFF9CCBEDAC488823DDF130600292371680E4310DAF7BB67375C43E084400FAB100D7D1019D87D82DB606CC91CB552B997F53A0688DA3D66439404B0698B04367AF4F411B20727F1514D4D11FBE0BD781773BD5D6E3E6D4ABE4731BEB73EBDC47BC28884AC799AA116E62D891EF1E16BCE1310F425DE9B26DE99
310
DD4A00DA0A73057C5A81A01E8E3BB73688615D9AAB7013BCB10308A1727583FE3D1131A614319C97D5BE757453865A7BBCAD19DC706A209E4D3B26CCF11351550538CD71468B51C8FB31278502D10D3F1AC9EAA0E9F548F765FD3358643DBF67D69A41E86588FEA683D6091C5A965D216D81A805DE1DC3799CD39C47BB4364
310
229D0BB504B0D1F696DF5B4421D61B25292AE041DAEFAA90921A69A384ECF7A580B87A82C5DFD78BA6394CBC997FE134FF3BCE3887680BBE8BB8F5BBCE1E11C9508AA33D4AFAB66BEE56D3169A640F698EF714E4224F441E2224A34982D373A0398BF8F5BB524F692E04615840BE3A097E138D890781C468B3625969B50334
310
11518625A2E720A0C8F480ABD38EAE7163281DDEE6B1B6DED734D624FA1F590447504BE62C22508A420E799371DFBB8018D246D7A0DCC117ACADA2ADC5A0259410F121FA8A49FA20CF41DD90EFC13D86234929A3BC403198F500B22F7C4529B5C3FB0EC58F2A7F447149DFCB4004A6FB88505A6611FC088393C710D7AE03D3
310
AB2834889BD8277106451992251FB2C9E5C5E4C53EA666E886C0C6467B42216C47192A7A506F05445D8F3835F8967A8F527765564428CB4B36C850BC59D79B2CF9AE5A15D981FCAA5211CAC68AB025180684C93AAB56311B4C5D075670231DA80E91405941CD29EC8DC4E3D7DEA429F76EC0AD9FBEEF0619147E3DDA6B46D4
310
790583E5B1551888AF48C60F6EB8D1D7D11DD4DF094E8EA9BEAA359B152020A62279C98955D197359437B64673C37B24C5F6A3C9BAD5F5CBDA83EE4730863550BBD40BD70AE80C3389546572AF6EE8AF0842708B86195FAB9C7A0E95DB24D15523A22BD2A7CE5619D1DA34235EF180599EC18F6D098B6999E02D4AC463742F
310
69B4218A752BA597910AE35705FCE5E3A6030F8C0C10E9B32AF0F0D7CE5A3BBA50E5D24922F2A1CC760C1108822DD152A31BAF60A9D548A5E5FAAACE14507781815915CFFF3F5934DB11FF9F2C526B18FFEA647177F8091D9A7D91463A8F955D9F750CA8F393A2F21EC700DD76A8A9D659C424732BBF75A608826215E50757
310
6355D03004FB38FEC759BB2F0B9AED3AFC9F97B5FD1715C75959A5355975A94E54AEEB660E5BAD3E5CAE96FE62345BCE6E47F3BBE9F5E87AF2FDE568BA9ACE6EAF56B3EBD5EAB646533B6A18D4C14CE72E783641AD1A564F1603E8CA8A9C92044EF389936288F912CEF403DAE73CC3029267B3D99DD8A6FC80D54FA6CF29D1
310
8EE28A9307040D622A20AD0346652CDBE3CE37D09A9470D0BE71A169E43DC29FB54AD781CC73E342AB4092180B6F076D26D5D0D3C421E5EADC6F89013E88A52A259A45F573BD4A61D30AFFF5942169C0CAD5EA6140E15640F7ABD5A1D0BC599EE2B304AFD8719084DB5D29A15A33B21C076A61F43647F51BD928618F76EB67
310
70DDD7C5F23D3DA785C8A04F06AF1A81A13A9288A7BADFAD18B32CDD2E3F8FA1CFE6AC7F710A5AA6A0CBE194461C833197AAA0022B02ABB0340B24C154173F6C3FF31C3EF1648EAE8A9C6F9FAF2EBFDB2EF22CCB9919DADEC2A92C810F45CEE6013EFB245B281EB06AAE8BED74E24FB7BAA96DFBECD10E09ECA9AA0806AA62
310
4209D23139B0CB170D2ADBBE1C2B5574A6AF978E0DA2D00C3076F4A2C76B3E7239E043EA738AF218EDE795B4AFF6B5C77A2AD804878E74F837504B0304140006080000456C9440000000000000000000000000350000006662782F36354341433531372D424135312D343045302D394639462D303146414539454331304537
310
2F76657274696365732E62696E504B0304140006080800456C9440F270F1330600000004000000360000006662782F36354341433531372D424135312D343045302D394639462D3031464145394543313045372F747269616E676C65732E62696E636660600000504B0304140006080000456C944000000000000000000000
310
0000370000006662782F36354341433531372D424135312D343045302D394639462D3031464145394543313045372F617474726962757465732E62696E504B0304140006080800456C9440D5987DFC8F00000041010000360000006662782F36354341433531372D424135312D343045302D394639462D3031464145394543
310
313045372F6469726563746F72792E786D6C858F410EC2201045AF4266AF15DDB800BA74E7C21B903225242D6328188F2FA5C4183471359997F9FF81E89FF3C41E1816475E02DF1F80A11FC8386F25A438EECEC07A250251FC3803E6F58C12560C4AD840E95E91C151A72936F496F35732D860FE635F62C8F2DA16B505C545
310
B74125BAA2FA9E05D7CC053D063734D5C7665FD55B6B8D15D5E9BFEAFD8490FFA45E504B0304140006080800456C9440A1B46510FA000000A00100003B0000006662782F36354341433531372D424135312D343045302D394639462D3031464145394543313045372F7265736F75726365732F636F72652E786D6C8D504B6A
310
C33010BD8A99BD6C49365409B20275EA13F402429EA422B164F4293D7EA5C48576D7CDCCF03ECCE3C9D3D77A6F3E3144EBDD08ACA5D0A0337EB1EE3A424E1722A0392919BC4FBF64D038BDE208150625AFC1E76D878C77095D2AA8F30BEEA08E111334E65E8E11A2F9C055B73AA7A288B776D3E6A6AFD8B2B6D045A7644CA1
310
04689E4FEA041530FA1C0C46D93D592573B6CBAEB14BF9692F1603A897E18D4D94CD649ACF9C0CFCC08898052787F3EB6162B3E80563B2AB6625935D7F329A803AE1028A53C6091D08A7EFAC3FF6C3915142C59152D955F91F53DE967F9AB275A9E77BDCA72D82AA411E84925DEDABAC479965D76ED537504B010214000A00
310
00080000456C94403DEE336E79000000790000001B00000000000000000000000000000000006175746F6465736B2D64657369676E2D7061636B6167652E786D6C504B01021400140006080800456C9440D486FD9CA0000000F40000001300000000000000000000000000B20000005B436F6E74656E745F54797065735D2E
310
786D6C504B01021400140006080800456C9440D082C570E70000007C010000080000000000000000000000000083010000636F72652E786D6C504B01021400140006080800456C944055019EA25F0000007C000000070000000000000000000000000090020000636E782E786D6C504B01021400140006080800456C94406F
310
5E1C7264010000020300000C00000000000000000000000000140300006662782F636F72652E786D6C504B01021400140006080800456C9440D4C2BA457C0000009D0000000B00000000000000000000000000A20400006662782F636E782E786D6C504B01021400140006080800456C94404FFAE0CC2D0100001502000031
310
00000000000000000000000000470500006662782F36354341433531372D424135312D343045302D394639462D3031464145394543313045372F636F72652E786D6C504B01021400140006080800456C944082BF0A9053010000330300003000000000000000000000000000C30600006662782F36354341433531372D4241
310
35312D343045302D394639462D3031464145394543313045372F636E782E786D6C504B01021400140006080800456C94405C222AA8630700009A1B00003400000000000000000000000000640800006662782F36354341433531372D424135312D343045302D394639462D3031464145394543313045372F6F626A65637473
310
2E786D6C504B01021400140006080000456C94400000000000000000000000003500000000000000000000000000191000006662782F36354341433531372D424135312D343045302D394639462D3031464145394543313045372F76657274696365732E62696E504B01021400140006080800456C9440F270F13306000000
310
0400000036000000000000000000000000006C1000006662782F36354341433531372D424135312D343045302D394639462D3031464145394543313045372F747269616E676C65732E62696E504B01021400140006080000456C94400000000000000000000000003700000000000000000000000000C61000006662782F36
310
354341433531372D424135312D343045302D394639462D3031464145394543313045372F617474726962757465732E62696E504B01021400140006080800456C9440D5987DFC8F0000004101000036000000000000000000000000001B1100006662782F36354341433531372D424135312D343045302D394639462D303146
310
4145394543313045372F6469726563746F72792E786D6C504B01021400140006080800456C9440A1B46510FA000000A00100003B00000000000000000000000000FE1100006662782F36354341433531372D424135312D343045302D394639462D3031464145394543313045372F7265736F75726365732F636F72652E786D
310
6C504B0506000000000E000E0080040000511300000000
  0
XRECORD
  5
17
102
{ACAD_REACTORS
330
12
102
}
330
12
100
AcDbXrecord
280
     1
270
     1
271
     1
  0
XRECORD
  5
16
102
{ACAD_REACTORS
330
12
102
}
330
12
100
AcDbXrecord
280
     1
270
     1
271
     1
  0
XRECORD
  5
18
102
{ACAD_REACTORS
330
12
102
}
330
12
100
AcDbXrecord
280
     1
270
     1
271
     1
  0
XRECORD
  5
15
102
{ACAD_REACTORS
330
12
102
}
330
12
100
AcDbXrecord
280
     1
270
     1
271
     1
  0
XRECORD
  5
353
102
{ACAD_REACTORS
330
22
102
}
330
22
100
AcDbXrecord
280
     1
102
MATERIAL
148
0.0
149
0.0
149
0.0
 93
        0
 94
      127
282
     0
 72
     0
 77
     0
171
     0
175
     0
179
     0
273
     0
  0
XRECORD
  5
24
102
{ACAD_REACTORS
330
22
102
}
330
22
100
AcDbXrecord
280
     1
270
     1
271
     1
  0
XRECORD
  5
23
102
{ACAD_REACTORS
330
22
102
}
330
22
100
AcDbXrecord
280
     1
270
     1
271
     1
  0
XRECORD
  5
BA
102
{ACAD_REACTORS
330
22
102
}
330
22
100
AcDbXrecord
280
     1
 70
     1
 90
1959938040
 71
     1
  1
091902CC-9C26-4C44-A23A-10336402130C
311
504B03040A0000080000456C94403DEE336E79000000790000001B0000006175746F6465736B2D64657369676E2D7061636B6167652E786D6C3C3F786D6C2076657273696F6E3D22312E302220656E636F64696E673D227574662D3822203F3E3C666F726D6174733E3C666F726D61743E687474703A2F2F736368656D612E
311
6175746F6465736B2E636F6D2F64657369676E2D7061636B6167652F323030393C2F666F726D61743E3C2F666F726D6174733E504B0304140006080800456C9440D486FD9CA0000000F4000000130000005B436F6E74656E745F54797065735D2E786D6C7D8EC10E82300C865F65E91D8A1E8C310C0EEA1BF002731658846E
311
D98AC1B77784ABF1D8FE5FBFBF75BBCE937A534CCEB38643598122B6FEE978D0B0485F9C41B54DDD7D022595594E1A469170414C76A4D9A4D207E29CF43ECE46F218070CC6BECC4078ACAA135ACF422C856C0E68EA1BF5669944DDD7BCDE7B1F8E415D77AECB980613C2E4AC91FC167A2B244592486606FC29C8FD7F045B9A
311
EF7053A7E60B504B0304140006080800456C94406310396FE90000007C01000008000000636F72652E786D6C8D90D16EC3200C457F05F99D0448B23511A1EAB4ED0BF60308DC0CB58128C0B4CF1F6953697BDB93ADEB7B6CEBCAE3F77C255FB84617FC08BC6240D09B609D9F46C8E94C0F408E4AAE21A45F36205ECF38C226
311
8392D31AF2B24B26F8843E15D5078BBBA863C404C45C4B3342349F38EB4AE7541CF1522DDA5CF484157F7405CED959723FE26CD9E7CE0E57504D7F68FBD31BA7AF7D77A26DDF74F4853D33CA44CF9FC43BEB44DBC97A83954C6E7EDC372BEA841694605C50D652C13E783334EDC00B7B181893F566FF03E5C5FE13CACEA746
311
ECEFDEB1088A97476E0325EB2D8B526E4195BAE5A67E00504B0304140006080800456C944055019EA25F0000007C00000007000000636E782E786D6C4DCB3B0E80201045D1AD90E915ED2CF8AC45050C11660C8261F98AB1B07AC9C97D42D718D865D3E909258CFD00CCE24AC6E326A164D74DC0B4128928FF326038472BA1
311
3128B1252AC747C6BAB984FC68F0B87FE8960A5C09FE86CFB69FBA01504B0304140006080800456C94402BC58F4765010000020300000C0000006662782F636F72652E786D6C8D525B6E833010BC8AE57F63F36A43641CA56A7B825EC0310E45011B191BE5F85D1E114D15451592B16676766707F8E1DAB568D46E68AC2971
311
1C318CB451B66A4C5DE2E0CF6487D1417067ADFF558691919D2EF10463C16B6743BF42CA1AAF8D07D4D84AAFA01C06ED31522D5C4A3CA86FDDC948060F15C325EAA5BAC85A47710434D4093E780706D032643AB1389FAE9C2EB8E02134D5CA36154C6BCE8D7658A4C52E2B8E1F31792FF223C98A34276FEC95119614F14BF2
311
C9F224CB399DC482FBA6BBB9534E4BAF2B2C121627846524615F71BA4FB37D0CDADD9E314EA7F23B51E8AB7F8A42637C9AAC7617D980450C4666E2CFB6109147831CC10F159C4E21C26B4EF83E68080442F6F2D4DEF6B800346AE5ADCB80A96CD8A851B641C35486E687D38585CE7303D8EC619FE4499FE73DE0034A538335
311
E9E17A0A7E9ACE97A96B14BD7664F45764ACEB64BB995B2C6EE736E8A15CD9D6BAFFA8E9BA2A5DC3A4D3DF2B7E00504B0304140006080800456C94402F7CDC9B7D0000009D0000000B0000006662782F636E782E786D6C4DCCD10A83201886E15B91FFDCA59161A08654DE472C0B99E9703A76F9ABD1C18E3E78F87845FFD9
311
3D7ADBF4723148A03702C8867B5C5CD82494BC620EA85722C598FF6E80C2BC5B092783125B8AE579D162D7B9F87CA877E171E1504F9AB4CD88B5612D6E2867B8D37CC4F5D0B57C328C506DA052A2FA958E3DC3EA0B504B0304140006080800456C94408F92BF762B01000015020000310000006662782F4332454130363444
311
2D414635362D343138352D394138442D3243393638454635303141462F636F72652E786D6C8D51CB6EC32010FC15C4293D60835F75224C64E5F105FD010A244589C1E251E5F30BB523B5B75C58343B333BDAA5FBC77407DFCA796DCD00498121504658A9CD7580315C500FC19E51676DF84383C0F0490D30C390D1ABB3715E
311
21614D502624D458A956907BAF0204E29E3E03F4E24B4DBCE0312486BF153317377E550529523BF118F5C1A5006019925FC80ED569C45D7344E3B9ED5043FA166DC7FE88AAC3B6EB4FE71693F14CCB45C8688C5AAE722D531C7DD1CABD6A92C58C063D3DE30BA7785012B20A930AE10655F883D4BBBAD9118C70BFC3989699
311
FE4F1467F9A2286A13EA6A8DBBC83C6484964B835169E3E7FD19463D66EB02C8F3365E8937C8708171B725356EDF69B970D3069269D7ACA63E589736BCB97D263A6917E7AE61B4CC474AE5F782A9E683B21F504B0304140006080800456C9440E418C5874D01000033030000300000006662782F43324541303634442D4146
311
35362D343138352D394138442D3243393638454635303141462F636E782E786D6CD593CD6EC32010845F0571B78D132B8A224CA41EFA043DF48A6193D260B0F8A99AB7EF929034971C7AEC0559B3C3CCEA13E6FBEFD9922F08D17837D2BE659480535E1B771C694E87664BC95EF0E07D7AB051E2E40C232D3215FC187C5EAA
311
A4E120B34DA85AE34E550C107D0E0A22CAE526B15E498B01E09A8C22CC13680D9ADC8DF8758080ABA0389D49FA00F2FAF24EFCF4092A45DE9514C1BBD22178396BD383891265658C238DEA0366D9CA9CBC86786AB54CB2EDDB5BD7939D7E9348B970ABCCC190523ED2725251376A9123EF7028784C01E955533A2F40855C16
311
6B944C08B9BB18AF1EC1B371693354AF41F001DDFD663D0C187699099ECC0CD5A102C8049A8A15EB570D1B9A157BEBD7BBF5B0EB59C3B63BC67857EC824FDEDB7A096320F88528EF12B84445CFBB327E86AFFA88360159FB70FE034804505BAF74EE19FF994F7779DF882BE05F207E00504B0304140006080800456C944051
311
395B32A305000080100000340000006662782F43324541303634442D414635362D343138352D394138442D3243393638454635303141462F6F626A656374732E786D6CAD575D8F9B3814FD2B887DD97DC807493A9DAC18AA4CD2A9A26ADAAA51AB7D881419308C770C46B699C9ECAFDF633004D2649A5DF52504737D7DEFB9
311
E77ED87FB7CFB8F344A56222BF71BDE1D875681E8998E5E98D5BEA6470ED3AEF025F0AA13B62AE93938CDEB866D90DFC548AB2B04B314D48C9F5D1EADDED5F8E8A684E5D27E244A91B57450F342343526A1153F5388C8926C334D90FBD612DD8579B4A523C1C292D88A4B986A558CFA1C5A98DF2FAAF637714F823F33DF0CD
311
AF959A9E971A55FEF4CF67B9D2248F7E38EC48CDD49BADDE4FDECC076F66B3E9607635F106B777B7AB81F7763A5E5E2D97F3C5FB390E565A4293B544D2C40D3E001BC9227F547F0AFC92E57A3AB122364023499F9889941B4C1CCF1FD532AD77D6C953E64722CF69546105342AFFACEA9816348F117346152CEB2034EEBF7A
311
06C7CEE7A979B74776972F43A0BBA3A3A8B1BD79762D15E1DF70415DC220A9A861608DA575B4E6EAF880702804B7DF987232A2A964843B9C8592C8173780A81109FC9E1AC36469B2C178E0068842FDB94F17A4D1CF797ECACAA4E4DCD0D80DAA2CD82157A8569565EC1F2A0FD67791814D889561C3B57548BF14D40DE63545
311
AE8FD85403E9249CA40839DC343BA793234797264FD72B37F87817EE3726774F1F5E485150A90D7D40AD2670CDD3A0646DF22E8A9CD9E01E997200E52B90FF84543F9882B849B69FED67F6142D49AE122133C4C6193B83317EC68E57FD9AFF9D7FFEA8DDDC8FDE393C116C03D52FC0B3EF4337961D3803FF098417726A5DDB
311
4484A36CDCB31C001992385C6009753809F76EB046954355C62EC2030F2EC3DC27FCF547560D0A457552E79903CBA3B2784181066C152361464D7E6BE0214E3F94B3EA602B760EDE37BF84AE8BD5E6E3A6940989E8BDCDE9154D58CE345ADC81375D837A98F73C7AA42FCF42C670F447BC375DBC337B9402DA0673037CDAD4
311
74F37238B97740847DA930E5C6FFC90970C234D68EFE7BA622CA39C9A9289B735FED1F681B35C426D90D93DB0673682C204DFDE52807D1A423C90A0362DBADDAA2393CE3DDB7F5273012F25C84841F84C243E98D04177217BEECEAAA7412E9EF7D6A5B0846460BD85EE54893FE16F35DCC92A454A8812760FDBE5E764367AA
311
022A44A3B54E9619DC476E116939DBE845B396048D54E43B86B689B43B7940573F10B504A8149EB358519EEC18E765B64B184733DA65A43803C7FFB73F2CB362473251E6FA8CEE9EE9680E7DDB7BE455CF44470F6EB0A99E835B94DE98C68730F7844D2B3981552FB4E3B9371F4F96CBC17C39B91ACC96B3D96031992E06DE
311
783ABD9A8D271EA6A8264EB5F2C06F3A4D37A111257436BF94CC86EFDB1AE9636B801BDC13ADB61FEAEC6C9EDFD6438CC2FE087BD02EDB8D8BF809631F8D7FAEE0207952D13A2B38CD68AE8949A17BF3877F2518337AC6D4EBEB8CA4F4022D9F3F6C8E9CC1CA05FBBE9874A7CF477BEDEAD224E44925FAA1CCC29C307EB431
311
AD911C16796AF16B62D23EEB3ED3BC9A371B180CA64A7016A30CC64E4A4546358AE1053D486654817ADD913EB6578F0B763FD503A22621A78D250F04333257480B50AB8C747FDDF90D339D19AB6E5C74DBE1237E6CA5701D70E6C6C58CAE5944D530447F369350A51C5CEA0EF298FB499E728CDAF5A6F6BDDD65B0E975E456
311
E492F1C9FA555770EB00CA4881B101F310A2531913F8956DF67BF49F1C6FCC7188C6DFB0D4AD2F8785D699EA18A468ED94BD2C608679B447EF91A8AFBBE50D2B991E22175DB25E2541AD75A0894CAB8B82B1CF9AB4587D19614071D69F9D8297296279B9A681A4207369121C2C022BACCE82685075F9E7F68B14B8C866CE1D
311
03059CDFF7D7577F6C9722CB445E2F6D17F63AEC6C1E70B98DB7280ED4DC4AD47632F626DBEA36602F28BB90283A24B17AC402222B590B742FFCE0657D65441FAA3FB47223138A2386AE578E6D6C3328B574E9D656030EE68E9C3AC82173A33419D315285EBD108C2A51982031CA07FF02504B0304140006080000456C9440
311
000000000000000000000000350000006662782F43324541303634442D414635362D343138352D394138442D3243393638454635303141462F76657274696365732E62696E504B0304140006080800456C9440F270F1330600000004000000360000006662782F43324541303634442D414635362D343138352D394138442D
311
3243393638454635303141462F747269616E676C65732E62696E636660600000504B0304140006080000456C9440000000000000000000000000370000006662782F43324541303634442D414635362D343138352D394138442D3243393638454635303141462F617474726962757465732E62696E504B0304140006080800
311
456C9440D5987DFC8F00000041010000360000006662782F43324541303634442D414635362D343138352D394138442D3243393638454635303141462F6469726563746F72792E786D6C858F410EC2201045AF4266AF15DDB800BA74E7C21B903225242D6328188F2FA5C4183471359997F9FF81E89FF3C41E1816475E02DF
311
1F80A11FC8386F25A438EECEC07A250251FC3803E6F58C12560C4AD840E95E91C151A72936F496F35732D860FE635F62C8F2DA16B505C545B74125BAA2FA9E05D7CC053D063734D5C7665FD55B6B8D15D5E9BFEAFD8490FFA45E504B0304140006080800456C944070BB17F7FB000000A00100003B0000006662782F433245
311
41303634442D414635362D343138352D394138442D3243393638454635303141462F7265736F75726365732F636F72652E786D6C8D504B6E833010BD0A9ABDC136D002328E52B53D412F609909B1126CE44FD5E3D7042AB5BB6E6646EFA3797AE2F4B5DC8B4FF4C1383B022B291468B59B8C9D4748F1423A284E5278E7E22F
311
1914562D38C2068314B377693D20ED6C441B336ADD8407A842C00885BEE76384A0AFB8A852A59815E156AE4ADFD48C252B339D755284E87380627FB24D901E834B5E6310D5CE4A9192990E8D99F24F7331E841D67DD7F4E7374A5EFBF64C9ABE6EC90B7DA684F29E3DF177DAF2A615D56696229AE527A3F6A8224E2039659C
311
D08670FAC1EAA16E0696BDDD40A9A836F91F535AA77F9A92B1B1E647DCDD1640B21CE44148516D7DE5F52833EFAD5BF90D504B010214000A0000080000456C94403DEE336E79000000790000001B00000000000000000000000000000000006175746F6465736B2D64657369676E2D7061636B6167652E786D6C504B010214
311
00140006080800456C9440D486FD9CA0000000F40000001300000000000000000000000000B20000005B436F6E74656E745F54797065735D2E786D6C504B01021400140006080800456C94406310396FE90000007C010000080000000000000000000000000083010000636F72652E786D6C504B0102140014000608080045
311
6C944055019EA25F0000007C000000070000000000000000000000000092020000636E782E786D6C504B01021400140006080800456C94402BC58F4765010000020300000C00000000000000000000000000160300006662782F636F72652E786D6C504B01021400140006080800456C94402F7CDC9B7D0000009D0000000B
311
00000000000000000000000000A50400006662782F636E782E786D6C504B01021400140006080800456C94408F92BF762B0100001502000031000000000000000000000000004B0500006662782F43324541303634442D414635362D343138352D394138442D3243393638454635303141462F636F72652E786D6C504B0102
311
1400140006080800456C9440E418C5874D010000330300003000000000000000000000000000C50600006662782F43324541303634442D414635362D343138352D394138442D3243393638454635303141462F636E782E786D6C504B01021400140006080800456C944051395B32A305000080100000340000000000000000
311
0000000000600800006662782F43324541303634442D414635362D343138352D394138442D3243393638454635303141462F6F626A656374732E786D6C504B01021400140006080000456C94400000000000000000000000003500000000000000000000000000550E00006662782F43324541303634442D414635362D3431
311
38352D394138442D3243393638454635303141462F76657274696365732E62696E504B01021400140006080800456C9440F270F13306000000040000003600000000000000000000000000A80E00006662782F43324541303634442D414635362D343138352D394138442D3243393638454635303141462F747269616E676C
311
65732E62696E504B01021400140006080000456C94400000000000000000000000003700000000000000000000000000020F00006662782F43324541303634442D414635362D343138352D394138442D3243393638454635303141462F617474726962757465732E62696E504B01021400140006080800456C9440D5987DFC
311
8F000000410100003600000000000000000000000000570F00006662782F43324541303634442D414635362D343138352D394138442D3243393638454635303141462F6469726563746F72792E786D6C504B01021400140006080800456C944070BB17F7FB000000A00100003B000000000000000000000000003A10000066
311
62782F43324541303634442D414635362D343138352D394138442D3243393638454635303141462F7265736F75726365732F636F72652E786D6C504B0506000000000E000E00800400008E1100000000
310
504B03040A0000080000456C94403DEE336E79000000790000001B0000006175746F6465736B2D64657369676E2D7061636B6167652E786D6C3C3F786D6C2076657273696F6E3D22312E302220656E636F64696E673D227574662D3822203F3E3C666F726D6174733E3C666F726D61743E687474703A2F2F736368656D612E
310
6175746F6465736B2E636F6D2F64657369676E2D7061636B6167652F323030393C2F666F726D61743E3C2F666F726D6174733E504B0304140006080800456C9440D486FD9CA0000000F4000000130000005B436F6E74656E745F54797065735D2E786D6C7D8EC10E82300C865F65E91D8A1E8C310C0EEA1BF002731658846E
310
D98AC1B77784ABF1D8FE5FBFBF75BBCE937A534CCEB38643598122B6FEE978D0B0485F9C41B54DDD7D022595594E1A469170414C76A4D9A4D207E29CF43ECE46F218070CC6BECC4078ACAA135ACF422C856C0E68EA1BF5669944DDD7BCDE7B1F8E415D77AECB980613C2E4AC91FC167A2B244592486606FC29C8FD7F045B9A
310
EF7053A7E60B504B0304140006080800456C94405071FB97EA0000007C01000008000000636F72652E786D6C8D90416EC3201045AF82668F0DD8AE530B1329897D825E0001715162B00C543D7E71E248EDAEAB19FDF96F66F4F9F17BBEA32FB306EB5D0FB420808C535E5B37F590E2151F001D055FBD8FBF6C809C9C4D0F9B
310
0C824FAB4FCB2E29EFA27131ABCE6BB38B32041301A97B6E7A08EAD3CCB290296647B8158B5437399982BEBA0CA764357A1EB13AEFB3576B5610CD40DBF134307C6A2F0DAE2FE388DF093BE066783B9391B52D6BCEBCDC60C1A39D5FF7D56A64341A042394615263463E68D55575470926878E105E6EF63F505AF43FA1645D
310
ACD8FEEE130B20687EE43110BCDCB2C8E51154AE5B6EE207504B0304140006080800456C944055019EA25F0000007C00000007000000636E782E786D6C4DCB3B0E80201045D1AD90E915ED2CF8AC45050C11660C8261F98AB1B07AC9C97D42D718D865D3E909258CFD00CCE24AC6E326A164D74DC0B4128928FF326038472B
310
A13128B1252AC747C6BAB984FC68F0B87FE8960A5C09FE86CFB69FBA01504B0304140006080800456C94409EB0790766010000020300000C0000006662782F636F72652E786D6C8D52ED8E8320107C15C27F04A99EBD86D2A45F4F702F40957AA40A0D82E9E3DF5A6DBC5E9AE662826466677776546C6E6D837AED3BE3EC1A
310
A709C348DBD255C6D66B1CC3992C31DA48E19D0BBFCA30B2AAD56B3CC0588ADABB789DA0D2D9A06D00D4BA4A4FA0EA3A1D302A1BB8AC71577EEB56252A06A8E82EC955951755EB244D80863A29BAE0C1001A870C2796E7D34DD011972246534DACA9609A391BEDB1CC0F6971DC1E38D916FB9C64FBE3917C32BE24F9E163C7
310
8EBC2878BE1374104B114CFB70577AAD82AEB0E42CE5846584B3AF74B15A64AB9411B65C3126E850FE248AD7EA9FA2686C58F0C9EE28EBB04CC1C89DF8B32D441450A77AF043A5A04388F0BA27FC1C3404022107756A1E7B5C00EA75199CCF80A95C9CA95E3551C35486EE8FA0230B9DEF0D60B3977DF89B3EEF7BC00754B6
310
066B2AC0F514C3305D8C53A728AEDA933EDC9075BE55CD6C6EB4389FF3A097F2D235CEFF474DA755E914261DFE5EF903504B0304140006080800456C94409E1B9D667E0000009D0000000B0000006662782F636E782E786D6C4DCCD10A83201886E15B91FFDC554BE90FD4906DDE472C0B99E9703A76F9ABD1C18E3E78F878
310
C5F0593D79DBF4723148684E35101BEE7172619150F24C11C8A0448A31FFDD808471B5127606259614CBF3A0C9CE63F17953EFC2E3C00EF9CDB0C650A319528675477B839AB6E7AB6E7BAEF90535544A54BFD2B67B587D01504B0304140006080800456C94408D3881AC2B01000015020000310000006662782F3738354546
310
3431462D464134382D343830372D394638412D3332444133393541354338412F636F72652E786D6C8D51CB6EC32010FC158B537AC006831D126122ABADBFA03F400D495162B07854F9FCE2DA91DA5B2E2C9A9D991DEDF2D37DBA15DFDA07E36C07708940A1EDE894B1970EA478860C1427C1BD73F10F0D14564EBA030B0C04
310
BF7897E60D1A9D8DDAC68C5AA7F406CA107404C578CB9F0E84F14B4FB294296646B896B31CAFF2A24B5CE676E6091EA2CF018A75C8F202B167CDFB40F100879E324819DAC3C3C07A48EAB79E1C9ABE79653DAF56A1E02919B5C98DCA71CCD968FFACC922163C9AE9117FF45A46AD80A811AE21A2B0461F981C093D6204113B
310
22C4AB85FE4F9466F5A428191B49BDC55D650108CCABB521B872E9F3F608A3EFB3F3B158E6ED821E5F80402542FB163784B5BC5AB97903D9B4A59B6988CEE70DEFAE9F994E36E7960A5E2D47CAE5F782B92E07153F504B0304140006080800456C944082BF0A905301000033030000300000006662782F3738354546343146
310
2D464134382D343830372D394638412D3332444133393541354338412F636E782E786D6CBD93CD6EC32010845F0571F7BF15591126520F7D821E7AC5B04968305880ABE6EDBB2424CD25874A552FC89A1D66569F30DB7DCD867C820FDAD99136654D0958E994B68791AE715F0C94EC38F3CEC5071B2556CC30D22453CE0EDE
310
AD4B9614ECC56A22AA46DB53163D04B77A0901E57493182785C100B0C58A22CC1328058ADC8DF8B5078FABA0389D493C02797D79276EFA001903AB520A6755EAE02C9DB9E9C14489342284910679845994628D4E4138954A445136E5ADEBC94E3F49245DB855AE5E93543ED274529E372A9123AB70C859881EE965533C2F40
310
B95816A3A58808B9BA18AF1ECE566DE3A6CF5E8DE03DBABB76330C1876997116F50CD9213D88088AF2B66EDAA2EE8BB67E6BBA6DD76F9BBAA8876D5DB32AD9399B9C33F912C680770B91CE46B091F2865569FC0C5FF611A53DB276FEFC0B900820B75EE9DC33FE924FB3E9FAFE1FF95497F78DB83CFE05FC1B504B03041400
310
06080800456C9440BD2B4FCE60070000991B0000340000006662782F37383545463431462D464134382D343830372D394638412D3332444133393541354338412F6F626A656374732E786D6CED59DD739B3810FF5718EEE5EEC1186C27D7DC103A89D3743C9DB49DFADAB907CF3032C84417211849A4C9FDF5B7FA00033109
310
BEE6DEFA6003425AEDFEF6534BF8F621A7CE3DE68214ECDC0D3CDF75304B8A94B0ECDCADE46EF2C675DE46212F0AD99AE63A0CE5F8DC55C36E1466BCA84A3B94E21DAAA8EC8D5E5FFEE5880433EC3A0945429CBB22B9C539F250258B148B3B2F451279D9EEC10B3C33B14B36E3A8BCED112D11C74C02A730CE808A63980ABA
310
8FBE3B8DC2A97A1F85EADFCE9A8F9AB5189E35D55277B9244C48C492272CF5C8CC47B1340F1657EF6627679393C5623E599CCE82C9E5F5E5D524F87DEE2F4F97CBB38B7767C0DEB628A89529C5256629E8EFD18D8270AADE34A25B040E719D148CE14403095069B1FA040916B0550B3EBFFB1828895AAFB584ADE7857A6F59
310
680DCFBB5486668D03A2431704B1DBD512D7D7B67CC5F66F105C8C314A2EB0046E85E4A05D0B0F07AF70233F9C9AD128DCEE7541849323893941D4A164CB1107A5C05435250ACD024B46390707528E92406BCEBCEEDA1678E6CBAE7388CB5D45A9F20C37D28E1583FB61293467E41FCCF7DCB791019E40DA8A30F9C672291F
310
4BEC4667E1540F46A1BACC67F6A501D2D95194098D8879DB1374A95C7F75E5461FAEB70F6B150E0E6F5EF2A2C45C2AA3537AD47C8121DBAB42C96E1B8CD29C5A00C21850EDCA3D285F00F98F103DF6AC80DE3879583C2CEC5CC91113BB82E7A01BC777263EFCF94EA0FFD57DEB2E9C368BBBDA1BC213DC5441F5E6C7F1ECCA
310
A0B1B2FCB7E08CC27B30F882CFEDAB758228D8F30D610090321287163004A17DB77D70A315044E08F4B00AD128009181DD7BB80DA796CC5E2BB57B59AF6380A8DD633E4649009BB6486063404FEF217B7092ECD5D4167108DE935731D78BABF58775C57728C137D6A7AFF08E3022216B1E66A8837947A23BFCF8BDE02908FA
310
14EF751BEFDC6E25006D85B9023EAB41500FFB9D3B1B24B02E2B54B8095FD8018450B9BA45FF868804538A182EAA7ADF26BA29436D3CDED60C6E343310CF673D13E6F89EA8AA029C663FA3C328E4FD84935281E846EF8D644DD0F406A4FBBAFA0816D9CC1F98B562107A19A27FEAA07500878E65D7485B201A81B7FB709E14
310
B4E0F1F6313691CE855A02D8E87ACBB70E5188F546498A0A7890F6BB3AA46446DA3825BB5D2520AE1E60F1DB6AD93607DF9B07274EFBBFE78C0B88B6E0BB885BBFEBED11931C6538DEA17468BBF66E0D6DA1490E90E67847412E724FE4638C64ECA7383B069AA3889FBD2AF58C1642108605E4AB83E0B7D1F03D0824469B35
310
CB4AAB3DA08988732C113D06014566005C9D76748D9B40E9F0328F8DF53EA7B136D1FFC92238825AB2603181521472C88B8C07DE09C4902EBA06E51EBE606D356D2D06ADA084481EE3EF9864B7F218D40DF901DC13389254322E4A9480598F20FBC45794527BBC6F5172A7F2479C54F4B50C4460BA8B09A5551EC38F303879
310
8C71ED26303D8B428BB8897D12E750942159F1319B9C9EF84FF63135433F04B636DA110A613BCE5139807A2720EA7AC469C0B7D40794BAADF232467951B15186E2CDFBDE64C9F7D5AAC88EE457958A5036D6842DC128244C3659B58ED960EA3AB0821BE940F5180B9497D49CC25E483C41E34D9AF2E006DCFAE9EB6E9043E1
310
37A0BD76445DD430581E3B8581F88E6472EB466B7D9D5C42FD9DE2749FEAEB5AB35D0102622A92579C58157D5D4179636B3437BA41526CDE9BAC5B5FBFAE3CE87E84535803B54BB370A580CE319348552637EA867E4110823B34CCF84AE5D463A85CA4A9AE1A11BD2643EAEC94119D4D73E295B7981539FCD886B0845629DE
310
A054DCC53792C66BA258B7527A39A9317E56C04FEFD73D78606484489F558187BFF7D6DAD1A52A970E1291B755BE65884010EC889619DD7825CBAC466A2D375775A680BA0B0CCCAA78F1F364D16E47FC3C5964D6307EEC64418B2DA2FB68D3CAE68932EBA34E014D7A52545EE314A0BB0E0DD52689985C6EC5B7BE14434CAC
310
83FCE862AC8E1986E010C7FF39690F2541B35D8FFFE39276F0A4E0382AA97426AB26D581C275D54E61FE5970E6CF96CBC9D972763A592C178BC9C56C7E3109FCF9FC74E1CF0268D336686A3F8DC22696E9D405CF26A6D5C3EAC962004D59515092C2613E75320C215FC2917E44F79CE75840EE6CF7BA53DB931FB1FADEB439
310
25DA525C73728BA03F4C056475C0A84A6477DCF9053A9312CED9E72EF48CBC3BF8B356E93A9078CE5DE814489260E16DA1CBA4FA799A38645C9DFA2D31C007B14C6544B3A8796E56296C3AD1BF9932260B58B93A2D0CA8DB4A687E751A149A37CB537294E0353B0E9270BBAD24146B4696FD40238CDE66AF7E231B25ECCE6E
310
FD00AEFBBC5881A7E7741019F5C5E0592330542712F14CB7BB156396A58BABCF5368B339AB4F4E49AB0C74399ED2846330E64AD553604560159666892498EAF28FCD675EC0179EDCD14591F3EBC39BD3DF36CB22CF0B6686361770284BE13B91B3BE85AF3EE9066A07AC7AEB6233F383D946F7B46D9B3DDE22813D5514C140
310
5D4B28417A260776F9A43F65BB9753A58ADEF4D595638328F4028C1D3D69F19A6F5C0EF890FA9AA23C46FB792DEDB36DEDA99E0A36C1A1211DFD0B504B0304140006080000456C9440000000000000000000000000350000006662782F37383545463431462D464134382D343830372D394638412D33324441333935413543
310
38412F76657274696365732E62696E504B0304140006080800456C9440F270F1330600000004000000360000006662782F37383545463431462D464134382D343830372D394638412D3332444133393541354338412F747269616E676C65732E62696E636660600000504B0304140006080000456C94400000000000000000
310
00000000370000006662782F37383545463431462D464134382D343830372D394638412D3332444133393541354338412F617474726962757465732E62696E504B0304140006080800456C9440D5987DFC8F00000041010000360000006662782F37383545463431462D464134382D343830372D394638412D333244413339
310
3541354338412F6469726563746F72792E786D6C858F410EC2201045AF4266AF15DDB800BA74E7C21B903225242D6328188F2FA5C4183471359997F9FF81E89FF3C41E1816475E02DF1F80A11FC8386F25A438EECEC07A250251FC3803E6F58C12560C4AD840E95E91C151A72936F496F35732D860FE635F62C8F2DA16B505
310
C545B74125BAA2FA9E05D7CC053D063734D5C7665FD55B6B8D15D5E9BFEAFD8490FFA45E504B0304140006080800456C9440389BA6A6FD000000A00100003B0000006662782F37383545463431462D464134382D343830372D394638412D3332444133393541354338412F7265736F75726365732F636F72652E786D6C8D50
310
596E833010BD0A9A7F83ED84429171A42C9CA017B0CC84580976E4A5EAF16B0295DABFFECC8CDEA2797AE2F0353F8A4FF4C138DB032B291468B51B8D9D7A48F14A5A280E5278E7E22F191456CDD8C30283149377E9B941DAD9883666D4BA1137508580110AFDC8470F41DF7056A54A312BC2BD7C2A7D571396ACCC74D64911
310
A2CF018AF5C932417A0C2E798D41542B2B454A66DC3466CC3FCDD5A007595F58331C2F8C1C9B734DF6E76120EF94B7A4BEBC9DE8C09B86D727512D6629A2997F326A8F2AE2089253C609DD134E3FD8AEDBED3B46096D3B4A45B5C8FF98D273FCA729191B777C8BBBDA02489683BC0829AAA5AFBC5E65E6BD742BBF01504B01
310
0214000A0000080000456C94403DEE336E79000000790000001B00000000000000000000000000000000006175746F6465736B2D64657369676E2D7061636B6167652E786D6C504B01021400140006080800456C9440D486FD9CA0000000F40000001300000000000000000000000000B20000005B436F6E74656E745F5479
310
7065735D2E786D6C504B01021400140006080800456C94405071FB97EA0000007C010000080000000000000000000000000083010000636F72652E786D6C504B01021400140006080800456C944055019EA25F0000007C000000070000000000000000000000000093020000636E782E786D6C504B01021400140006080800
310
456C94409EB0790766010000020300000C00000000000000000000000000170300006662782F636F72652E786D6C504B01021400140006080800456C94409E1B9D667E0000009D0000000B00000000000000000000000000A70400006662782F636E782E786D6C504B01021400140006080800456C94408D3881AC2B010000
310
1502000031000000000000000000000000004E0500006662782F37383545463431462D464134382D343830372D394638412D3332444133393541354338412F636F72652E786D6C504B01021400140006080800456C944082BF0A9053010000330300003000000000000000000000000000C80600006662782F373835454634
310
31462D464134382D343830372D394638412D3332444133393541354338412F636E782E786D6C504B01021400140006080800456C9440BD2B4FCE60070000991B00003400000000000000000000000000690800006662782F37383545463431462D464134382D343830372D394638412D3332444133393541354338412F6F62
310
6A656374732E786D6C504B01021400140006080000456C944000000000000000000000000035000000000000000000000000001B1000006662782F37383545463431462D464134382D343830372D394638412D3332444133393541354338412F76657274696365732E62696E504B01021400140006080800456C9440F270F1
310
33060000000400000036000000000000000000000000006E1000006662782F37383545463431462D464134382D343830372D394638412D3332444133393541354338412F747269616E676C65732E62696E504B01021400140006080000456C94400000000000000000000000003700000000000000000000000000C8100000
310
6662782F37383545463431462D464134382D343830372D394638412D3332444133393541354338412F617474726962757465732E62696E504B01021400140006080800456C9440D5987DFC8F0000004101000036000000000000000000000000001D1100006662782F37383545463431462D464134382D343830372D394638
310
412D3332444133393541354338412F6469726563746F72792E786D6C504B01021400140006080800456C9440389BA6A6FD000000A00100003B00000000000000000000000000001200006662782F37383545463431462D464134382D343830372D394638412D3332444133393541354338412F7265736F75726365732F636F
310
72652E786D6C504B0506000000000E000E0080040000561300000000
  0
XRECORD
  5
27
102
{ACAD_REACTORS
330
22
102
}
330
22
100
AcDbXrecord
280
     1
270
     1
271
     1
  0
XRECORD
  5
26
102
{ACAD_REACTORS
330
22
102
}
330
22
100
AcDbXrecord
280
     1
270
     1
271
     1
  0
XRECORD
  5
28
102
{ACAD_REACTORS
330
22
102
}
330
22
100
AcDbXrecord
280
     1
270
     1
271
     1
  0
XRECORD
  5
25
102
{ACAD_REACTORS
330
22
102
}
330
22
100
AcDbXrecord
280
     1
270
     1
271
     1
  0
XRECORD
  5
34E
102
{ACAD_REACTORS
330
34D
102
}
330
34D
100
AcDbXrecord
280
     1
102
ACAD_ROUNDTRIP_2012_MLEADER_STYLE
298
     1
  0
CELLSTYLEMAP
  5
34C
102
{ACAD_REACTORS
330
2F8
102
}
330
2F8
100
AcDbCellStyleMap
 90
        3
300
CELLSTYLE
  1
TABLEFORMAT_BEGIN
 90
        5
170
     1
 91
        0
 92
    32768
 62
   257
 93
        1
300
CONTENTFORMAT
  1
CONTENTFORMAT_BEGIN
 90
        0
 91
        0
 92
      512
 93
        0
300

 40
0.0
140
1.0
 94
        5
 62
     0
340
55
144
0.25
309
CONTENTFORMAT_END
171
     0
 94
        0
309
TABLEFORMAT_END
  1
CELLSTYLE_BEGIN
 90
        1
 91
        1
300
_TITLE
309
CELLSTYLE_END
300
CELLSTYLE
  1
TABLEFORMAT_BEGIN
 90
        5
170
     1
 91
        0
 92
        0
 62
   257
 93
        1
300
CONTENTFORMAT
  1
CONTENTFORMAT_BEGIN
 90
        0
 91
        0
 92
      512
 93
        0
300

 40
0.0
140
1.0
 94
        5
 62
     0
340
55
144
0.18
309
CONTENTFORMAT_END
171
     0
 94
        0
309
TABLEFORMAT_END
  1
CELLSTYLE_BEGIN
 90
        2
 91
        1
300
_HEADER
309
CELLSTYLE_END
300
CELLSTYLE
  1
TABLEFORMAT_BEGIN
 90
        5
170
     1
 91
        0
 92
        0
 62
   257
 93
        1
300
CONTENTFORMAT
  1
CONTENTFORMAT_BEGIN
 90
        0
 91
        0
 92
      512
 93
        0
300

 40
0.0
140
1.0
 94
        2
 62
     0
340
55
144
0.18
309
CONTENTFORMAT_END
171
     0
 94
        0
309
TABLEFORMAT_END
  1
CELLSTYLE_BEGIN
 90
        3
 91
        2
300
_DATA
309
CELLSTYLE_END
  0
XRECORD
  5
384
102
{ACAD_REACTORS
330
2F8
102
}
330
2F8
100
AcDbXrecord
280
     1
102
ACAD_ROUNDTRIP_PRE2007_TABLESTYLE
 90
      512
 91
        0
  1

 92
      512
 93
        0
  2

 94
      512
 95
        0
  3

  0
XRECORD
  5
35F
102
{ACAD_REACTORS
330
35E
102
}
330
35E
100
AcDbXrecord
280
     1
102
RTVSPropertyOp0
 70
     1
102
RTVSPropertyOp1
 70
     1
102
RTVSPropertyOp2
 70
     1
102
RTVSPropertyOp3
 70
     1
102
RTVSPropertyOp4
 70
     1
102
RTVSPropertyOp5
 70
     1
102
RTVSPropertyOp6
 70
     1
102
RTVSPropertyOp7
 70
     1
102
RTVSPropertyOp8
 70
     1
102
RTVSPropertyOp9
 70
     1
102
RTVSPropertyOp10
 70
     1
102
RTVSPropertyOp11
 70
     1
102
RTVSPropertyOp12
 70
     1
102
RTVSPropertyOp13
 70
     1
102
RTVSPropertyOp14
 70
     1
102
RTVSPropertyOp15
 70
     1
102
RTVSPropertyOp16
 70
     1
102
RTVSPropertyOp17
 70
     1
102
RTVSPropertyOp18
 70
     1
102
RTVSPropertyOp19
 70
     1
102
RTVSPropertyOp20
 70
     1
102
RTVSPropertyOp21
 70
     1
102
RTVSPropertyOp22
 70
     1
102
RTVSPropertyOp23
 70
     1
102
RTVSPropertyOp24
 70
     1
102
RTVSPropertyOp25
 70
     1
102
RTVSPropertyOp26
 70
     1
102
RTVSPropertyOp27
 70
     1
102
RTVSPropertyOp28
 70
     1
102
RTVSPropertyOp29
 70
     1
102
RTVSPropertyOp30
 70
     1
102
RTVSPropertyOp31
 70
     1
102
RTVSPropertyOp32
 70
     1
  0
XRECORD
  5
35D
102
{ACAD_REACTORS
330
35C
102
}
330
35C
100
AcDbXrecord
280
     1
102
RTVSPropertyOp0
 70
     1
102
RTVSPropertyOp1
 70
     1
102
RTVSPropertyOp2
 70
     1
102
RTVSPropertyOp3
 70
     1
102
RTVSPropertyOp4
 70
     1
102
RTVSPropertyOp5
 70
     1
102
RTVSPropertyOp6
 70
     1
102
RTVSPropertyOp7
 70
     1
102
RTVSPropertyOp8
 70
     1
102
RTVSPropertyOp9
 70
     1
102
RTVSPropertyOp10
 70
     1
102
RTVSPropertyOp11
 70
     1
102
RTVSPropertyOp12
 70
     1
102
RTVSPropertyOp13
 70
     1
102
RTVSPropertyOp14
 70
     1
102
RTVSPropertyOp15
 70
     1
102
RTVSPropertyOp16
 70
     1
102
RTVSPropertyOp17
 70
     1
102
RTVSPropertyOp18
 70
     1
102
RTVSPropertyOp19
 70
     1
102
RTVSPropertyOp20
 70
     1
102
RTVSPropertyOp21
 70
     1
102
RTVSPropertyOp22
 70
     1
102
RTVSPropertyOp23
 70
     1
102
RTVSPropertyOp24
 70
     1
102
RTVSPropertyOp25
 70
     1
102
RTVSPropertyOp26
 70
     1
102
RTVSPropertyOp27
 70
     1
102
RTVSPropertyOp28
 70
     1
102
RTVSPropertyOp29
 70
     1
102
RTVSPropertyOp30
 70
     1
102
RTVSPropertyOp31
 70
     1
102
RTVSPropertyOp32
 70
     1
  0
XRECORD
  5
36B
102
{ACAD_REACTORS
330
36A
102
}
330
36A
100
AcDbXrecord
280
     1
102
RTVSPropertyOp0
 70
     1
102
RTVSPropertyOp1
 70
     1
102
RTVSPropertyOp2
 70
     1
102
RTVSPropertyOp3
 70
     1
102
RTVSPropertyOp4
 70
     1
102
RTVSPropertyOp5
 70
     1
102
RTVSPropertyOp6
 70
     1
102
RTVSPropertyOp7
 70
     1
102
RTVSPropertyOp8
 70
     1
102
RTVSPropertyOp9
 70
     1
102
RTVSPropertyOp10
 70
     1
102
RTVSPropertyOp11
 70
     1
102
RTVSPropertyOp12
 70
     1
102
RTVSPropertyOp13
 70
     1
102
RTVSPropertyOp14
 70
     1
102
RTVSPropertyOp15
 70
     1
102
RTVSPropertyOp16
 70
     1
102
RTVSPropertyOp17
 70
     1
102
RTVSPropertyOp18
 70
     1
102
RTVSPropertyOp19
 70
     1
102
RTVSPropertyOp20
 70
     1
102
RTVSPropertyOp21
 70
     1
102
RTVSPropertyOp22
 70
     1
102
RTVSPropertyOp23
 70
     1
102
RTVSPropertyOp24
 70
     1
102
RTVSPropertyOp25
 70
     1
102
RTVSPropertyOp26
 70
     1
102
RTVSPropertyOp27
 70
     1
102
RTVSPropertyOp28
 70
     1
102
RTVSPropertyOp29
 70
     1
102
RTVSPropertyOp30
 70
     1
102
RTVSPropertyOp31
 70
     1
102
RTVSPropertyOp32
 70
     1
  0
XRECORD
  5
373
102
{ACAD_REACTORS
330
372
102
}
330
372
100
AcDbXrecord
280
     1
102
RTVSPropertyOp0
 70
     1
102
RTVSPropertyOp1
 70
     1
102
RTVSPropertyOp2
 70
     1
102
RTVSPropertyOp3
 70
     1
102
RTVSPropertyOp4
 70
     1
102
RTVSPropertyOp5
 70
     1
102
RTVSPropertyOp6
 70
     1
102
RTVSPropertyOp7
 70
     1
102
RTVSPropertyOp8
 70
     1
102
RTVSPropertyOp9
 70
     1
102
RTVSPropertyOp10
 70
     1
102
RTVSPropertyOp11
 70
     1
102
RTVSPropertyOp12
 70
     1
102
RTVSPropertyOp13
 70
     1
102
RTVSPropertyOp14
 70
     1
102
RTVSPropertyOp15
 70
     1
102
RTVSPropertyOp16
 70
     1
102
RTVSPropertyOp17
 70
     1
102
RTVSPropertyOp18
 70
     1
102
RTVSPropertyOp19
 70
     1
102
RTVSPropertyOp20
 70
     1
102
RTVSPropertyOp21
 70
     1
102
RTVSPropertyOp22
 70
     1
102
RTVSPropertyOp23
 70
     1
102
RTVSPropertyOp24
 70
     1
102
RTVSPropertyOp25
 70
     1
102
RTVSPropertyOp26
 70
     1
102
RTVSPropertyOp27
 70
     1
102
RTVSPropertyOp28
 70
     1
102
RTVSPropertyOp29
 70
     1
102
RTVSPropertyOp30
 70
     1
102
RTVSPropertyOp31
 70
     1
102
RTVSPropertyOp32
 70
     1
  0
XRECORD
  5
365
102
{ACAD_REACTORS
330
364
102
}
330
364
100
AcDbXrecord
280
     1
102
RTVSPropertyOp0
 70
     1
102
RTVSPropertyOp1
 70
     1
102
RTVSPropertyOp2
 70
     1
102
RTVSPropertyOp3
 70
     1
102
RTVSPropertyOp4
 70
     1
102
RTVSPropertyOp5
 70
     1
102
RTVSPropertyOp6
 70
     1
102
RTVSPropertyOp7
 70
     1
102
RTVSPropertyOp8
 70
     1
102
RTVSPropertyOp9
 70
     1
102
RTVSPropertyOp10
 70
     1
102
RTVSPropertyOp11
 70
     1
102
RTVSPropertyOp12
 70
     1
102
RTVSPropertyOp13
 70
     1
102
RTVSPropertyOp14
 70
     1
102
RTVSPropertyOp15
 70
     1
102
RTVSPropertyOp16
 70
     1
102
RTVSPropertyOp17
 70
     1
102
RTVSPropertyOp18
 70
     1
102
RTVSPropertyOp19
 70
     1
102
RTVSPropertyOp20
 70
     1
102
RTVSPropertyOp21
 70
     1
102
RTVSPropertyOp22
 70
     1
102
RTVSPropertyOp23
 70
     1
102
RTVSPropertyOp24
 70
     1
102
RTVSPropertyOp25
 70
     1
102
RTVSPropertyOp26
 70
     1
102
RTVSPropertyOp27
 70
     1
102
RTVSPropertyOp28
 70
     1
102
RTVSPropertyOp29
 70
     1
102
RTVSPropertyOp30
 70
     1
102
RTVSPropertyOp31
 70
     1
102
RTVSPropertyOp32
 70
     1
  0
XRECORD
  5
369
102
{ACAD_REACTORS
330
368
102
}
330
368
100
AcDbXrecord
280
     1
102
RTVSPropertyOp0
 70
     1
102
RTVSPropertyOp1
 70
     1
102
RTVSPropertyOp2
 70
     1
102
RTVSPropertyOp3
 70
     1
102
RTVSPropertyOp4
 70
     1
102
RTVSPropertyOp5
 70
     1
102
RTVSPropertyOp6
 70
     1
102
RTVSPropertyOp7
 70
     1
102
RTVSPropertyOp8
 70
     1
102
RTVSPropertyOp9
 70
     1
102
RTVSPropertyOp10
 70
     1
102
RTVSPropertyOp11
 70
     1
102
RTVSPropertyOp12
 70
     1
102
RTVSPropertyOp13
 70
     1
102
RTVSPropertyOp14
 70
     1
102
RTVSPropertyOp15
 70
     1
102
RTVSPropertyOp16
 70
     1
102
RTVSPropertyOp17
 70
     1
102
RTVSPropertyOp18
 70
     1
102
RTVSPropertyOp19
 70
     1
102
RTVSPropertyOp20
 70
     1
102
RTVSPropertyOp21
 70
     1
102
RTVSPropertyOp22
 70
     1
102
RTVSPropertyOp23
 70
     1
102
RTVSPropertyOp24
 70
     1
102
RTVSPropertyOp25
 70
     1
102
RTVSPropertyOp26
 70
     1
102
RTVSPropertyOp27
 70
     1
102
RTVSPropertyOp28
 70
     1
102
RTVSPropertyOp29
 70
     1
102
RTVSPropertyOp30
 70
     1
102
RTVSPropertyOp31
 70
     1
102
RTVSPropertyOp32
 70
     1
  0
XRECORD
  5
383
102
{ACAD_REACTORS
330
382
102
}
330
382
100
AcDbXrecord
280
     1
102
RTVSPropertyOp0
 70
     0
102
RTVSPropertyOp1
 70
     0
102
RTVSPropertyOp2
 70
     0
102
RTVSPropertyOp3
 70
     0
102
RTVSPropertyOp4
 70
     0
102
RTVSPropertyOp5
 70
     0
102
RTVSPropertyOp6
 70
     0
102
RTVSPropertyOp7
 70
     0
102
RTVSPropertyOp8
 70
     0
102
RTVSPropertyOp9
 70
     0
102
RTVSPropertyOp10
 70
     0
102
RTVSPropertyOp11
 70
     0
102
RTVSPropertyOp12
 70
     0
102
RTVSPropertyOp13
 70
     0
102
RTVSPropertyOp14
 70
     2
102
RTVSPropertyOp15
 70
     0
102
RTVSPropertyOp16
 70
     0
102
RTVSPropertyOp17
 70
     0
102
RTVSPropertyOp18
 70
     0
102
RTVSPropertyOp19
 70
     0
102
RTVSPropertyOp20
 70
     0
102
RTVSPropertyOp21
 70
     0
102
RTVSPropertyOp22
 70
     0
102
RTVSPropertyOp23
 70
     0
102
RTVSPropertyOp24
 70
     0
102
RTVSPropertyOp25
 70
     0
102
RTVSPropertyOp26
 70
     0
102
RTVSPropertyOp27
 70
     0
102
RTVSPropertyOp28
 70
     1
102
RTVSPropertyOp29
 70
     1
102
RTVSPropertyOp30
 70
     1
102
RTVSPropertyOp31
 70
     1
102
RTVSPropertyOp32
 70
     1
  0
XRECORD
  5
371
102
{ACAD_REACTORS
330
370
102
}
330
370
100
AcDbXrecord
280
     1
102
RTVSPropertyOp0
 70
     1
102
RTVSPropertyOp1
 70
     1
102
RTVSPropertyOp2
 70
     1
102
RTVSPropertyOp3
 70
     1
102
RTVSPropertyOp4
 70
     1
102
RTVSPropertyOp5
 70
     1
102
RTVSPropertyOp6
 70
     1
102
RTVSPropertyOp7
 70
     1
102
RTVSPropertyOp8
 70
     1
102
RTVSPropertyOp9
 70
     1
102
RTVSPropertyOp10
 70
     1
102
RTVSPropertyOp11
 70
     1
102
RTVSPropertyOp12
 70
     1
102
RTVSPropertyOp13
 70
     1
102
RTVSPropertyOp14
 70
     1
102
RTVSPropertyOp15
 70
     1
102
RTVSPropertyOp16
 70
     1
102
RTVSPropertyOp17
 70
     1
102
RTVSPropertyOp18
 70
     1
102
RTVSPropertyOp19
 70
     1
102
RTVSPropertyOp20
 70
     1
102
RTVSPropertyOp21
 70
     1
102
RTVSPropertyOp22
 70
     1
102
RTVSPropertyOp23
 70
     1
102
RTVSPropertyOp24
 70
     1
102
RTVSPropertyOp25
 70
     1
102
RTVSPropertyOp26
 70
     1
102
RTVSPropertyOp27
 70
     1
102
RTVSPropertyOp28
 70
     1
102
RTVSPropertyOp29
 70
     1
102
RTVSPropertyOp30
 70
     1
102
RTVSPropertyOp31
 70
     1
102
RTVSPropertyOp32
 70
     1
  0
XRECORD
  5
355
102
{ACAD_REACTORS
330
354
102
}
330
354
100
AcDbXrecord
280
     1
102
RTVSPropertyOp0
 70
     1
102
RTVSPropertyOp1
 70
     1
102
RTVSPropertyOp2
 70
     1
102
RTVSPropertyOp3
 70
     1
102
RTVSPropertyOp4
 70
     1
102
RTVSPropertyOp5
 70
     1
102
RTVSPropertyOp6
 70
     1
102
RTVSPropertyOp7
 70
     1
102
RTVSPropertyOp8
 70
     1
102
RTVSPropertyOp9
 70
     1
102
RTVSPropertyOp10
 70
     1
102
RTVSPropertyOp11
 70
     1
102
RTVSPropertyOp12
 70
     1
102
RTVSPropertyOp13
 70
     1
102
RTVSPropertyOp14
 70
     1
102
RTVSPropertyOp15
 70
     1
102
RTVSPropertyOp16
 70
     1
102
RTVSPropertyOp17
 70
     1
102
RTVSPropertyOp18
 70
     1
102
RTVSPropertyOp19
 70
     1
102
RTVSPropertyOp20
 70
     1
102
RTVSPropertyOp21
 70
     1
102
RTVSPropertyOp22
 70
     1
102
RTVSPropertyOp23
 70
     1
102
RTVSPropertyOp24
 70
     1
102
RTVSPropertyOp25
 70
     1
102
RTVSPropertyOp26
 70
     1
102
RTVSPropertyOp27
 70
     1
102
RTVSPropertyOp28
 70
     1
102
RTVSPropertyOp29
 70
     1
102
RTVSPropertyOp30
 70
     1
102
RTVSPropertyOp31
 70
     1
102
RTVSPropertyOp32
 70
     1
  0
XRECORD
  5
357
102
{ACAD_REACTORS
330
356
102
}
330
356
100
AcDbXrecord
280
     1
102
RTVSPropertyOp0
 70
     1
102
RTVSPropertyOp1
 70
     1
102
RTVSPropertyOp2
 70
     1
102
RTVSPropertyOp3
 70
     1
102
RTVSPropertyOp4
 70
     1
102
RTVSPropertyOp5
 70
     1
102
RTVSPropertyOp6
 70
     1
102
RTVSPropertyOp7
 70
     1
102
RTVSPropertyOp8
 70
     1
102
RTVSPropertyOp9
 70
     1
102
RTVSPropertyOp10
 70
     1
102
RTVSPropertyOp11
 70
     1
102
RTVSPropertyOp12
 70
     1
102
RTVSPropertyOp13
 70
     1
102
RTVSPropertyOp14
 70
     1
102
RTVSPropertyOp15
 70
     1
102
RTVSPropertyOp16
 70
     1
102
RTVSPropertyOp17
 70
     1
102
RTVSPropertyOp18
 70
     1
102
RTVSPropertyOp19
 70
     1
102
RTVSPropertyOp20
 70
     1
102
RTVSPropertyOp21
 70
     1
102
RTVSPropertyOp22
 70
     1
102
RTVSPropertyOp23
 70
     1
102
RTVSPropertyOp24
 70
     1
102
RTVSPropertyOp25
 70
     1
102
RTVSPropertyOp26
 70
     1
102
RTVSPropertyOp27
 70
     1
102
RTVSPropertyOp28
 70
     1
102
RTVSPropertyOp29
 70
     1
102
RTVSPropertyOp30
 70
     1
102
RTVSPropertyOp31
 70
     1
102
RTVSPropertyOp32
 70
     1
  0
XRECORD
  5
359
102
{ACAD_REACTORS
330
358
102
}
330
358
100
AcDbXrecord
280
     1
102
RTVSPropertyOp0
 70
     1
102
RTVSPropertyOp1
 70
     1
102
RTVSPropertyOp2
 70
     1
102
RTVSPropertyOp3
 70
     1
102
RTVSPropertyOp4
 70
     1
102
RTVSPropertyOp5
 70
     1
102
RTVSPropertyOp6
 70
     1
102
RTVSPropertyOp7
 70
     1
102
RTVSPropertyOp8
 70
     1
102
RTVSPropertyOp9
 70
     1
102
RTVSPropertyOp10
 70
     1
102
RTVSPropertyOp11
 70
     1
102
RTVSPropertyOp12
 70
     1
102
RTVSPropertyOp13
 70
     1
102
RTVSPropertyOp14
 70
     1
102
RTVSPropertyOp15
 70
     1
102
RTVSPropertyOp16
 70
     1
102
RTVSPropertyOp17
 70
     1
102
RTVSPropertyOp18
 70
     1
102
RTVSPropertyOp19
 70
     1
102
RTVSPropertyOp20
 70
     1
102
RTVSPropertyOp21
 70
     1
102
RTVSPropertyOp22
 70
     1
102
RTVSPropertyOp23
 70
     1
102
RTVSPropertyOp24
 70
     1
102
RTVSPropertyOp25
 70
     1
102
RTVSPropertyOp26
 70
     1
102
RTVSPropertyOp27
 70
     1
102
RTVSPropertyOp28
 70
     1
102
RTVSPropertyOp29
 70
     1
102
RTVSPropertyOp30
 70
     1
102
RTVSPropertyOp31
 70
     1
102
RTVSPropertyOp32
 70
     1
  0
XRECORD
  5
35B
102
{ACAD_REACTORS
330
35A
102
}
330
35A
100
AcDbXrecord
280
     1
102
RTVSPropertyOp0
 70
     1
102
RTVSPropertyOp1
 70
     1
102
RTVSPropertyOp2
 70
     1
102
RTVSPropertyOp3
 70
     1
102
RTVSPropertyOp4
 70
     1
102
RTVSPropertyOp5
 70
     1
102
RTVSPropertyOp6
 70
     1
102
RTVSPropertyOp7
 70
     1
102
RTVSPropertyOp8
 70
     1
102
RTVSPropertyOp9
 70
     1
102
RTVSPropertyOp10
 70
     1
102
RTVSPropertyOp11
 70
     1
102
RTVSPropertyOp12
 70
     1
102
RTVSPropertyOp13
 70
     1
102
RTVSPropertyOp14
 70
     1
102
RTVSPropertyOp15
 70
     1
102
RTVSPropertyOp16
 70
     1
102
RTVSPropertyOp17
 70
     1
102
RTVSPropertyOp18
 70
     1
102
RTVSPropertyOp19
 70
     1
102
RTVSPropertyOp20
 70
     1
102
RTVSPropertyOp21
 70
     1
102
RTVSPropertyOp22
 70
     1
102
RTVSPropertyOp23
 70
     1
102
RTVSPropertyOp24
 70
     1
102
RTVSPropertyOp25
 70
     1
102
RTVSPropertyOp26
 70
     1
102
RTVSPropertyOp27
 70
     1
102
RTVSPropertyOp28
 70
     1
102
RTVSPropertyOp29
 70
     1
102
RTVSPropertyOp30
 70
     1
102
RTVSPropertyOp31
 70
     1
102
RTVSPropertyOp32
 70
     1
  0
XRECORD
  5
363
102
{ACAD_REACTORS
330
362
102
}
330
362
100
AcDbXrecord
280
     1
102
RTVSPropertyOp0
 70
     1
102
RTVSPropertyOp1
 70
     1
102
RTVSPropertyOp2
 70
     1
102
RTVSPropertyOp3
 70
     1
102
RTVSPropertyOp4
 70
     1
102
RTVSPropertyOp5
 70
     1
102
RTVSPropertyOp6
 70
     1
102
RTVSPropertyOp7
 70
     1
102
RTVSPropertyOp8
 70
     1
102
RTVSPropertyOp9
 70
     1
102
RTVSPropertyOp10
 70
     1
102
RTVSPropertyOp11
 70
     1
102
RTVSPropertyOp12
 70
     1
102
RTVSPropertyOp13
 70
     1
102
RTVSPropertyOp14
 70
     1
102
RTVSPropertyOp15
 70
     1
102
RTVSPropertyOp16
 70
     1
102
RTVSPropertyOp17
 70
     1
102
RTVSPropertyOp18
 70
     1
102
RTVSPropertyOp19
 70
     1
102
RTVSPropertyOp20
 70
     1
102
RTVSPropertyOp21
 70
     1
102
RTVSPropertyOp22
 70
     1
102
RTVSPropertyOp23
 70
     1
102
RTVSPropertyOp24
 70
     1
102
RTVSPropertyOp25
 70
     1
102
RTVSPropertyOp26
 70
     1
102
RTVSPropertyOp27
 70
     1
102
RTVSPropertyOp28
 70
     1
102
RTVSPropertyOp29
 70
     1
102
RTVSPropertyOp30
 70
     1
102
RTVSPropertyOp31
 70
     1
102
RTVSPropertyOp32
 70
     1
  0
XRECORD
  5
37F
102
{ACAD_REACTORS
330
37E
102
}
330
37E
100
AcDbXrecord
280
     1
102
RTVSPropertyOp0
 70
     0
102
RTVSPropertyOp1
 70
     0
102
RTVSPropertyOp2
 70
     0
102
RTVSPropertyOp3
 70
     0
102
RTVSPropertyOp4
 70
     0
102
RTVSPropertyOp5
 70
     0
102
RTVSPropertyOp6
 70
     0
102
RTVSPropertyOp7
 70
     0
102
RTVSPropertyOp8
 70
     0
102
RTVSPropertyOp9
 70
     0
102
RTVSPropertyOp10
 70
     0
102
RTVSPropertyOp11
 70
     0
102
RTVSPropertyOp12
 70
     0
102
RTVSPropertyOp13
 70
     0
102
RTVSPropertyOp14
 70
     2
102
RTVSPropertyOp15
 70
     0
102
RTVSPropertyOp16
 70
     0
102
RTVSPropertyOp17
 70
     0
102
RTVSPropertyOp18
 70
     0
102
RTVSPropertyOp19
 70
     0
102
RTVSPropertyOp20
 70
     0
102
RTVSPropertyOp21
 70
     0
102
RTVSPropertyOp22
 70
     0
102
RTVSPropertyOp23
 70
     0
102
RTVSPropertyOp24
 70
     0
102
RTVSPropertyOp25
 70
     0
102
RTVSPropertyOp26
 70
     0
102
RTVSPropertyOp27
 70
     0
102
RTVSPropertyOp28
 70
     1
102
RTVSPropertyOp29
 70
     1
102
RTVSPropertyOp30
 70
     1
102
RTVSPropertyOp31
 70
     1
102
RTVSPropertyOp32
 70
     1
  0
XRECORD
  5
36F
102
{ACAD_REACTORS
330
36E
102
}
330
36E
100
AcDbXrecord
280
     1
102
RTVSPropertyOp0
 70
     1
102
RTVSPropertyOp1
 70
     1
102
RTVSPropertyOp2
 70
     1
102
RTVSPropertyOp3
 70
     1
102
RTVSPropertyOp4
 70
     1
102
RTVSPropertyOp5
 70
     1
102
RTVSPropertyOp6
 70
     1
102
RTVSPropertyOp7
 70
     1
102
RTVSPropertyOp8
 70
     1
102
RTVSPropertyOp9
 70
     1
102
RTVSPropertyOp10
 70
     1
102
RTVSPropertyOp11
 70
     1
102
RTVSPropertyOp12
 70
     1
102
RTVSPropertyOp13
 70
     1
102
RTVSPropertyOp14
 70
     1
102
RTVSPropertyOp15
 70
     1
102
RTVSPropertyOp16
 70
     1
102
RTVSPropertyOp17
 70
     1
102
RTVSPropertyOp18
 70
     1
102
RTVSPropertyOp19
 70
     1
102
RTVSPropertyOp20
 70
     1
102
RTVSPropertyOp21
 70
     1
102
RTVSPropertyOp22
 70
     1
102
RTVSPropertyOp23
 70
     1
102
RTVSPropertyOp24
 70
     1
102
RTVSPropertyOp25
 70
     1
102
RTVSPropertyOp26
 70
     1
102
RTVSPropertyOp27
 70
     1
102
RTVSPropertyOp28
 70
     1
102
RTVSPropertyOp29
 70
     1
102
RTVSPropertyOp30
 70
     1
102
RTVSPropertyOp31
 70
     1
102
RTVSPropertyOp32
 70
     1
  0
XRECORD
  5
381
102
{ACAD_REACTORS
330
380
102
}
330
380
100
AcDbXrecord
280
     1
102
RTVSPropertyOp0
 70
     0
102
RTVSPropertyOp1
 70
     0
102
RTVSPropertyOp2
 70
     0
102
RTVSPropertyOp3
 70
     0
102
RTVSPropertyOp4
 70
     0
102
RTVSPropertyOp5
 70
     0
102
RTVSPropertyOp6
 70
     0
102
RTVSPropertyOp7
 70
     0
102
RTVSPropertyOp8
 70
     0
102
RTVSPropertyOp9
 70
     0
102
RTVSPropertyOp10
 70
     0
102
RTVSPropertyOp11
 70
     0
102
RTVSPropertyOp12
 70
     0
102
RTVSPropertyOp13
 70
     0
102
RTVSPropertyOp14
 70
     2
102
RTVSPropertyOp15
 70
     0
102
RTVSPropertyOp16
 70
     0
102
RTVSPropertyOp17
 70
     0
102
RTVSPropertyOp18
 70
     0
102
RTVSPropertyOp19
 70
     0
102
RTVSPropertyOp20
 70
     0
102
RTVSPropertyOp21
 70
     0
102
RTVSPropertyOp22
 70
     0
102
RTVSPropertyOp23
 70
     0
102
RTVSPropertyOp24
 70
     0
102
RTVSPropertyOp25
 70
     0
102
RTVSPropertyOp26
 70
     0
102
RTVSPropertyOp27
 70
     0
102
RTVSPropertyOp28
 70
     1
102
RTVSPropertyOp29
 70
     1
102
RTVSPropertyOp30
 70
     1
102
RTVSPropertyOp31
 70
     1
102
RTVSPropertyOp32
 70
     1
  0
XRECORD
  5
367
102
{ACAD_REACTORS
330
366
102
}
330
366
100
AcDbXrecord
280
     1
102
RTVSPropertyOp0
 70
     1
102
RTVSPropertyOp1
 70
     1
102
RTVSPropertyOp2
 70
     1
102
RTVSPropertyOp3
 70
     1
102
RTVSPropertyOp4
 70
     1
102
RTVSPropertyOp5
 70
     1
102
RTVSPropertyOp6
 70
     1
102
RTVSPropertyOp7
 70
     1
102
RTVSPropertyOp8
 70
     1
102
RTVSPropertyOp9
 70
     1
102
RTVSPropertyOp10
 70
     1
102
RTVSPropertyOp11
 70
     1
102
RTVSPropertyOp12
 70
     1
102
RTVSPropertyOp13
 70
     1
102
RTVSPropertyOp14
 70
     1
102
RTVSPropertyOp15
 70
     1
102
RTVSPropertyOp16
 70
     1
102
RTVSPropertyOp17
 70
     1
102
RTVSPropertyOp18
 70
     1
102
RTVSPropertyOp19
 70
     1
102
RTVSPropertyOp20
 70
     1
102
RTVSPropertyOp21
 70
     1
102
RTVSPropertyOp22
 70
     1
102
RTVSPropertyOp23
 70
     1
102
RTVSPropertyOp24
 70
     1
102
RTVSPropertyOp25
 70
     1
102
RTVSPropertyOp26
 70
     1
102
RTVSPropertyOp27
 70
     1
102
RTVSPropertyOp28
 70
     1
102
RTVSPropertyOp29
 70
     1
102
RTVSPropertyOp30
 70
     1
102
RTVSPropertyOp31
 70
     1
102
RTVSPropertyOp32
 70
     1
  0
XRECORD
  5
37D
102
{ACAD_REACTORS
330
37C
102
}
330
37C
100
AcDbXrecord
280
     1
102
RTVSPropertyOp0
 70
     1
102
RTVSPropertyOp1
 70
     1
102
RTVSPropertyOp2
 70
     1
102
RTVSPropertyOp3
 70
     1
102
RTVSPropertyOp4
 70
     1
102
RTVSPropertyOp5
 70
     1
102
RTVSPropertyOp6
 70
     1
102
RTVSPropertyOp7
 70
     1
102
RTVSPropertyOp8
 70
     1
102
RTVSPropertyOp9
 70
     1
102
RTVSPropertyOp10
 70
     1
102
RTVSPropertyOp11
 70
     1
102
RTVSPropertyOp12
 70
     1
102
RTVSPropertyOp13
 70
     1
102
RTVSPropertyOp14
 70
     1
102
RTVSPropertyOp15
 70
     1
102
RTVSPropertyOp16
 70
     1
102
RTVSPropertyOp17
 70
     1
102
RTVSPropertyOp18
 70
     1
102
RTVSPropertyOp19
 70
     1
102
RTVSPropertyOp20
 70
     1
102
RTVSPropertyOp21
 70
     1
102
RTVSPropertyOp22
 70
     1
102
RTVSPropertyOp23
 70
     1
102
RTVSPropertyOp24
 70
     1
102
RTVSPropertyOp25
 70
     1
102
RTVSPropertyOp26
 70
     1
102
RTVSPropertyOp27
 70
     1
102
RTVSPropertyOp28
 70
     1
102
RTVSPropertyOp29
 70
     1
102
RTVSPropertyOp30
 70
     1
102
RTVSPropertyOp31
 70
     1
102
RTVSPropertyOp32
 70
     1
  0
XRECORD
  5
37B
102
{ACAD_REACTORS
330
37A
102
}
330
37A
100
AcDbXrecord
280
     1
102
RTVSPropertyOp0
 70
     1
102
RTVSPropertyOp1
 70
     1
102
RTVSPropertyOp2
 70
     1
102
RTVSPropertyOp3
 70
     1
102
RTVSPropertyOp4
 70
     1
102
RTVSPropertyOp5
 70
     1
102
RTVSPropertyOp6
 70
     1
102
RTVSPropertyOp7
 70
     1
102
RTVSPropertyOp8
 70
     1
102
RTVSPropertyOp9
 70
     1
102
RTVSPropertyOp10
 70
     1
102
RTVSPropertyOp11
 70
     1
102
RTVSPropertyOp12
 70
     1
102
RTVSPropertyOp13
 70
     1
102
RTVSPropertyOp14
 70
     1
102
RTVSPropertyOp15
 70
     1
102
RTVSPropertyOp16
 70
     1
102
RTVSPropertyOp17
 70
     1
102
RTVSPropertyOp18
 70
     1
102
RTVSPropertyOp19
 70
     1
102
RTVSPropertyOp20
 70
     1
102
RTVSPropertyOp21
 70
     1
102
RTVSPropertyOp22
 70
     1
102
RTVSPropertyOp23
 70
     1
102
RTVSPropertyOp24
 70
     1
102
RTVSPropertyOp25
 70
     1
102
RTVSPropertyOp26
 70
     1
102
RTVSPropertyOp27
 70
     1
102
RTVSPropertyOp28
 70
     1
102
RTVSPropertyOp29
 70
     1
102
RTVSPropertyOp30
 70
     1
102
RTVSPropertyOp31
 70
     1
102
RTVSPropertyOp32
 70
     1
  0
XRECORD
  5
375
102
{ACAD_REACTORS
330
374
102
}
330
374
100
AcDbXrecord
280
     1
102
RTVSPropertyOp0
 70
     1
102
RTVSPropertyOp1
 70
     1
102
RTVSPropertyOp2
 70
     1
102
RTVSPropertyOp3
 70
     1
102
RTVSPropertyOp4
 70
     1
102
RTVSPropertyOp5
 70
     1
102
RTVSPropertyOp6
 70
     1
102
RTVSPropertyOp7
 70
     1
102
RTVSPropertyOp8
 70
     1
102
RTVSPropertyOp9
 70
     1
102
RTVSPropertyOp10
 70
     1
102
RTVSPropertyOp11
 70
     1
102
RTVSPropertyOp12
 70
     1
102
RTVSPropertyOp13
 70
     1
102
RTVSPropertyOp14
 70
     1
102
RTVSPropertyOp15
 70
     1
102
RTVSPropertyOp16
 70
     1
102
RTVSPropertyOp17
 70
     1
102
RTVSPropertyOp18
 70
     1
102
RTVSPropertyOp19
 70
     1
102
RTVSPropertyOp20
 70
     1
102
RTVSPropertyOp21
 70
     1
102
RTVSPropertyOp22
 70
     1
102
RTVSPropertyOp23
 70
     1
102
RTVSPropertyOp24
 70
     1
102
RTVSPropertyOp25
 70
     1
102
RTVSPropertyOp26
 70
     1
102
RTVSPropertyOp27
 70
     1
102
RTVSPropertyOp28
 70
     1
102
RTVSPropertyOp29
 70
     1
102
RTVSPropertyOp30
 70
     1
102
RTVSPropertyOp31
 70
     1
102
RTVSPropertyOp32
 70
     1
  0
XRECORD
  5
377
102
{ACAD_REACTORS
330
376
102
}
330
376
100
AcDbXrecord
280
     1
102
RTVSPropertyOp0
 70
     1
102
RTVSPropertyOp1
 70
     1
102
RTVSPropertyOp2
 70
     1
102
RTVSPropertyOp3
 70
     1
102
RTVSPropertyOp4
 70
     1
102
RTVSPropertyOp5
 70
     1
102
RTVSPropertyOp6
 70
     1
102
RTVSPropertyOp7
 70
     1
102
RTVSPropertyOp8
 70
     1
102
RTVSPropertyOp9
 70
     1
102
RTVSPropertyOp10
 70
     1
102
RTVSPropertyOp11
 70
     1
102
RTVSPropertyOp12
 70
     1
102
RTVSPropertyOp13
 70
     1
102
RTVSPropertyOp14
 70
     1
102
RTVSPropertyOp15
 70
     1
102
RTVSPropertyOp16
 70
     1
102
RTVSPropertyOp17
 70
     1
102
RTVSPropertyOp18
 70
     1
102
RTVSPropertyOp19
 70
     1
102
RTVSPropertyOp20
 70
     1
102
RTVSPropertyOp21
 70
     1
102
RTVSPropertyOp22
 70
     1
102
RTVSPropertyOp23
 70
     1
102
RTVSPropertyOp24
 70
     1
102
RTVSPropertyOp25
 70
     1
102
RTVSPropertyOp26
 70
     1
102
RTVSPropertyOp27
 70
     1
102
RTVSPropertyOp28
 70
     1
102
RTVSPropertyOp29
 70
     1
102
RTVSPropertyOp30
 70
     1
102
RTVSPropertyOp31
 70
     1
102
RTVSPropertyOp32
 70
     1
  0
XRECORD
  5
36D
102
{ACAD_REACTORS
330
36C
102
}
330
36C
100
AcDbXrecord
280
     1
102
RTVSPropertyOp0
 70
     1
102
RTVSPropertyOp1
 70
     1
102
RTVSPropertyOp2
 70
     1
102
RTVSPropertyOp3
 70
     1
102
RTVSPropertyOp4
 70
     1
102
RTVSPropertyOp5
 70
     1
102
RTVSPropertyOp6
 70
     1
102
RTVSPropertyOp7
 70
     1
102
RTVSPropertyOp8
 70
     1
102
RTVSPropertyOp9
 70
     1
102
RTVSPropertyOp10
 70
     1
102
RTVSPropertyOp11
 70
     1
102
RTVSPropertyOp12
 70
     1
102
RTVSPropertyOp13
 70
     1
102
RTVSPropertyOp14
 70
     1
102
RTVSPropertyOp15
 70
     1
102
RTVSPropertyOp16
 70
     1
102
RTVSPropertyOp17
 70
     1
102
RTVSPropertyOp18
 70
     1
102
RTVSPropertyOp19
 70
     1
102
RTVSPropertyOp20
 70
     1
102
RTVSPropertyOp21
 70
     1
102
RTVSPropertyOp22
 70
     1
102
RTVSPropertyOp23
 70
     1
102
RTVSPropertyOp24
 70
     1
102
RTVSPropertyOp25
 70
     1
102
RTVSPropertyOp26
 70
     1
102
RTVSPropertyOp27
 70
     1
102
RTVSPropertyOp28
 70
     1
102
RTVSPropertyOp29
 70
     1
102
RTVSPropertyOp30
 70
     1
102
RTVSPropertyOp31
 70
     1
102
RTVSPropertyOp32
 70
     1
  0
XRECORD
  5
361
102
{ACAD_REACTORS
330
360
102
}
330
360
100
AcDbXrecord
280
     1
102
RTVSPropertyOp0
 70
     1
102
RTVSPropertyOp1
 70
     1
102
RTVSPropertyOp2
 70
     1
102
RTVSPropertyOp3
 70
     1
102
RTVSPropertyOp4
 70
     1
102
RTVSPropertyOp5
 70
     1
102
RTVSPropertyOp6
 70
     1
102
RTVSPropertyOp7
 70
     1
102
RTVSPropertyOp8
 70
     1
102
RTVSPropertyOp9
 70
     1
102
RTVSPropertyOp10
 70
     1
102
RTVSPropertyOp11
 70
     1
102
RTVSPropertyOp12
 70
     1
102
RTVSPropertyOp13
 70
     1
102
RTVSPropertyOp14
 70
     1
102
RTVSPropertyOp15
 70
     1
102
RTVSPropertyOp16
 70
     1
102
RTVSPropertyOp17
 70
     1
102
RTVSPropertyOp18
 70
     1
102
RTVSPropertyOp19
 70
     1
102
RTVSPropertyOp20
 70
     1
102
RTVSPropertyOp21
 70
     1
102
RTVSPropertyOp22
 70
     1
102
RTVSPropertyOp23
 70
     1
102
RTVSPropertyOp24
 70
     1
102
RTVSPropertyOp25
 70
     1
102
RTVSPropertyOp26
 70
     1
102
RTVSPropertyOp27
 70
     1
102
RTVSPropertyOp28
 70
     1
102
RTVSPropertyOp29
 70
     1
102
RTVSPropertyOp30
 70
     1
102
RTVSPropertyOp31
 70
     1
102
RTVSPropertyOp32
 70
     1
  0
XRECORD
  5
379
102
{ACAD_REACTORS
330
378
102
}
330
378
100
AcDbXrecord
280
     1
102
RTVSPropertyOp0
 70
     1
102
RTVSPropertyOp1
 70
     1
102
RTVSPropertyOp2
 70
     1
102
RTVSPropertyOp3
 70
     1
102
RTVSPropertyOp4
 70
     1
102
RTVSPropertyOp5
 70
     1
102
RTVSPropertyOp6
 70
     1
102
RTVSPropertyOp7
 70
     1
102
RTVSPropertyOp8
 70
     1
102
RTVSPropertyOp9
 70
     1
102
RTVSPropertyOp10
 70
     1
102
RTVSPropertyOp11
 70
     1
102
RTVSPropertyOp12
 70
     1
102
RTVSPropertyOp13
 70
     1
102
RTVSPropertyOp14
 70
     1
102
RTVSPropertyOp15
 70
     1
102
RTVSPropertyOp16
 70
     1
102
RTVSPropertyOp17
 70
     1
102
RTVSPropertyOp18
 70
     1
102
RTVSPropertyOp19
 70
     1
102
RTVSPropertyOp20
 70
     1
102
RTVSPropertyOp21
 70
     1
102
RTVSPropertyOp22
 70
     1
102
RTVSPropertyOp23
 70
     1
102
RTVSPropertyOp24
 70
     1
102
RTVSPropertyOp25
 70
     1
102
RTVSPropertyOp26
 70
     1
102
RTVSPropertyOp27
 70
     1
102
RTVSPropertyOp28
 70
     1
102
RTVSPropertyOp29
 70
     1
102
RTVSPropertyOp30
 70
     1
102
RTVSPropertyOp31
 70
     1
102
RTVSPropertyOp32
 70
     1
  0
ENDSEC
  0
EOF
