  0
SECTION
  2
HEADER
  9
$ACADVER
  1
AC1015
  9
$ACADMAINTVER
 70
     6
  9
$DWGCODEPAGE
  3
ANSI_1252
  9
$INSBASE
 10
0.0
 20
0.0
 30
0.0
  9
$EXTMIN
 10
0.2278396612176437
 20
0.3187696960102073
 30
0.0
  9
$EXTMAX
 10
16.24613966145664
 20
8.592381400131504
 30
0.0
  9
$LIMMIN
 10
0.0
 20
0.0
  9
$LIMMAX
 10
8.0
 20
10.5
  9
$ORTHOMODE
 70
     1
  9
$REGENMODE
 70
     1
  9
$FILLMODE
 70
     1
  9
$QTEXTMODE
 70
     0
  9
$MIRRTEXT
 70
     1
  9
$LTSCALE
 40
0.5
  9
$ATTMODE
 70
     1
  9
$TEXTSIZE
 40
0.09
  9
$TRACEWID
 40
0.05
  9
$TEXTSTYLE
  7
STANDARD
  9
$CLAYER
  8
0
  9
$CELTYPE
  6
ByLayer
  9
$CECOLOR
 62
   256
  9
$CELTSCALE
 40
1.0
  9
$DISPSILH
 70
     0
  9
$DIMSCALE
 40
1.000000000000049
  9
$DIMASZ
 40
0.1875
  9
$DIMEXO
 40
0.062
  9
$DIMDLI
 40
0.375
  9
$DIMRND
 40
0.0
  9
$DIMDLE
 40
0.0
  9
$DIMEXE
 40
0.08
  9
$DIMTP
 40
0.0
  9
$DIMTM
 40
0.0
  9
$DIMTXT
 40
0.1525
  9
$DIMCEN
 40
0.09
  9
$DIMTSZ
 40
0.0
  9
$DIMTOL
 70
     0
  9
$DIMLIM
 70
     0
  9
$DIMTIH
 70
     1
  9
$DIMTOH
 70
     1
  9
$DIMSE1
 70
     0
  9
$DIMSE2
 70
     0
  9
$DIMTAD
 70
     0
  9
$DIMZIN
 70
     0
  9
$DIMBLK
  1

  9
$DIMASO
 70
     0
  9
$DIMSHO
 70
     0
  9
$DIMPOST
  1

  9
$DIMAPOST
  1

  9
$DIMALT
 70
     0
  9
$DIMALTD
 70
     2
  9
$DIMALTF
 40
25.4
  9
$DIMLFAC
 40
1.0
  9
$DIMTOFL
 70
     0
  9
$DIMTVP
 40
0.0
  9
$DIMTIX
 70
     0
  9
$DIMSOXD
 70
     0
  9
$DIMSAH
 70
     0
  9
$DIMBLK1
  1

  9
$DIMBLK2
  1

  9
$DIMSTYLE
  2
Standard
  9
$DIMCLRD
 70
     0
  9
$DIMCLRE
 70
     0
  9
$DIMCLRT
 70
     0
  9
$DIMTFAC
 40
1.0
  9
$DIMGAP
 40
0.09
  9
$DIMJUST
 70
     0
  9
$DIMSD1
 70
     0
  9
$DIMSD2
 70
     0
  9
$DIMTOLJ
 70
     1
  9
$DIMTZIN
 70
     0
  9
$DIMALTZ
 70
     0
  9
$DIMALTTZ
 70
     0
  9
$DIMUPT
 70
     0
  9
$DIMDEC
 70
     5
  9
$DIMTDEC
 70
     5
  9
$DIMALTU
 70
     5
  9
$DIMALTTD
 70
     2
  9
$DIMTXSTY
  7
STANDARD
  9
$DIMAUNIT
 70
     0
  9
$DIMADEC
 70
     0
  9
$DIMALTRND
 40
0.0
  9
$DIMAZIN
 70
     0
  9
$DIMDSEP
 70
    46
  9
$DIMATFIT
 70
     3
  9
$DIMFRAC
 70
     2
  9
$DIMLDRBLK
  1

  9
$DIMLUNIT
 70
     5
  9
$DIMLWD
 70
    -2
  9
$DIMLWE
 70
    -2
  9
$DIMTMOVE
 70
     2
  9
$LUNITS
 70
     5
  9
$LUPREC
 70
     4
  9
$SKETCHINC
 40
0.1
  9
$FILLETRAD
 40
0.0
  9
$AUNITS
 70
     0
  9
$AUPREC
 70
     0
  9
$MENU
  1
acad
  9
$ELEVATION
 40
0.0
  9
$PELEVATION
 40
0.0
  9
$THICKNESS
 40
0.0
  9
$LIMCHECK
 70
     0
  9
$CHAMFERA
 40
0.0
  9
$CHAMFERB
 40
0.0
  9
$CHAMFERC
 40
0.0
  9
$CHAMFERD
 40
0.0
  9
$SKPOLY
 70
     0
  9
$TDCREATE
 40
2447146.945318287
  9
$TDUCREATE
 40
2447147.27865162
  9
$TDUPDATE
 40
2455076.910686192
  9
$TDUUPDATE
 40
2455077.244019526
  9
$TDINDWG
 40
0.5110309722
  9
$TDUSRTIMER
 40
0.5110309722
  9
$USRTIMER
 70
     1
  9
$ANGBASE
 50
0.0
  9
$ANGDIR
 70
     0
  9
$PDMODE
 70
     0
  9
$PDSIZE
 40
0.0
  9
$PLINEWID
 40
0.0
  9
$SPLFRAME
 70
     0
  9
$SPLINETYPE
 70
     6
  9
$SPLINESEGS
 70
     8
  9
$HANDSEED
  5
2DCC
  9
$SURFTAB1
 70
     6
  9
$SURFTAB2
 70
     6
  9
$SURFTYPE
 70
     6
  9
$SURFU
 70
     6
  9
$SURFV
 70
     6
  9
$UCSBASE
  2

  9
$UCSNAME
  2

  9
$UCSORG
 10
0.0
 20
0.0
 30
0.0
  9
$UCSXDIR
 10
1.0
 20
0.0
 30
0.0
  9
$UCSYDIR
 10
0.0
 20
1.0
 30
0.0
  9
$UCSORTHOREF
  2

  9
$UCSORTHOVIEW
 70
     0
  9
$UCSORGTOP
 10
0.0
 20
0.0
 30
0.0
  9
$UCSORGBOTTOM
 10
0.0
 20
0.0
 30
0.0
  9
$UCSORGLEFT
 10
0.0
 20
0.0
 30
0.0
  9
$UCSORGRIGHT
 10
0.0
 20
0.0
 30
0.0
  9
$UCSORGFRONT
 10
0.0
 20
0.0
 30
0.0
  9
$UCSORGBACK
 10
0.0
 20
0.0
 30
0.0
  9
$PUCSBASE
  2

  9
$PUCSNAME
  2

  9
$PUCSORG
 10
0.0
 20
0.0
 30
0.0
  9
$PUCSXDIR
 10
1.0
 20
0.0
 30
0.0
  9
$PUCSYDIR
 10
0.0
 20
1.0
 30
0.0
  9
$PUCSORTHOREF
  2

  9
$PUCSORTHOVIEW
 70
     0
  9
$PUCSORGTOP
 10
0.0
 20
0.0
 30
0.0
  9
$PUCSORGBOTTOM
 10
0.0
 20
0.0
 30
0.0
  9
$PUCSORGLEFT
 10
0.0
 20
0.0
 30
0.0
  9
$PUCSORGRIGHT
 10
0.0
 20
0.0
 30
0.0
  9
$PUCSORGFRONT
 10
0.0
 20
0.0
 30
0.0
  9
$PUCSORGBACK
 10
0.0
 20
0.0
 30
0.0
  9
$USERI1
 70
     0
  9
$USERI2
 70
     0
  9
$USERI3
 70
     0
  9
$USERI4
 70
     0
  9
$USERI5
 70
     0
  9
$USERR1
 40
0.0
  9
$USERR2
 40
0.0
  9
$USERR3
 40
0.0
  9
$USERR4
 40
0.0
  9
$USERR5
 40
0.0
  9
$WORLDVIEW
 70
     1
  9
$SHADEDGE
 70
     3
  9
$SHADEDIF
 70
    70
  9
$TILEMODE
 70
     1
  9
$MAXACTVP
 70
    16
  9
$PINSBASE
 10
0.0
 20
0.0
 30
0.0
  9
$PLIMCHECK
 70
     0
  9
$PEXTMIN
 10
1.000000000000000E+20
 20
1.000000000000000E+20
 30
1.000000000000000E+20
  9
$PEXTMAX
 10
-1.000000000000000E+20
 20
-1.000000000000000E+20
 30
-1.000000000000000E+20
  9
$PLIMMIN
 10
0.0
 20
0.0
  9
$PLIMMAX
 10
12.0
 20
9.0
  9
$UNITMODE
 70
     0
  9
$VISRETAIN
 70
     0
  9
$PLINEGEN
 70
     1
  9
$PSLTSCALE
 70
     0
  9
$TREEDEPTH
 70
  3020
  9
$CMLSTYLE
  2
Standard
  9
$CMLJUST
 70
     0
  9
$CMLSCALE
 40
1.0
  9
$PROXYGRAPHICS
 70
     1
  9
$MEASUREMENT
 70
     0
  9
$CELWEIGHT
370
    -1
  9
$ENDCAPS
280
     0
  9
$JOINSTYLE
280
     0
  9
$LWDISPLAY
290
     0
  9
$INSUNITS
 70
     0
  9
$HYPERLINKBASE
  1

  9
$STYLESHEET
  1
monochrome.ctb
  9
$XEDIT
290
     1
  9
$CEPSNTYPE
380
     0
  9
$PSTYLEMODE
290
     1
  9
$FINGERPRINTGUID
  2
{4E0ABB9A-9863-42E8-B1DC-CC5425E26CAF}
  9
$VERSIONGUID
  2
{31729E4F-E313-4137-97ED-6E441CCC149B}
  9
$EXTNAMES
290
     1
  9
$PSVPSCALE
 40
0.0
  9
$OLESTARTUP
290
     0
  0
ENDSEC
  0
SECTION
  2
CLASSES
  0
CLASS
  1
ACDBDICTIONARYWDFLT
  2
AcDbDictionaryWithDefault
  3
AutoCAD 2000
 90
        0
280
     0
281
     0
  0
CLASS
  1
ACDBPLACEHOLDER
  2
AcDbPlaceHolder
  3
ObjectDBX Classes
 90
        0
280
     0
281
     0
  0
CLASS
  1
LAYOUT
  2
AcDbLayout
  3
ObjectDBX Classes
 90
        0
280
     0
281
     0
  0
CLASS
  1
LONG_TRANSACTION
  2
AcDbLongTransaction
  3
ObjectDBX Classes
 90
   -65536
280
     1
281
     0
  0
CLASS
  1
LWPOLYLINE
  2
AcDbPolyline
  3
AutoCAD 2000
 90
        0
280
     0
281
     1
  0
CLASS
  1
HATCH
  2
AcDbHatch
  3
AutoCAD 2000
 90
        0
280
     0
281
     1
  0
CLASS
  1
XRECORD
  2
AcDbXrecord
  3
AutoCAD 2000
 90
        0
280
     0
281
     0
  0
CLASS
  1
LONG_TRANSACTION
  2
AcDbLongTransaction
  3
ObjectDBX Classes
 90
   -65536
280
     1
281
     0
  0
CLASS
  1
LWPOLYLINE
  2
AcDbPolyline
  3
AutoCAD 2000
 90
        0
280
     0
281
     1
  0
CLASS
  1
HATCH
  2
AcDbHatch
  3
AutoCAD 2000
 90
        0
280
     0
281
     1
  0
CLASS
  1
XRECORD
  2
AcDbXrecord
  3
AutoCAD 2000
 90
        0
280
     0
281
     0
  0
CLASS
  1
LONG_TRANSACTION
  2
AcDbLongTransaction
  3
ObjectDBX Classes
 90
   -65536
280
     1
281
     0
  0
CLASS
  1
LWPOLYLINE
  2
AcDbPolyline
  3
AutoCAD 2000
 90
        0
280
     0
281
     1
  0
CLASS
  1
HATCH
  2
AcDbHatch
  3
AutoCAD 2000
 90
        0
280
     0
281
     1
  0
CLASS
  1
XRECORD
  2
AcDbXrecord
  3
AutoCAD 2000
 90
        0
280
     0
281
     0
  0
CLASS
  1
LONG_TRANSACTION
  2
AcDbLongTransaction
  3
ObjectDBX Classes
 90
   -65536
280
     1
281
     0
  0
CLASS
  1
LWPOLYLINE
  2
AcDbPolyline
  3
AutoCAD 2000
 90
        0
280
     0
281
     1
  0
CLASS
  1
HATCH
  2
AcDbHatch
  3
AutoCAD 2000
 90
        0
280
     0
281
     1
  0
CLASS
  1
XRECORD
  2
AcDbXrecord
  3
AutoCAD 2000
 90
        0
280
     0
281
     0
  0
CLASS
  1
TABLESTYLE
  2
AcDbTableStyle
  3
ObjectDBX Classes
 90
     2047
280
     1
281
     0
  0
CLASS
  1
DICTIONARYVAR
  2
AcDbDictionaryVar
  3
AutoCAD 2000
 90
        0
280
     0
281
     0
  0
CLASS
  1
SORTENTSTABLE
  2
AcDbSortentsTable
  3
AutoCAD 2000
 90
        0
280
     0
281
     0
  0
CLASS
  1
DIMASSOC
  2
AcDbDimAssoc
  3
"AcDbDimAssoc|Product Desc:     AcDim ARX App For Dimension|Company:          Autodesk, Inc.|WEB Address:      www.autodesk.com"
 90
        0
280
     0
281
     0
  0
ENDSEC
  0
SECTION
  2
TABLES
  0
TABLE
  2
VPORT
  5
8
330
0
100
AcDbSymbolTable
 70
     4
  0
VPORT
  5
2DBF
330
8
100
AcDbSymbolTableRecord
100
AcDbViewportTableRecord
  2
*Active
 70
     0
 10
0.0
 20
0.0
 11
1.0
 21
1.0
 12
13.29091583549309
 22
2.778014576495732
 13
0.0
 23
0.0
 14
0.0625
 24
0.0625
 15
0.25
 25
0.25
 16
0.0
 26
0.0
 36
1.0
 17
0.0
 27
0.0
 37
0.0
 40
17.00199381690862
 41
1.893246187363835
 42
50.0
 43
0.0
 44
0.0
 50
0.0
 51
0.0
 71
     0
 72
   100
 73
     1
 74
     0
 75
     0
 76
     0
 77
     0
 78
     0
281
     0
 65
     1
110
0.0
120
0.0
130
0.0
111
1.0
121
0.0
131
0.0
112
0.0
122
1.0
132
0.0
 79
     0
146
0.0
  0
ENDTAB
  0
TABLE
  2
LTYPE
  5
5
330
0
100
AcDbSymbolTable
 70
     1
  0
LTYPE
  5
13
330
5
100
AcDbSymbolTableRecord
100
AcDbLinetypeTableRecord
  2
ByBlock
 70
     0
  3

 72
    65
 73
     0
 40
0.0
  0
LTYPE
  5
14
330
5
100
AcDbSymbolTableRecord
100
AcDbLinetypeTableRecord
  2
ByLayer
 70
     0
  3

 72
    65
 73
     0
 40
0.0
  0
LTYPE
  5
15
330
5
100
AcDbSymbolTableRecord
100
AcDbLinetypeTableRecord
  2
CONTINUOUS
 70
     0
  3
Solid line
 72
    65
 73
     0
 40
0.0
  0
ENDTAB
  0
TABLE
  2
LAYER
  5
2
102
{ACAD_XDICTIONARY
360
A01
102
}
330
0
100
AcDbSymbolTable
 70
     3
  0
LAYER
  5
10
330
2
100
AcDbSymbolTableRecord
100
AcDbLayerTableRecord
  2
0
 70
     0
 62
     7
  6
CONTINUOUS
370
    -3
390
F
  0
LAYER
  5
3F
330
2
100
AcDbSymbolTableRecord
100
AcDbLayerTableRecord
  2
DIM
 70
     0
 62
     5
  6
CONTINUOUS
370
    -3
390
F
  0
LAYER
  5
BCC
330
2
100
AcDbSymbolTableRecord
100
AcDbLayerTableRecord
  2
Defpoints
 70
     0
 62
     7
  6
CONTINUOUS
290
     0
370
    -3
390
F
  0
ENDTAB
  0
TABLE
  2
STYLE
  5
3
330
0
100
AcDbSymbolTable
 70
     1
  0
STYLE
  5
11
330
3
100
AcDbSymbolTableRecord
100
AcDbTextStyleTableRecord
  2
STANDARD
 70
     0
 40
0.0
 41
1.0
 50
0.0
 71
     0
 42
0.09
  3
TXT
  4

  0
ENDTAB
  0
TABLE
  2
VIEW
  5
6
330
0
100
AcDbSymbolTable
 70
     0
  0
ENDTAB
  0
TABLE
  2
UCS
  5
7
330
0
100
AcDbSymbolTable
 70
     0
  0
ENDTAB
  0
TABLE
  2
APPID
  5
9
330
0
100
AcDbSymbolTable
 70
     5
  0
APPID
  5
12
330
9
100
AcDbSymbolTableRecord
100
AcDbRegAppTableRecord
  2
ACAD
 70
     0
  0
APPID
  5
A00
330
9
100
AcDbSymbolTableRecord
100
AcDbRegAppTableRecord
  2
ACAD_PSEXT
 70
     0
  0
APPID
  5
A47
330
9
100
AcDbSymbolTableRecord
100
AcDbRegAppTableRecord
  2
CONTENTBLOCKICON
 70
     0
  0
APPID
  5
BD0
330
9
100
AcDbSymbolTableRecord
100
AcDbRegAppTableRecord
  2
AcAecLayerStandard
 70
     0
  0
APPID
  5
1B37
330
9
100
AcDbSymbolTableRecord
100
AcDbRegAppTableRecord
  2
ACAD_DSTYLE_DIMTEXT_FILL
 70
     0
  0
ENDTAB
  0
TABLE
  2
DIMSTYLE
  5
A
330
0
100
AcDbSymbolTable
 70
     1
100
AcDbDimStyleTable
  0
DIMSTYLE
105
4E4
330
A
100
AcDbSymbolTableRecord
100
AcDbDimStyleTableRecord
  2
Standard
 70
     0
  3

  4

340
11
  0
ENDTAB
  0
TABLE
  2
BLOCK_RECORD
  5
1
330
0
100
AcDbSymbolTable
 70
     0
  0
BLOCK_RECORD
  5
1E
102
{ACAD_XDICTIONARY
360
4EE
102
}
330
1
100
AcDbSymbolTableRecord
100
AcDbBlockTableRecord
  2
*Model_Space
340
21
  0
BLOCK_RECORD
  5
1A
330
1
100
AcDbSymbolTableRecord
100
AcDbBlockTableRecord
  2
*Paper_Space
340
1D
  0
ENDTAB
  0
ENDSEC
  0
SECTION
  2
BLOCKS
  0
BLOCK
  5
4D
330
1E
100
AcDbEntity
  8
0
100
AcDbBlockBegin
  2
*Model_Space
 70
     0
 10
0.0
 20
0.0
 30
0.0
  3
*Model_Space
  1

  4

  0
ENDBLK
  5
4E
330
1E
100
AcDbEntity
  8
0
100
AcDbBlockEnd
  0
BLOCK
  5
4B
330
1A
100
AcDbEntity
 67
     1
  8
0
100
AcDbBlockBegin
  2
*Paper_Space
 70
     0
 10
0.0
 20
0.0
 30
0.0
  3
*Paper_Space
  1

  4

  0
ENDBLK
  5
4C
330
1A
100
AcDbEntity
 67
     1
  8
0
100
AcDbBlockEnd
  0
ENDSEC
  0
SECTION
  2
ENTITIES
  0
TEXT
  5
4DD
330
1E
100
AcDbEntity
  8
DIM
100
AcDbText
 10
6.58
 20
1.875
 30
0.0
 40
0.09
  1
 
 72
     1
 11
6.625
 21
1.875
 31
0.0
100
AcDbText
  0
MTEXT
  5
2BDB
330
1E
100
AcDbEntity
  8
DIM
100
AcDbMText
 10
3.201609233866406
 20
11.00634447501333
 30
0.0
 40
0.1525000000000075
 41
0.0
 71
     9
 72
     1
  1
\A1;
 73
     1
 44
1.0
  0
LINE
  5
2D20
330
1E
100
AcDbEntity
  8
0
100
AcDbLine
 10
3.799721553820337
 20
1.876066298079607
 30
0.0
 11
3.981636822296597
 21
1.998769696010513
 31
0.0
  0
LINE
  5
2D21
330
1E
100
AcDbEntity
  8
0
100
AcDbLine
 10
1.710721447563575
 20
1.873769696010427
 30
0.0
 11
1.585721447563817
 21
1.998769696010172
 31
0.0
  0
LINE
  5
2D22
330
1E
100
AcDbEntity
  8
0
100
AcDbLine
 10
7.809221341306813
 20
1.876066298079607
 30
0.0
 11
7.627306072830553
 21
1.998769696010513
 31
0.0
  0
LINE
  5
2D23
330
1E
100
AcDbEntity
  8
0
100
AcDbLine
 10
9.898221447563572
 20
1.873769696010427
 30
0.0
 11
10.02322144756332
 21
1.998769696010168
 31
0.0
  0
LINE
  5
2D24
330
1E
100
AcDbEntity
  8
0
100
AcDbLine
 10
1.710721447563561
 20
1.748769696010271
 30
0.0
 11
1.710721447563561
 21
1.873769696010442
 31
0.0
  0
LINE
  5
2D25
330
1E
100
AcDbEntity
  8
0
100
AcDbLine
 10
3.770341412019509
 20
1.724918571588432
 30
0.0
 11
3.799721553820309
 21
1.876066298079579
 31
0.0
  0
ARC
  5
2D26
330
1E
100
AcDbEntity
  8
0
100
AcDbCircle
 10
1.835721447563561
 20
1.748769696010275
 30
0.0
 40
0.125
100
AcDbArc
 50
180.0
 51
270.0000000000073
  0
ARC
  5
2D27
330
1E
100
AcDbEntity
  8
0
100
AcDbCircle
 10
3.647638014088546
 20
1.748769696010516
 30
0.0
 40
0.125
100
AcDbArc
 50
270.0000000000073
 51
349.0000000000001
  0
LINE
  5
2D28
330
1E
100
AcDbEntity
  8
0
100
AcDbLine
 10
1.835721447563575
 20
1.623769696010271
 30
0.0
 11
3.64763801408856
 21
1.623769696010513
 31
0.0
  0
LINE
  5
2D29
330
1E
100
AcDbEntity
  8
0
100
AcDbLine
 10
9.898221447563572
 20
1.748769696010271
 30
0.0
 11
9.898221447563564
 21
1.873769696010427
 31
0.0
  0
LINE
  5
2D2A
330
1E
100
AcDbEntity
  8
0
100
AcDbLine
 10
7.838601483107627
 20
1.724918571588432
 30
0.0
 11
7.809221341306813
 21
1.876066298079607
 31
0.0
  0
ARC
  5
2D2B
330
1E
100
AcDbEntity
  8
0
100
AcDbCircle
 10
9.773221447563572
 20
1.748769696010271
 30
0.0
 40
0.125
100
AcDbArc
 50
269.9999999999927
 51
0.0
  0
ARC
  5
2D2C
330
1E
100
AcDbEntity
  8
0
100
AcDbCircle
 10
7.96130488103859
 20
1.748769696010516
 30
0.0
 40
0.125
100
AcDbArc
 50
190.9999999999999
 51
269.9999999999927
  0
LINE
  5
2D2D
330
1E
100
AcDbEntity
  8
0
100
AcDbLine
 10
9.773221447563557
 20
1.623769696010271
 30
0.0
 11
7.961304881038576
 21
1.623769696010513
 31
0.0
  0
CIRCLE
  5
2D2E
330
1E
100
AcDbEntity
  8
0
100
AcDbCircle
 10
0.523221447563575
 20
0.811269696010374
 30
0.0
 40
0.078
  0
CIRCLE
  5
2D2F
330
1E
100
AcDbEntity
  8
0
100
AcDbCircle
 10
1.273221447563575
 20
0.998769696010374
 30
0.0
 40
0.078
  0
CIRCLE
  5
2D30
330
1E
100
AcDbEntity
  8
0
100
AcDbCircle
 10
2.648221447563575
 20
0.936269696010374
 30
0.0
 40
0.078
  0
CIRCLE
  5
2D31
330
1E
100
AcDbEntity
  8
0
100
AcDbCircle
 10
2.148221447563575
 20
1.248769696010374
 30
0.0
 40
0.078
  0
CIRCLE
  5
2D32
330
1E
100
AcDbEntity
  8
0
100
AcDbCircle
 10
1.648221447563603
 20
1.373769696010459
 30
0.0
 40
0.078
  0
CIRCLE
  5
2D33
330
1E
100
AcDbEntity
  8
0
100
AcDbCircle
 10
0.898221447563575
 20
1.498769696010374
 30
0.0
 40
0.078
  0
CIRCLE
  5
2D34
330
1E
100
AcDbEntity
  8
0
100
AcDbCircle
 10
3.648221447563575
 20
1.123769696010374
 30
0.0
 40
0.078
  0
CIRCLE
  5
2D35
330
1E
100
AcDbEntity
  8
0
100
AcDbCircle
 10
3.148221447563603
 20
1.373769696010658
 30
0.0
 40
0.078
  0
CIRCLE
  5
2D36
330
1E
100
AcDbEntity
  8
0
100
AcDbCircle
 10
11.08572144756358
 20
0.7487696960103705
 30
0.0
 40
0.078
  0
CIRCLE
  5
2D37
330
1E
100
AcDbEntity
  8
0
100
AcDbCircle
 10
10.33572144756357
 20
0.9987696960103705
 30
0.0
 40
0.078
  0
CIRCLE
  5
2D38
330
1E
100
AcDbEntity
  8
0
100
AcDbCircle
 10
8.960721447563575
 20
0.8737696960103705
 30
0.0
 40
0.078
  0
CIRCLE
  5
2D39
330
1E
100
AcDbEntity
  8
0
100
AcDbCircle
 10
9.460721447563575
 20
1.248769696010371
 30
0.0
 40
0.078
  0
CIRCLE
  5
2D3A
330
1E
100
AcDbEntity
  8
0
100
AcDbCircle
 10
9.960721447563543
 20
1.373769696010456
 30
0.0
 40
0.078
  0
CIRCLE
  5
2D3B
330
1E
100
AcDbEntity
  8
0
100
AcDbCircle
 10
10.71072144756357
 20
1.498769696010371
 30
0.0
 40
0.078
  0
CIRCLE
  5
2D3C
330
1E
100
AcDbEntity
  8
0
100
AcDbCircle
 10
7.960721447563575
 20
1.123769696010374
 30
0.0
 40
0.078
  0
CIRCLE
  5
2D3D
330
1E
100
AcDbEntity
  8
0
100
AcDbCircle
 10
8.460721447563547
 20
1.373769696010655
 30
0.0
 40
0.078
  0
LINE
  5
2D3E
330
1E
100
AcDbEntity
  8
0
100
AcDbLine
 10
7.101221447563578
 20
1.295769696010368
 30
0.0
 11
7.101221447563578
 21
1.201769696010373
 31
0.0
  0
ARC
  5
2D3F
330
1E
100
AcDbEntity
  8
0
100
AcDbCircle
 10
7.023221447563575
 20
1.201769696010377
 30
0.0
 40
0.078000000000003
100
AcDbArc
 50
180.0
 51
0.0
  0
LINE
  5
2D40
330
1E
100
AcDbEntity
  8
0
100
AcDbLine
 10
6.945221447563572
 20
1.201769696010373
 30
0.0
 11
6.945221447563572
 21
1.295769696010368
 31
0.0
  0
ARC
  5
2D41
330
1E
100
AcDbEntity
  8
0
100
AcDbCircle
 10
7.023221447563575
 20
1.295769696010371
 30
0.0
 40
0.078000000000003
100
AcDbArc
 50
0.0
 51
180.0
  0
LINE
  5
2D42
330
1E
100
AcDbEntity
  8
0
100
AcDbLine
 10
4.663721447563578
 20
1.295769696010368
 30
0.0
 11
4.663721447563578
 21
1.201769696010373
 31
0.0
  0
ARC
  5
2D43
330
1E
100
AcDbEntity
  8
0
100
AcDbCircle
 10
4.585721447563575
 20
1.201769696010377
 30
0.0
 40
0.078000000000003
100
AcDbArc
 50
180.0
 51
0.0
  0
LINE
  5
2D44
330
1E
100
AcDbEntity
  8
0
100
AcDbLine
 10
4.507721447563572
 20
1.201769696010373
 30
0.0
 11
4.507721447563572
 21
1.295769696010368
 31
0.0
  0
ARC
  5
2D45
330
1E
100
AcDbEntity
  8
0
100
AcDbCircle
 10
4.585721447563575
 20
1.295769696010371
 30
0.0
 40
0.078000000000003
100
AcDbArc
 50
0.0
 51
180.0
  0
ARC
  5
2D46
330
1E
100
AcDbEntity
  8
0
100
AcDbCircle
 10
7.023221447563575
 20
0.498769696010374
 30
0.0
 40
0.078
100
AcDbArc
 50
0.0
 51
180.0
  0
ARC
  5
2D47
330
1E
100
AcDbEntity
  8
0
100
AcDbCircle
 10
4.585721447563575
 20
0.498769696010374
 30
0.0
 40
0.078
100
AcDbArc
 50
0.0
 51
180.0
  0
LINE
  5
2D48
330
1E
100
AcDbEntity
  8
0
100
AcDbLine
 10
6.945221447563572
 20
0.4987696960103705
 30
0.0
 11
4.663721447563592
 21
0.4987696960103705
 31
0.0
  0
ARC
  5
2D49
330
1E
100
AcDbEntity
  8
0
100
AcDbCircle
 10
7.463650320877651
 20
0.373769696010374
 30
0.0
 40
0.1249999999999986
100
AcDbArc
 50
16.26020470827319
 51
89.99999999999999
  0
LINE
  5
2D4A
330
1E
100
AcDbEntity
  8
0
100
AcDbLine
 10
11.21072144756357
 20
0.4987696960103669
 30
0.0
 11
11.33572144756357
 21
0.6237696960103669
 31
0.0
  0
LINE
  5
2D4B
330
1E
100
AcDbEntity
  8
0
100
AcDbLine
 10
11.21072144756357
 20
1.998769696010367
 30
0.0
 11
11.33572144756357
 21
1.873769696010367
 31
0.0
  0
LINE
  5
2D4C
330
1E
100
AcDbEntity
  8
0
100
AcDbLine
 10
0.273221447563575
 20
0.6237696960103705
 30
0.0
 11
0.398221447563575
 21
0.4987696960103705
 31
0.0
  0
LINE
  5
2D4D
330
1E
100
AcDbEntity
  8
0
100
AcDbLine
 10
0.273221447563575
 20
1.873769696010371
 30
0.0
 11
0.398221447563575
 21
1.998769696010371
 31
0.0
  0
LINE
  5
2D4E
330
1E
100
AcDbEntity
  8
0
100
AcDbLine
 10
10.02322144756357
 20
0.4987696960103669
 30
0.0
 11
11.21072144756357
 21
0.4987696960103669
 31
0.0
  0
LINE
  5
2D4F
330
1E
100
AcDbEntity
  8
0
100
AcDbLine
 10
11.33572144756357
 20
0.6237696960103669
 30
0.0
 11
11.33572144756357
 21
1.873769696010367
 31
0.0
  0
ARC
  5
2D50
330
1E
100
AcDbEntity
  8
0
100
AcDbCircle
 10
10.02322144756357
 20
0.373769696010374
 30
0.0
 40
0.1249999999999965
100
AcDbArc
 50
89.99999999999918
 51
163.7397952917274
  0
LINE
  5
2D51
330
1E
100
AcDbEntity
  8
0
100
AcDbLine
 10
7.463650320877651
 20
0.4987696960103705
 30
0.0
 11
7.101221447563578
 21
0.4987696960103705
 31
0.0
  0
ARC
  5
2D52
330
1E
100
AcDbEntity
  8
0
100
AcDbCircle
 10
4.145292574249499
 20
0.373769696010374
 30
0.0
 40
0.125
100
AcDbArc
 50
89.99999999999999
 51
163.7397952917252
  0
LINE
  5
2D53
330
1E
100
AcDbEntity
  8
0
100
AcDbLine
 10
4.507721447563572
 20
0.4987696960103705
 30
0.0
 11
4.145292574249499
 21
0.4987696960103705
 31
0.0
  0
ARC
  5
2D54
330
1E
100
AcDbEntity
  8
0
100
AcDbCircle
 10
7.023221447563575
 20
1.998769696010374
 30
0.0
 40
0.078
100
AcDbArc
 50
180.0
 51
0.0
  0
ARC
  5
2D55
330
1E
100
AcDbEntity
  8
0
100
AcDbCircle
 10
4.585721447563575
 20
1.998769696010374
 30
0.0
 40
0.078
100
AcDbArc
 50
180.0
 51
0.0
  0
LINE
  5
2D56
330
1E
100
AcDbEntity
  8
0
100
AcDbLine
 10
6.945221447563572
 20
1.998769696010371
 30
0.0
 11
4.663721447563592
 21
1.998769696010371
 31
0.0
  0
LINE
  5
2D57
330
1E
100
AcDbEntity
  8
0
100
AcDbLine
 10
1.585721447563575
 20
0.4987696960103705
 30
0.0
 11
0.398221447563575
 21
0.4987696960103705
 31
0.0
  0
LINE
  5
2D58
330
1E
100
AcDbEntity
  8
0
100
AcDbLine
 10
0.273221447563575
 20
0.6237696960103705
 30
0.0
 11
0.273221447563575
 21
1.873769696010371
 31
0.0
  0
ARC
  5
2D59
330
1E
100
AcDbEntity
  8
0
100
AcDbCircle
 10
1.585721447563579
 20
0.3737696960103953
 30
0.0
 40
0.1249999999999952
100
AcDbArc
 50
16.26020470827362
 51
90.00000000000162
  0
LINE
  5
2D5A
330
1E
100
AcDbEntity
  8
0
100
AcDbLine
 10
1.585721447563603
 20
1.998769696010371
 30
0.0
 11
0.398221447563575
 21
1.998769696010371
 31
0.0
  0
LINE
  5
2D5B
330
1E
100
AcDbEntity
  8
0
100
AcDbLine
 10
4.507721447563572
 20
1.998769696010371
 30
0.0
 11
3.981636822296398
 21
1.998769696010385
 31
0.0
  0
LINE
  5
2D5C
330
1E
100
AcDbEntity
  8
0
100
AcDbLine
 10
7.627306072830553
 20
1.998769696010513
 30
0.0
 11
7.101221447563578
 21
1.998769696010371
 31
0.0
  0
LINE
  5
2D5D
330
1E
100
AcDbEntity
  8
0
100
AcDbLine
 10
11.21072144756357
 20
1.998769696010367
 30
0.0
 11
10.02322144756332
 21
1.998769696010168
 31
0.0
  0
LINE
  5
2D5E
330
1E
100
AcDbEntity
  8
0
100
AcDbLine
 10
9.903221447563546
 20
0.4087696960102925
 30
0.0
 11
7.583650320877673
 21
0.4087696960102925
 31
0.0
  0
LINE
  5
2D5F
330
1E
100
AcDbEntity
  8
0
100
AcDbLine
 10
4.025292574249477
 20
0.4087696960102925
 30
0.0
 11
1.705721447563597
 21
0.4087696960103067
 31
0.0
  0
LINE
  5
2D60
330
1E
100
AcDbEntity
  8
0
100
AcDbLine
 10
10.02322144756357
 20
0.4987696960103669
 30
0.0
 11
7.463650320877651
 21
0.4987696960103705
 31
0.0
  0
LINE
  5
2D61
330
1E
100
AcDbEntity
  8
0
100
AcDbLine
 10
1.585721447563593
 20
0.4987696960103705
 30
0.0
 11
4.145292574249513
 21
0.4987696960103705
 31
0.0
  0
ENDSEC
  0
SECTION
  2
OBJECTS
  0
DICTIONARY
  5
C
330
0
100
AcDbDictionary
281
     1
  3
ACAD_COLOR
350
691
  3
ACAD_GROUP
350
D
  3
ACAD_LAYOUT
350
19
  3
ACAD_MATERIAL
350
690
  3
ACAD_MLINESTYLE
350
16
  3
ACAD_PLOTSETTINGS
350
18
  3
ACAD_PLOTSTYLENAME
350
E
  3
ACAD_TABLESTYLE
350
692
  3
ACDBHEADERROUNDTRIPXREC
350
2DC5
  3
AcDbVariableDictionary
350
A9D
  0
DICTIONARY
  5
A01
330
2
100
AcDbDictionary
280
     1
281
     1
  3
ACAD_LAYERFILTERS
360
197B
  3
ACAD_LAYERSTATES
360
A02
  3
ACLYDICTIONARY
360
197A
  0
DICTIONARY
  5
4EE
330
1E
100
AcDbDictionary
280
     1
281
     1
  3
ACAD_SORTENTS
360
1BD2
  0
DICTIONARY
  5
691
102
{ACAD_REACTORS
330
C
102
}
330
C
100
AcDbDictionary
281
     1
  0
DICTIONARY
  5
D
102
{ACAD_REACTORS
330
C
102
}
330
C
100
AcDbDictionary
281
     1
  0
DICTIONARY
  5
19
102
{ACAD_REACTORS
330
C
102
}
330
C
100
AcDbDictionary
281
     1
  3
Layout1
350
1D
  3
Model
350
21
  0
DICTIONARY
  5
690
102
{ACAD_REACTORS
330
C
102
}
330
C
100
AcDbDictionary
281
     1
  0
DICTIONARY
  5
16
102
{ACAD_REACTORS
330
C
102
}
330
C
100
AcDbDictionary
281
     1
  3
Standard
350
17
  0
DICTIONARY
  5
18
102
{ACAD_REACTORS
330
C
102
}
330
C
100
AcDbDictionary
281
     1
  0
ACDBDICTIONARYWDFLT
  5
E
102
{ACAD_REACTORS
330
C
102
}
330
C
100
AcDbDictionary
281
     1
  3
Normal
350
F
100
AcDbDictionaryWithDefault
340
F
  0
DICTIONARY
  5
692
102
{ACAD_REACTORS
330
C
102
}
330
C
100
AcDbDictionary
281
     1
  3
Standard
350
693
  0
DICTIONARY
  5
2DC5
102
{ACAD_REACTORS
330
C
102
}
330
C
100
AcDbDictionary
281
     1
  3
COLORDICT
350
2DC6
  3
MATERIALDICT
350
2DC7
  0
DICTIONARY
  5
A9D
102
{ACAD_REACTORS
330
C
102
}
330
C
100
AcDbDictionary
281
     1
  3
CTABLESTYLE
350
A9E
  3
DIMASSOC
350
A9F
  0
DICTIONARY
  5
197B
102
{ACAD_REACTORS
330
A01
102
}
330
A01
100
AcDbDictionary
281
     1
  0
DICTIONARY
  5
A02
102
{ACAD_REACTORS
330
A01
102
}
330
A01
100
AcDbDictionary
281
     1
  0
DICTIONARY
  5
197A
102
{ACAD_REACTORS
330
A01
102
}
330
A01
100
AcDbDictionary
281
     1
1001
ACAD
1000
<All
  0
SORTENTSTABLE
  5
1BD2
102
{ACAD_REACTORS
330
4EE
102
}
330
4EE
100
AcDbSortentsTable
330
1E
331
0
  5
2192
331
2BDB
  5
2D1F
331
4DD
  5
4DD
  0
LAYOUT
  5
1D
102
{ACAD_REACTORS
330
19
102
}
102
{ACAD_XDICTIONARY
360
2DC8
102
}
330
19
100
AcDbPlotSettings
  1

  2
Fax
  4

  6

 40
0.0
 41
0.0
 42
0.0
 43
0.0
 44
0.0
 45
0.0
 46
0.0
 47
0.0
 48
0.0
 49
0.0
140
0.0
141
0.0
142
1.0
143
1.0
 70
   688
 72
     0
 73
     0
 74
     5
  7
monochrome.ctb
 75
    16
147
1.0
148
0.0
149
0.0
100
AcDbLayout
  1
Layout1
 70
     0
 71
     1
 10
0.0
 20
0.0
 11
12.0
 21
9.0
 12
0.0
 22
0.0
 32
0.0
 14
1.000000000000000E+20
 24
1.000000000000000E+20
 34
1.000000000000000E+20
 15
-1.000000000000000E+20
 25
-1.000000000000000E+20
 35
-1.000000000000000E+20
146
0.0
 13
0.0
 23
0.0
 33
0.0
 16
1.0
 26
0.0
 36
0.0
 17
0.0
 27
1.0
 37
0.0
 76
     0
330
1A
  0
LAYOUT
  5
21
102
{ACAD_REACTORS
330
19
102
}
102
{ACAD_XDICTIONARY
360
2DCA
102
}
330
19
100
AcDbPlotSettings
  1

  2
HP LaserJet 2100 Series PS
  4
Letter
  6

 40
5.365749835968018
 41
5.408073902130127
 42
5.132904052734375
 43
5.090576171875
 44
215.8999938964844
 45
279.3999938964844
 46
0.0
 47
0.0
 48
0.0
 49
0.0
140
0.0
141
0.0
142
1.0
143
1.983808722055739
 70
 11952
 72
     0
 73
     0
 74
     1
  7
monochrome.ctb
 75
     0
147
0.5040808566280228
148
0.0210673756255908
149
0.6594106558317505
100
AcDbLayout
  1
Model
 70
     1
 71
     0
 10
0.0
 20
0.0
 11
12.0
 21
9.0
 12
0.0
 22
0.0
 32
0.0
 14
0.0
 24
0.0
 34
0.0
 15
0.0
 25
0.0
 35
0.0
146
0.0
 13
0.0
 23
0.0
 33
0.0
 16
1.0
 26
0.0
 36
0.0
 17
0.0
 27
1.0
 37
0.0
 76
     0
330
1E
1001
ACAD_PSEXT
1000
HP LaserJet 2100 Series PS
1000
HP LaserJet 2100 Series PS
1000
LPT1:
1000

1070
     0
  0
MLINESTYLE
  5
17
102
{ACAD_REACTORS
330
16
102
}
330
16
100
AcDbMlineStyle
  2
STANDARD
 70
     0
  3

 62
   256
 51
90.0
 52
90.0
 71
     2
 49
0.5
 62
   256
  6
BYLAYER
 49
-0.5
 62
   256
  6
BYLAYER
  0
ACDBPLACEHOLDER
  5
F
102
{ACAD_REACTORS
330
E
102
}
330
E
  0
ACAD_PROXY_OBJECT
  5
693
102
{ACAD_REACTORS
330
692
102
}
330
692
100
AcDbProxyObject
 90
      499
 91
      519
 95
   983063
 70
     0
 93
     1841
310
4214DD185B99185C9928B81E85EB51B8AE3F2E07A17AD46E2B8FC02B5E8DC0F42B1CFD028000000C1008070000C3001FDFF8000000C1003FBFF000000182007F7FE00000030400FEFFC00000060801FDFF8000000C1003FBFF00000018200000000000000681FA0B0000001820100E000186003FBFF000000182007F7FE000
310
00030400FEFFC00000060801FDFF8000000C1003FBFF000000182007F7FE000000304000AD7A3703D0AC73F4160000003040201C00030C007F7FE00000030400FEFFC00000060801FDFF8000000C1003FBFF000000182007F7FE00000030400FEFFC000000608000
340
11
340
11
340
11
 94
        0
  0
XRECORD
  5
2DC6
102
{ACAD_REACTORS
330
2DC5
102
}
330
2DC5
100
AcDbXrecord
340
691
  0
XRECORD
  5
2DC7
102
{ACAD_REACTORS
330
2DC5
102
}
330
2DC5
100
AcDbXrecord
340
690
  0
DICTIONARYVAR
  5
A9E
102
{ACAD_REACTORS
330
A9D
102
}
330
A9D
100
DictionaryVariables
280
     0
  1
STANDARD
  0
DICTIONARYVAR
  5
A9F
102
{ACAD_REACTORS
330
A9D
102
}
330
A9D
100
DictionaryVariables
280
     0
  1
2
  0
DICTIONARY
  5
2DC8
330
1D
100
AcDbDictionary
280
     1
281
     1
  3
ACAD_XREC_ROUNDTRIP
360
2DC9
  0
DICTIONARY
  5
2DCA
330
21
100
AcDbDictionary
280
     1
281
     1
  3
ACAD_XREC_ROUNDTRIP
360
2DCB
  0
XRECORD
  5
2DC9
102
{ACAD_REACTORS
330
2DC8
102
}
330
2DC8
100
AcDbXrecord
102
SHADEPLOT
 70
     0
102
SHADEPLOTRESLEVEL
 70
     2
102
SHADEPLOTCUSTOMDPI
 70
   300
  0
XRECORD
  5
2DCB
102
{ACAD_REACTORS
330
2DCA
102
}
330
2DCA
100
AcDbXrecord
102
SHADEPLOT
 70
     0
102
SHADEPLOTRESLEVEL
 70
     2
102
SHADEPLOTCUSTOMDPI
 70
   300
  0
ENDSEC
  0
EOF
