  0
SECTION
  2
HEADER
  9
$ACADVER
  1
AC1015
  9
$ACADMAINTVER
 70
     6
  9
$DWGCODEPAGE
  3
ANSI_1252
  9
$INSBASE
 10
0.0
 20
0.0
 30
0.0
  9
$EXTMIN
 10
-4.774980774601985
 20
0.2968826541873675
 30
-0.0015258207003583
  9
$EXTMAX
 10
11.33580744237403
 20
8.592933677012258
 30
0.0000000349246037
  9
$LIMMIN
 10
0.0
 20
0.0
  9
$LIMMAX
 10
8.0
 20
10.5
  9
$ORTHOMODE
 70
     1
  9
$REGENMODE
 70
     1
  9
$FILLMODE
 70
     1
  9
$QTEXTMODE
 70
     0
  9
$MIRRTEXT
 70
     1
  9
$LTSCALE
 40
0.5
  9
$ATTMODE
 70
     1
  9
$TEXTSIZE
 40
0.09
  9
$TRACEWID
 40
0.05
  9
$TEXTSTYLE
  7
STANDARD
  9
$CLAYER
  8
0
  9
$CELTYPE
  6
ByLayer
  9
$CECOLOR
 62
   256
  9
$CELTSCALE
 40
1.0
  9
$DISPSILH
 70
     0
  9
$DIMSCALE
 40
1.000000000000049
  9
$DIMASZ
 40
0.1875
  9
$DIMEXO
 40
0.062
  9
$DIMDLI
 40
0.375
  9
$DIMRND
 40
0.0
  9
$DIMDLE
 40
0.0
  9
$DIMEXE
 40
0.08
  9
$DIMTP
 40
0.0
  9
$DIMTM
 40
0.0
  9
$DIMTXT
 40
0.1525
  9
$DIMCEN
 40
0.09
  9
$DIMTSZ
 40
0.0
  9
$DIMTOL
 70
     0
  9
$DIMLIM
 70
     0
  9
$DIMTIH
 70
     1
  9
$DIMTOH
 70
     1
  9
$DIMSE1
 70
     0
  9
$DIMSE2
 70
     0
  9
$DIMTAD
 70
     0
  9
$DIMZIN
 70
     0
  9
$DIMBLK
  1

  9
$DIMASO
 70
     0
  9
$DIMSHO
 70
     0
  9
$DIMPOST
  1

  9
$DIMAPOST
  1

  9
$DIMALT
 70
     0
  9
$DIMALTD
 70
     2
  9
$DIMALTF
 40
25.4
  9
$DIMLFAC
 40
1.0
  9
$DIMTOFL
 70
     0
  9
$DIMTVP
 40
0.0
  9
$DIMTIX
 70
     0
  9
$DIMSOXD
 70
     0
  9
$DIMSAH
 70
     0
  9
$DIMBLK1
  1

  9
$DIMBLK2
  1

  9
$DIMSTYLE
  2
Standard
  9
$DIMCLRD
 70
     0
  9
$DIMCLRE
 70
     0
  9
$DIMCLRT
 70
     0
  9
$DIMTFAC
 40
1.0
  9
$DIMGAP
 40
0.09
  9
$DIMJUST
 70
     0
  9
$DIMSD1
 70
     0
  9
$DIMSD2
 70
     0
  9
$DIMTOLJ
 70
     1
  9
$DIMTZIN
 70
     0
  9
$DIMALTZ
 70
     0
  9
$DIMALTTZ
 70
     0
  9
$DIMUPT
 70
     0
  9
$DIMDEC
 70
     5
  9
$DIMTDEC
 70
     5
  9
$DIMALTU
 70
     5
  9
$DIMALTTD
 70
     2
  9
$DIMTXSTY
  7
STANDARD
  9
$DIMAUNIT
 70
     0
  9
$DIMADEC
 70
     0
  9
$DIMALTRND
 40
0.0
  9
$DIMAZIN
 70
     0
  9
$DIMDSEP
 70
    46
  9
$DIMATFIT
 70
     3
  9
$DIMFRAC
 70
     2
  9
$DIMLDRBLK
  1

  9
$DIMLUNIT
 70
     5
  9
$DIMLWD
 70
    -2
  9
$DIMLWE
 70
    -2
  9
$DIMTMOVE
 70
     2
  9
$LUNITS
 70
     5
  9
$LUPREC
 70
     4
  9
$SKETCHINC
 40
0.1
  9
$FILLETRAD
 40
0.0
  9
$AUNITS
 70
     0
  9
$AUPREC
 70
     0
  9
$MENU
  1
acad
  9
$ELEVATION
 40
0.0
  9
$PELEVATION
 40
0.0
  9
$THICKNESS
 40
0.0
  9
$LIMCHECK
 70
     0
  9
$CHAMFERA
 40
0.0
  9
$CHAMFERB
 40
0.0
  9
$CHAMFERC
 40
0.0
  9
$CHAMFERD
 40
0.0
  9
$SKPOLY
 70
     0
  9
$TDCREATE
 40
2447146.945318287
  9
$TDUCREATE
 40
2447147.27865162
  9
$TDUPDATE
 40
2455076.911254583
  9
$TDUUPDATE
 40
2455077.244587917
  9
$TDINDWG
 40
0.5109967824
  9
$TDUSRTIMER
 40
0.5109967824
  9
$USRTIMER
 70
     1
  9
$ANGBASE
 50
0.0
  9
$ANGDIR
 70
     0
  9
$PDMODE
 70
     0
  9
$PDSIZE
 40
0.0
  9
$PLINEWID
 40
0.0
  9
$SPLFRAME
 70
     0
  9
$SPLINETYPE
 70
     6
  9
$SPLINESEGS
 70
     8
  9
$HANDSEED
  5
2DC9
  9
$SURFTAB1
 70
     6
  9
$SURFTAB2
 70
     6
  9
$SURFTYPE
 70
     6
  9
$SURFU
 70
     6
  9
$SURFV
 70
     6
  9
$UCSBASE
  2

  9
$UCSNAME
  2

  9
$UCSORG
 10
0.0
 20
0.0
 30
0.0
  9
$UCSXDIR
 10
1.0
 20
0.0
 30
0.0
  9
$UCSYDIR
 10
0.0
 20
1.0
 30
0.0
  9
$UCSORTHOREF
  2

  9
$UCSORTHOVIEW
 70
     0
  9
$UCSORGTOP
 10
0.0
 20
0.0
 30
0.0
  9
$UCSORGBOTTOM
 10
0.0
 20
0.0
 30
0.0
  9
$UCSORGLEFT
 10
0.0
 20
0.0
 30
0.0
  9
$UCSORGRIGHT
 10
0.0
 20
0.0
 30
0.0
  9
$UCSORGFRONT
 10
0.0
 20
0.0
 30
0.0
  9
$UCSORGBACK
 10
0.0
 20
0.0
 30
0.0
  9
$PUCSBASE
  2

  9
$PUCSNAME
  2

  9
$PUCSORG
 10
0.0
 20
0.0
 30
0.0
  9
$PUCSXDIR
 10
1.0
 20
0.0
 30
0.0
  9
$PUCSYDIR
 10
0.0
 20
1.0
 30
0.0
  9
$PUCSORTHOREF
  2

  9
$PUCSORTHOVIEW
 70
     0
  9
$PUCSORGTOP
 10
0.0
 20
0.0
 30
0.0
  9
$PUCSORGBOTTOM
 10
0.0
 20
0.0
 30
0.0
  9
$PUCSORGLEFT
 10
0.0
 20
0.0
 30
0.0
  9
$PUCSORGRIGHT
 10
0.0
 20
0.0
 30
0.0
  9
$PUCSORGFRONT
 10
0.0
 20
0.0
 30
0.0
  9
$PUCSORGBACK
 10
0.0
 20
0.0
 30
0.0
  9
$USERI1
 70
     0
  9
$USERI2
 70
     0
  9
$USERI3
 70
     0
  9
$USERI4
 70
     0
  9
$USERI5
 70
     0
  9
$USERR1
 40
0.0
  9
$USERR2
 40
0.0
  9
$USERR3
 40
0.0
  9
$USERR4
 40
0.0
  9
$USERR5
 40
0.0
  9
$WORLDVIEW
 70
     1
  9
$SHADEDGE
 70
     3
  9
$SHADEDIF
 70
    70
  9
$TILEMODE
 70
     1
  9
$MAXACTVP
 70
    16
  9
$PINSBASE
 10
0.0
 20
0.0
 30
0.0
  9
$PLIMCHECK
 70
     0
  9
$PEXTMIN
 10
1.000000000000000E+20
 20
1.000000000000000E+20
 30
1.000000000000000E+20
  9
$PEXTMAX
 10
-1.000000000000000E+20
 20
-1.000000000000000E+20
 30
-1.000000000000000E+20
  9
$PLIMMIN
 10
0.0
 20
0.0
  9
$PLIMMAX
 10
12.0
 20
9.0
  9
$UNITMODE
 70
     0
  9
$VISRETAIN
 70
     0
  9
$PLINEGEN
 70
     1
  9
$PSLTSCALE
 70
     0
  9
$TREEDEPTH
 70
  3020
  9
$CMLSTYLE
  2
Standard
  9
$CMLJUST
 70
     0
  9
$CMLSCALE
 40
1.0
  9
$PROXYGRAPHICS
 70
     1
  9
$MEASUREMENT
 70
     0
  9
$CELWEIGHT
370
    -1
  9
$ENDCAPS
280
     0
  9
$JOINSTYLE
280
     0
  9
$LWDISPLAY
290
     0
  9
$INSUNITS
 70
     0
  9
$HYPERLINKBASE
  1

  9
$STYLESHEET
  1
monochrome.ctb
  9
$XEDIT
290
     1
  9
$CEPSNTYPE
380
     0
  9
$PSTYLEMODE
290
     1
  9
$FINGERPRINTGUID
  2
{4E0ABB9A-9863-42E8-B1DC-CC5425E26CAF}
  9
$VERSIONGUID
  2
{AC600F2E-524A-4762-AA54-AEBFCF550831}
  9
$EXTNAMES
290
     1
  9
$PSVPSCALE
 40
0.0
  9
$OLESTARTUP
290
     0
  0
ENDSEC
  0
SECTION
  2
CLASSES
  0
CLASS
  1
ACDBDICTIONARYWDFLT
  2
AcDbDictionaryWithDefault
  3
AutoCAD 2000
 90
        0
280
     0
281
     0
  0
CLASS
  1
ACDBPLACEHOLDER
  2
AcDbPlaceHolder
  3
ObjectDBX Classes
 90
        0
280
     0
281
     0
  0
CLASS
  1
LAYOUT
  2
AcDbLayout
  3
ObjectDBX Classes
 90
        0
280
     0
281
     0
  0
CLASS
  1
LONG_TRANSACTION
  2
AcDbLongTransaction
  3
ObjectDBX Classes
 90
   -65536
280
     1
281
     0
  0
CLASS
  1
LWPOLYLINE
  2
AcDbPolyline
  3
AutoCAD 2000
 90
        0
280
     0
281
     1
  0
CLASS
  1
HATCH
  2
AcDbHatch
  3
AutoCAD 2000
 90
        0
280
     0
281
     1
  0
CLASS
  1
XRECORD
  2
AcDbXrecord
  3
AutoCAD 2000
 90
        0
280
     0
281
     0
  0
CLASS
  1
LONG_TRANSACTION
  2
AcDbLongTransaction
  3
ObjectDBX Classes
 90
   -65536
280
     1
281
     0
  0
CLASS
  1
LWPOLYLINE
  2
AcDbPolyline
  3
AutoCAD 2000
 90
        0
280
     0
281
     1
  0
CLASS
  1
HATCH
  2
AcDbHatch
  3
AutoCAD 2000
 90
        0
280
     0
281
     1
  0
CLASS
  1
XRECORD
  2
AcDbXrecord
  3
AutoCAD 2000
 90
        0
280
     0
281
     0
  0
CLASS
  1
LONG_TRANSACTION
  2
AcDbLongTransaction
  3
ObjectDBX Classes
 90
   -65536
280
     1
281
     0
  0
CLASS
  1
LWPOLYLINE
  2
AcDbPolyline
  3
AutoCAD 2000
 90
        0
280
     0
281
     1
  0
CLASS
  1
HATCH
  2
AcDbHatch
  3
AutoCAD 2000
 90
        0
280
     0
281
     1
  0
CLASS
  1
XRECORD
  2
AcDbXrecord
  3
AutoCAD 2000
 90
        0
280
     0
281
     0
  0
CLASS
  1
LONG_TRANSACTION
  2
AcDbLongTransaction
  3
ObjectDBX Classes
 90
   -65536
280
     1
281
     0
  0
CLASS
  1
LWPOLYLINE
  2
AcDbPolyline
  3
AutoCAD 2000
 90
        0
280
     0
281
     1
  0
CLASS
  1
HATCH
  2
AcDbHatch
  3
AutoCAD 2000
 90
        0
280
     0
281
     1
  0
CLASS
  1
XRECORD
  2
AcDbXrecord
  3
AutoCAD 2000
 90
        0
280
     0
281
     0
  0
CLASS
  1
TABLESTYLE
  2
AcDbTableStyle
  3
ObjectDBX Classes
 90
     2047
280
     1
281
     0
  0
CLASS
  1
DICTIONARYVAR
  2
AcDbDictionaryVar
  3
AutoCAD 2000
 90
        0
280
     0
281
     0
  0
CLASS
  1
SORTENTSTABLE
  2
AcDbSortentsTable
  3
AutoCAD 2000
 90
        0
280
     0
281
     0
  0
CLASS
  1
DIMASSOC
  2
AcDbDimAssoc
  3
"AcDbDimAssoc|Product Desc:     AcDim ARX App For Dimension|Company:          Autodesk, Inc.|WEB Address:      www.autodesk.com"
 90
        0
280
     0
281
     0
  0
ENDSEC
  0
SECTION
  2
TABLES
  0
TABLE
  2
VPORT
  5
8
330
0
100
AcDbSymbolTable
 70
     2
  0
VPORT
  5
2DBC
330
8
100
AcDbSymbolTableRecord
100
AcDbViewportTableRecord
  2
*Active
 70
     0
 10
0.0
 20
0.0
 11
1.0
 21
1.0
 12
3.280413333886024
 22
5.25
 13
0.0
 23
0.0
 14
0.0625
 24
0.0625
 15
0.25
 25
0.25
 16
0.0
 26
0.0
 36
1.0
 17
0.0
 27
0.0
 37
0.0
 40
10.63695652173913
 41
1.893246187363834
 42
50.0
 43
0.0
 44
0.0
 50
0.0
 51
0.0
 71
     0
 72
   100
 73
     1
 74
     0
 75
     0
 76
     0
 77
     0
 78
     0
281
     0
 65
     1
110
0.0
120
0.0
130
0.0
111
1.0
121
0.0
131
0.0
112
0.0
122
1.0
132
0.0
 79
     0
146
0.0
  0
ENDTAB
  0
TABLE
  2
LTYPE
  5
5
330
0
100
AcDbSymbolTable
 70
     1
  0
LTYPE
  5
13
330
5
100
AcDbSymbolTableRecord
100
AcDbLinetypeTableRecord
  2
ByBlock
 70
     0
  3

 72
    65
 73
     0
 40
0.0
  0
LTYPE
  5
14
330
5
100
AcDbSymbolTableRecord
100
AcDbLinetypeTableRecord
  2
ByLayer
 70
     0
  3

 72
    65
 73
     0
 40
0.0
  0
LTYPE
  5
15
330
5
100
AcDbSymbolTableRecord
100
AcDbLinetypeTableRecord
  2
CONTINUOUS
 70
     0
  3
Solid line
 72
    65
 73
     0
 40
0.0
  0
ENDTAB
  0
TABLE
  2
LAYER
  5
2
102
{ACAD_XDICTIONARY
360
A01
102
}
330
0
100
AcDbSymbolTable
 70
     3
  0
LAYER
  5
10
330
2
100
AcDbSymbolTableRecord
100
AcDbLayerTableRecord
  2
0
 70
     0
 62
     7
  6
CONTINUOUS
370
    -3
390
F
  0
LAYER
  5
3F
330
2
100
AcDbSymbolTableRecord
100
AcDbLayerTableRecord
  2
DIM
 70
     0
 62
     5
  6
CONTINUOUS
370
    -3
390
F
  0
LAYER
  5
BCC
330
2
100
AcDbSymbolTableRecord
100
AcDbLayerTableRecord
  2
Defpoints
 70
     0
 62
     7
  6
CONTINUOUS
290
     0
370
    -3
390
F
  0
ENDTAB
  0
TABLE
  2
STYLE
  5
3
330
0
100
AcDbSymbolTable
 70
     1
  0
STYLE
  5
11
330
3
100
AcDbSymbolTableRecord
100
AcDbTextStyleTableRecord
  2
STANDARD
 70
     0
 40
0.0
 41
1.0
 50
0.0
 71
     0
 42
0.09
  3
TXT
  4

  0
ENDTAB
  0
TABLE
  2
VIEW
  5
6
330
0
100
AcDbSymbolTable
 70
     0
  0
ENDTAB
  0
TABLE
  2
UCS
  5
7
330
0
100
AcDbSymbolTable
 70
     0
  0
ENDTAB
  0
TABLE
  2
APPID
  5
9
330
0
100
AcDbSymbolTable
 70
     5
  0
APPID
  5
12
330
9
100
AcDbSymbolTableRecord
100
AcDbRegAppTableRecord
  2
ACAD
 70
     0
  0
APPID
  5
A00
330
9
100
AcDbSymbolTableRecord
100
AcDbRegAppTableRecord
  2
ACAD_PSEXT
 70
     0
  0
APPID
  5
A47
330
9
100
AcDbSymbolTableRecord
100
AcDbRegAppTableRecord
  2
CONTENTBLOCKICON
 70
     0
  0
APPID
  5
BD0
330
9
100
AcDbSymbolTableRecord
100
AcDbRegAppTableRecord
  2
AcAecLayerStandard
 70
     0
  0
APPID
  5
1B37
330
9
100
AcDbSymbolTableRecord
100
AcDbRegAppTableRecord
  2
ACAD_DSTYLE_DIMTEXT_FILL
 70
     0
  0
ENDTAB
  0
TABLE
  2
DIMSTYLE
  5
A
330
0
100
AcDbSymbolTable
 70
     1
100
AcDbDimStyleTable
  0
DIMSTYLE
105
4E4
330
A
100
AcDbSymbolTableRecord
100
AcDbDimStyleTableRecord
  2
Standard
 70
     0
  3

  4

340
11
  0
ENDTAB
  0
TABLE
  2
BLOCK_RECORD
  5
1
330
0
100
AcDbSymbolTable
 70
     0
  0
BLOCK_RECORD
  5
1E
102
{ACAD_XDICTIONARY
360
4EE
102
}
330
1
100
AcDbSymbolTableRecord
100
AcDbBlockTableRecord
  2
*Model_Space
340
21
  0
BLOCK_RECORD
  5
1A
330
1
100
AcDbSymbolTableRecord
100
AcDbBlockTableRecord
  2
*Paper_Space
340
1D
  0
ENDTAB
  0
ENDSEC
  0
SECTION
  2
BLOCKS
  0
BLOCK
  5
4D
330
1E
100
AcDbEntity
  8
0
100
AcDbBlockBegin
  2
*Model_Space
 70
     0
 10
0.0
 20
0.0
 30
0.0
  3
*Model_Space
  1

  4

  0
ENDBLK
  5
4E
330
1E
100
AcDbEntity
  8
0
100
AcDbBlockEnd
  0
BLOCK
  5
4B
330
1A
100
AcDbEntity
 67
     1
  8
0
100
AcDbBlockBegin
  2
*Paper_Space
 70
     0
 10
0.0
 20
0.0
 30
0.0
  3
*Paper_Space
  1

  4

  0
ENDBLK
  5
4C
330
1A
100
AcDbEntity
 67
     1
  8
0
100
AcDbBlockEnd
  0
ENDSEC
  0
SECTION
  2
ENTITIES
  0
TEXT
  5
4DD
330
1E
100
AcDbEntity
  8
DIM
100
AcDbText
 10
6.58
 20
1.875
 30
0.0
 40
0.09
  1
 
 72
     1
 11
6.625
 21
1.875
 31
0.0
100
AcDbText
  0
MTEXT
  5
2BDB
330
1E
100
AcDbEntity
  8
DIM
100
AcDbMText
 10
3.201609233866406
 20
11.00634447501333
 30
0.0
 40
0.1525000000000075
 41
0.0
 71
     9
 72
     1
  1
\A1;
 73
     1
 44
1.0
  0
LINE
  5
2D20
330
1E
100
AcDbEntity
  8
0
100
AcDbLine
 10
3.799721553820337
 20
1.876066298079607
 30
0.0
 11
3.981636822296597
 21
1.998769696010513
 31
0.0
  0
LINE
  5
2D21
330
1E
100
AcDbEntity
  8
0
100
AcDbLine
 10
1.710721447563575
 20
1.873769696010427
 30
0.0
 11
1.585721447563817
 21
1.998769696010172
 31
0.0
  0
LINE
  5
2D22
330
1E
100
AcDbEntity
  8
0
100
AcDbLine
 10
7.809221341306813
 20
1.876066298079607
 30
0.0
 11
7.627306072830553
 21
1.998769696010513
 31
0.0
  0
LINE
  5
2D23
330
1E
100
AcDbEntity
  8
0
100
AcDbLine
 10
9.898221447563572
 20
1.873769696010427
 30
0.0
 11
10.02322144756332
 21
1.998769696010168
 31
0.0
  0
LINE
  5
2D24
330
1E
100
AcDbEntity
  8
0
100
AcDbLine
 10
1.710721447563561
 20
1.748769696010271
 30
0.0
 11
1.710721447563561
 21
1.873769696010442
 31
0.0
  0
LINE
  5
2D25
330
1E
100
AcDbEntity
  8
0
100
AcDbLine
 10
3.770341412019509
 20
1.724918571588432
 30
0.0
 11
3.799721553820309
 21
1.876066298079579
 31
0.0
  0
ARC
  5
2D26
330
1E
100
AcDbEntity
  8
0
100
AcDbCircle
 10
1.835721447563561
 20
1.748769696010275
 30
0.0
 40
0.125
100
AcDbArc
 50
180.0
 51
270.0000000000073
  0
ARC
  5
2D27
330
1E
100
AcDbEntity
  8
0
100
AcDbCircle
 10
3.647638014088546
 20
1.748769696010516
 30
0.0
 40
0.125
100
AcDbArc
 50
270.0000000000073
 51
349.0000000000001
  0
LINE
  5
2D28
330
1E
100
AcDbEntity
  8
0
100
AcDbLine
 10
1.835721447563575
 20
1.623769696010271
 30
0.0
 11
3.64763801408856
 21
1.623769696010513
 31
0.0
  0
LINE
  5
2D29
330
1E
100
AcDbEntity
  8
0
100
AcDbLine
 10
9.898221447563572
 20
1.748769696010271
 30
0.0
 11
9.898221447563564
 21
1.873769696010427
 31
0.0
  0
LINE
  5
2D2A
330
1E
100
AcDbEntity
  8
0
100
AcDbLine
 10
7.838601483107627
 20
1.724918571588432
 30
0.0
 11
7.809221341306813
 21
1.876066298079607
 31
0.0
  0
ARC
  5
2D2B
330
1E
100
AcDbEntity
  8
0
100
AcDbCircle
 10
9.773221447563572
 20
1.748769696010271
 30
0.0
 40
0.125
100
AcDbArc
 50
269.9999999999927
 51
0.0
  0
ARC
  5
2D2C
330
1E
100
AcDbEntity
  8
0
100
AcDbCircle
 10
7.96130488103859
 20
1.748769696010516
 30
0.0
 40
0.125
100
AcDbArc
 50
190.9999999999999
 51
269.9999999999927
  0
LINE
  5
2D2D
330
1E
100
AcDbEntity
  8
0
100
AcDbLine
 10
9.773221447563557
 20
1.623769696010271
 30
0.0
 11
7.961304881038576
 21
1.623769696010513
 31
0.0
  0
CIRCLE
  5
2D2E
330
1E
100
AcDbEntity
  8
0
100
AcDbCircle
 10
0.523221447563575
 20
0.811269696010374
 30
0.0
 40
0.078
  0
CIRCLE
  5
2D2F
330
1E
100
AcDbEntity
  8
0
100
AcDbCircle
 10
1.273221447563575
 20
0.998769696010374
 30
0.0
 40
0.078
  0
CIRCLE
  5
2D30
330
1E
100
AcDbEntity
  8
0
100
AcDbCircle
 10
2.648221447563575
 20
0.936269696010374
 30
0.0
 40
0.078
  0
CIRCLE
  5
2D31
330
1E
100
AcDbEntity
  8
0
100
AcDbCircle
 10
2.148221447563575
 20
1.248769696010374
 30
0.0
 40
0.078
  0
CIRCLE
  5
2D32
330
1E
100
AcDbEntity
  8
0
100
AcDbCircle
 10
1.648221447563603
 20
1.373769696010459
 30
0.0
 40
0.078
  0
CIRCLE
  5
2D33
330
1E
100
AcDbEntity
  8
0
100
AcDbCircle
 10
0.898221447563575
 20
1.498769696010374
 30
0.0
 40
0.078
  0
CIRCLE
  5
2D34
330
1E
100
AcDbEntity
  8
0
100
AcDbCircle
 10
3.648221447563575
 20
1.123769696010374
 30
0.0
 40
0.078
  0
CIRCLE
  5
2D35
330
1E
100
AcDbEntity
  8
0
100
AcDbCircle
 10
3.148221447563603
 20
1.373769696010658
 30
0.0
 40
0.078
  0
CIRCLE
  5
2D36
330
1E
100
AcDbEntity
  8
0
100
AcDbCircle
 10
11.08572144756358
 20
0.7487696960103705
 30
0.0
 40
0.078
  0
CIRCLE
  5
2D37
330
1E
100
AcDbEntity
  8
0
100
AcDbCircle
 10
10.33572144756357
 20
0.9987696960103705
 30
0.0
 40
0.078
  0
CIRCLE
  5
2D38
330
1E
100
AcDbEntity
  8
0
100
AcDbCircle
 10
8.960721447563575
 20
0.8737696960103705
 30
0.0
 40
0.078
  0
CIRCLE
  5
2D39
330
1E
100
AcDbEntity
  8
0
100
AcDbCircle
 10
9.460721447563575
 20
1.248769696010371
 30
0.0
 40
0.078
  0
CIRCLE
  5
2D3A
330
1E
100
AcDbEntity
  8
0
100
AcDbCircle
 10
9.960721447563543
 20
1.373769696010456
 30
0.0
 40
0.078
  0
CIRCLE
  5
2D3B
330
1E
100
AcDbEntity
  8
0
100
AcDbCircle
 10
10.71072144756357
 20
1.498769696010371
 30
0.0
 40
0.078
  0
CIRCLE
  5
2D3C
330
1E
100
AcDbEntity
  8
0
100
AcDbCircle
 10
7.960721447563575
 20
1.123769696010374
 30
0.0
 40
0.078
  0
CIRCLE
  5
2D3D
330
1E
100
AcDbEntity
  8
0
100
AcDbCircle
 10
8.460721447563547
 20
1.373769696010655
 30
0.0
 40
0.078
  0
LINE
  5
2D3E
330
1E
100
AcDbEntity
  8
0
100
AcDbLine
 10
7.101221447563578
 20
1.295769696010368
 30
0.0
 11
7.101221447563578
 21
1.201769696010373
 31
0.0
  0
ARC
  5
2D3F
330
1E
100
AcDbEntity
  8
0
100
AcDbCircle
 10
7.023221447563575
 20
1.201769696010377
 30
0.0
 40
0.078000000000003
100
AcDbArc
 50
180.0
 51
0.0
  0
LINE
  5
2D40
330
1E
100
AcDbEntity
  8
0
100
AcDbLine
 10
6.945221447563572
 20
1.201769696010373
 30
0.0
 11
6.945221447563572
 21
1.295769696010368
 31
0.0
  0
ARC
  5
2D41
330
1E
100
AcDbEntity
  8
0
100
AcDbCircle
 10
7.023221447563575
 20
1.295769696010371
 30
0.0
 40
0.078000000000003
100
AcDbArc
 50
0.0
 51
180.0
  0
LINE
  5
2D42
330
1E
100
AcDbEntity
  8
0
100
AcDbLine
 10
4.663721447563578
 20
1.295769696010368
 30
0.0
 11
4.663721447563578
 21
1.201769696010373
 31
0.0
  0
ARC
  5
2D43
330
1E
100
AcDbEntity
  8
0
100
AcDbCircle
 10
4.585721447563575
 20
1.201769696010377
 30
0.0
 40
0.078000000000003
100
AcDbArc
 50
180.0
 51
0.0
  0
LINE
  5
2D44
330
1E
100
AcDbEntity
  8
0
100
AcDbLine
 10
4.507721447563572
 20
1.201769696010373
 30
0.0
 11
4.507721447563572
 21
1.295769696010368
 31
0.0
  0
ARC
  5
2D45
330
1E
100
AcDbEntity
  8
0
100
AcDbCircle
 10
4.585721447563575
 20
1.295769696010371
 30
0.0
 40
0.078000000000003
100
AcDbArc
 50
0.0
 51
180.0
  0
ARC
  5
2D46
330
1E
100
AcDbEntity
  8
0
100
AcDbCircle
 10
7.023221447563575
 20
0.498769696010374
 30
0.0
 40
0.078
100
AcDbArc
 50
0.0
 51
180.0
  0
ARC
  5
2D47
330
1E
100
AcDbEntity
  8
0
100
AcDbCircle
 10
4.585721447563575
 20
0.498769696010374
 30
0.0
 40
0.078
100
AcDbArc
 50
0.0
 51
180.0
  0
LINE
  5
2D48
330
1E
100
AcDbEntity
  8
0
100
AcDbLine
 10
6.945221447563572
 20
0.4987696960103705
 30
0.0
 11
4.663721447563592
 21
0.4987696960103705
 31
0.0
  0
ARC
  5
2D49
330
1E
100
AcDbEntity
  8
0
100
AcDbCircle
 10
7.463650320877651
 20
0.373769696010374
 30
0.0
 40
0.1249999999999986
100
AcDbArc
 50
16.26020470827319
 51
89.99999999999999
  0
LINE
  5
2D4A
330
1E
100
AcDbEntity
  8
0
100
AcDbLine
 10
11.21072144756357
 20
0.4987696960103669
 30
0.0
 11
11.33572144756357
 21
0.6237696960103669
 31
0.0
  0
LINE
  5
2D4B
330
1E
100
AcDbEntity
  8
0
100
AcDbLine
 10
11.21072144756357
 20
1.998769696010367
 30
0.0
 11
11.33572144756357
 21
1.873769696010367
 31
0.0
  0
LINE
  5
2D4C
330
1E
100
AcDbEntity
  8
0
100
AcDbLine
 10
0.273221447563575
 20
0.6237696960103705
 30
0.0
 11
0.398221447563575
 21
0.4987696960103705
 31
0.0
  0
LINE
  5
2D4D
330
1E
100
AcDbEntity
  8
0
100
AcDbLine
 10
0.273221447563575
 20
1.873769696010371
 30
0.0
 11
0.398221447563575
 21
1.998769696010371
 31
0.0
  0
LINE
  5
2D4E
330
1E
100
AcDbEntity
  8
0
100
AcDbLine
 10
10.02322144756357
 20
0.4987696960103669
 30
0.0
 11
11.21072144756357
 21
0.4987696960103669
 31
0.0
  0
LINE
  5
2D4F
330
1E
100
AcDbEntity
  8
0
100
AcDbLine
 10
11.33572144756357
 20
0.6237696960103669
 30
0.0
 11
11.33572144756357
 21
1.873769696010367
 31
0.0
  0
ARC
  5
2D50
330
1E
100
AcDbEntity
  8
0
100
AcDbCircle
 10
10.02322144756357
 20
0.373769696010374
 30
0.0
 40
0.1249999999999965
100
AcDbArc
 50
89.99999999999918
 51
163.7397952917274
  0
LINE
  5
2D51
330
1E
100
AcDbEntity
  8
0
100
AcDbLine
 10
7.463650320877651
 20
0.4987696960103705
 30
0.0
 11
7.101221447563578
 21
0.4987696960103705
 31
0.0
  0
ARC
  5
2D52
330
1E
100
AcDbEntity
  8
0
100
AcDbCircle
 10
4.145292574249499
 20
0.373769696010374
 30
0.0
 40
0.125
100
AcDbArc
 50
89.99999999999999
 51
163.7397952917252
  0
LINE
  5
2D53
330
1E
100
AcDbEntity
  8
0
100
AcDbLine
 10
4.507721447563572
 20
0.4987696960103705
 30
0.0
 11
4.145292574249499
 21
0.4987696960103705
 31
0.0
  0
ARC
  5
2D54
330
1E
100
AcDbEntity
  8
0
100
AcDbCircle
 10
7.023221447563575
 20
1.998769696010374
 30
0.0
 40
0.078
100
AcDbArc
 50
180.0
 51
0.0
  0
ARC
  5
2D55
330
1E
100
AcDbEntity
  8
0
100
AcDbCircle
 10
4.585721447563575
 20
1.998769696010374
 30
0.0
 40
0.078
100
AcDbArc
 50
180.0
 51
0.0
  0
LINE
  5
2D56
330
1E
100
AcDbEntity
  8
0
100
AcDbLine
 10
6.945221447563572
 20
1.998769696010371
 30
0.0
 11
4.663721447563592
 21
1.998769696010371
 31
0.0
  0
LINE
  5
2D57
330
1E
100
AcDbEntity
  8
0
100
AcDbLine
 10
1.585721447563575
 20
0.4987696960103705
 30
0.0
 11
0.398221447563575
 21
0.4987696960103705
 31
0.0
  0
LINE
  5
2D58
330
1E
100
AcDbEntity
  8
0
100
AcDbLine
 10
0.273221447563575
 20
0.6237696960103705
 30
0.0
 11
0.273221447563575
 21
1.873769696010371
 31
0.0
  0
ARC
  5
2D59
330
1E
100
AcDbEntity
  8
0
100
AcDbCircle
 10
1.585721447563579
 20
0.3737696960103953
 30
0.0
 40
0.1249999999999952
100
AcDbArc
 50
16.26020470827362
 51
90.00000000000162
  0
LINE
  5
2D5A
330
1E
100
AcDbEntity
  8
0
100
AcDbLine
 10
1.585721447563603
 20
1.998769696010371
 30
0.0
 11
0.398221447563575
 21
1.998769696010371
 31
0.0
  0
LINE
  5
2D5B
330
1E
100
AcDbEntity
  8
0
100
AcDbLine
 10
4.507721447563572
 20
1.998769696010371
 30
0.0
 11
3.981636822296398
 21
1.998769696010385
 31
0.0
  0
LINE
  5
2D5C
330
1E
100
AcDbEntity
  8
0
100
AcDbLine
 10
7.627306072830553
 20
1.998769696010513
 30
0.0
 11
7.101221447563578
 21
1.998769696010371
 31
0.0
  0
LINE
  5
2D5D
330
1E
100
AcDbEntity
  8
0
100
AcDbLine
 10
11.21072144756357
 20
1.998769696010367
 30
0.0
 11
10.02322144756332
 21
1.998769696010168
 31
0.0
  0
LINE
  5
2D5E
330
1E
100
AcDbEntity
  8
0
100
AcDbLine
 10
9.903221447563546
 20
0.4087696960102925
 30
0.0
 11
7.583650320877673
 21
0.4087696960102925
 31
0.0
  0
LINE
  5
2D5F
330
1E
100
AcDbEntity
  8
0
100
AcDbLine
 10
4.025292574249477
 20
0.4087696960102925
 30
0.0
 11
1.705721447563597
 21
0.4087696960103067
 31
0.0
  0
LINE
  5
2D60
330
1E
100
AcDbEntity
  8
0
100
AcDbLine
 10
10.02322144756357
 20
0.4987696960103669
 30
0.0
 11
7.463650320877651
 21
0.4987696960103705
 31
0.0
  0
LINE
  5
2D61
330
1E
100
AcDbEntity
  8
0
100
AcDbLine
 10
1.585721447563593
 20
0.4987696960103705
 30
0.0
 11
4.145292574249513
 21
0.4987696960103705
 31
0.0
  0
LINE
  5
2D62
330
1E
100
AcDbEntity
  8
0
100
AcDbLine
 10
-4.752230372618854
 20
1.998769696010367
 30
0.0
 11
-4.752230372618847
 21
0.4227696960102065
 31
0.0
  0
LINE
  5
2D63
330
1E
100
AcDbEntity
  8
0
100
AcDbLine
 10
-4.648230372618848
 20
0.3187696960102073
 30
0.0
 11
-3.252230372618747
 21
0.3187696960102073
 31
0.0
  0
LINE
  5
2D64
330
1E
100
AcDbEntity
  8
0
100
AcDbLine
 10
-3.252230372618747
 20
0.3187696960102073
 30
0.0
 11
-3.252230372618747
 21
0.4087696960102853
 31
0.0
  0
LINE
  5
2D65
330
1E
100
AcDbEntity
  8
0
100
AcDbLine
 10
-3.252230372618747
 20
0.4087696960102853
 30
0.0
 11
-4.610230372618766
 21
0.4087696960102853
 31
0.0
  0
LINE
  5
2D66
330
1E
100
AcDbEntity
  8
0
100
AcDbLine
 10
-4.662230372618772
 20
1.998769696010367
 30
0.0
 11
-4.662230372618772
 21
0.460769696010285
 31
0.0
  0
LINE
  5
2D67
330
1E
100
AcDbEntity
  8
0
100
AcDbLine
 10
-4.662230372618772
 20
1.998769696010367
 30
0.0
 11
-4.752230372618854
 21
1.998769696010367
 31
0.0
  0
ARC
  5
2D68
330
1E
100
AcDbEntity
  8
0
100
AcDbCircle
 10
-4.648230372618841
 20
0.4227696960102101
 30
0.0
 40
0.104
100
AcDbArc
 50
180.0
 51
270.0
  0
ARC
  5
2D69
330
1E
100
AcDbEntity
  8
0
100
AcDbCircle
 10
-4.610230372618759
 20
0.4607696960102885
 30
0.0
 40
0.052
100
AcDbArc
 50
180.0
 51
270.0
  0
LINE
  5
2D6A
330
1E
100
AcDbEntity
  8
0
100
AcDbLine
 10
-4.752230372618847
 20
0.4987696960103669
 30
0.0
 11
-4.662230372618772
 21
0.4987696960103669
 31
0.0
  0
LINE
  5
2D6B
330
1E
100
AcDbEntity
  8
0
100
AcDbLine
 10
-4.752230372618854
 20
0.6237696960103669
 30
0.0
 11
-4.662230372618772
 21
0.6237696960103669
 31
0.0
  0
LINE
  5
2D6C
330
1E
100
AcDbEntity
  8
0
100
AcDbLine
 10
-4.752230372618854
 20
1.873769696010367
 30
0.0
 11
-4.662230372618772
 21
1.873769696010367
 31
0.0
  0
LINE
  5
2D6D
330
1E
100
AcDbEntity
  8
0
100
AcDbLine
 10
3.786090574587533
 20
7.503185444237445
 30
0.0
 11
3.802042016318538
 21
7.500084798062574
 31
0.0
  0
ARC
  5
2D6E
330
1E
100
AcDbEntity
  8
0
100
AcDbCircle
 10
3.741250460674028
 20
7.272503056127237
 30
0.0
 40
0.015
100
AcDbArc
 50
169.0000000000026
 51
259.0000000000026
  0
LINE
  5
2D6F
330
1E
100
AcDbEntity
  8
0
100
AcDbLine
 10
3.738388325743387
 20
7.25777864837552
 30
0.0
 11
3.75433976747442
 21
7.254678002200663
 31
0.0
  0
ARC
  5
2D70
330
1E
100
AcDbEntity
  8
0
100
AcDbCircle
 10
3.783228439656885
 20
7.488461036485733
 30
0.0
 40
0.015
100
AcDbArc
 50
79.00000000001543
 51
169.0000000000026
  0
LINE
  5
2D71
330
1E
100
AcDbEntity
  8
0
100
AcDbLine
 10
3.768504031905181
 20
7.491323171416369
 30
0.0
 11
3.72652605292231
 21
7.275365191057887
 31
0.0
  0
LINE
  5
2D72
330
1E
100
AcDbEntity
  8
0
100
AcDbLine
 10
1.681589661217615
 20
7.502381400131483
 30
0.0
 11
1.665339661217644
 21
7.502381400131483
 31
0.0
  0
ARC
  5
2D73
330
1E
100
AcDbEntity
  8
0
100
AcDbCircle
 10
1.681589661217647
 20
7.267381400131487
 30
0.0
 40
0.015
100
AcDbArc
 50
270.0
 51
0.0
  0
LINE
  5
2D74
330
1E
100
AcDbEntity
  8
0
100
AcDbLine
 10
1.681589661217643
 20
7.252381400131483
 30
0.0
 11
1.665339661217629
 21
7.252381400131483
 31
0.0
  0
ARC
  5
2D75
330
1E
100
AcDbEntity
  8
0
100
AcDbCircle
 10
1.681589661217618
 20
7.487381400131486
 30
0.0
 40
0.015
100
AcDbArc
 50
0.0
 51
89.99999999998737
  0
LINE
  5
2D76
330
1E
100
AcDbEntity
  8
0
100
AcDbLine
 10
1.696589661217601
 20
7.487381400131497
 30
0.0
 11
1.696589661217644
 21
7.267381400131484
 31
0.0
  0
LINE
  5
2D77
330
1E
100
AcDbEntity
  8
0
100
AcDbLine
 10
7.732088747847755
 20
7.503185444237445
 30
0.0
 11
7.71613730611675
 21
7.500084798062574
 31
0.0
  0
ARC
  5
2D78
330
1E
100
AcDbEntity
  8
0
100
AcDbCircle
 10
7.776928861761281
 20
7.272503056127237
 30
0.0
 40
0.015
100
AcDbArc
 50
280.999999999997
 51
10.99999999999737
  0
LINE
  5
2D79
330
1E
100
AcDbEntity
  8
0
100
AcDbLine
 10
7.779790996691901
 20
7.25777864837552
 30
0.0
 11
7.763839554960882
 21
7.254678002200663
 31
0.0
  0
ARC
  5
2D7A
330
1E
100
AcDbEntity
  8
0
100
AcDbCircle
 10
7.73495088277841
 20
7.488461036485733
 30
0.0
 40
0.015
100
AcDbArc
 50
10.99999999999737
 51
100.9999999999845
  0
LINE
  5
2D7B
330
1E
100
AcDbEntity
  8
0
100
AcDbLine
 10
7.749675290530121
 20
7.491323171416369
 30
0.0
 11
7.791653269512977
 21
7.275365191057887
 31
0.0
  0
LINE
  5
2D7C
330
1E
100
AcDbEntity
  8
0
100
AcDbLine
 10
9.836589661217666
 20
7.502381400131483
 30
0.0
 11
9.852839661217651
 21
7.502381400131483
 31
0.0
  0
ARC
  5
2D7D
330
1E
100
AcDbEntity
  8
0
100
AcDbCircle
 10
9.836589661217644
 20
7.267381400131486
 30
0.0
 40
0.015
100
AcDbArc
 50
180.0
 51
270.0
  0
LINE
  5
2D7E
330
1E
100
AcDbEntity
  8
0
100
AcDbLine
 10
9.836589661217644
 20
7.252381400131483
 30
0.0
 11
9.852839661217651
 21
7.252381400131483
 31
0.0
  0
ARC
  5
2D7F
330
1E
100
AcDbEntity
  8
0
100
AcDbCircle
 10
9.836589661217666
 20
7.487381400131485
 30
0.0
 40
0.015
100
AcDbArc
 50
90.00000000001261
 51
180.0
  0
LINE
  5
2D80
330
1E
100
AcDbEntity
  8
0
100
AcDbLine
 10
9.821589661217679
 20
7.487381400131497
 30
0.0
 11
9.821589661217644
 21
7.267381400131484
 31
0.0
  0
LINE
  5
2D81
330
1E
100
AcDbEntity
  8
0
100
AcDbLine
 10
7.716137306116764
 20
7.500084798062574
 30
0.0
 11
7.540971932462682
 21
8.401232524553493
 31
0.0
  0
LINE
  5
2D82
330
1E
100
AcDbEntity
  8
0
100
AcDbLine
 10
7.793219696761696
 20
7.103530275709488
 30
0.0
 11
7.763839554960853
 21
7.254678002200663
 31
0.0
  0
CIRCLE
  5
2D83
330
1E
100
AcDbEntity
  8
0
100
AcDbCircle
 10
3.477839661217661
 20
7.252381400131357
 30
0.0
 40
0.078
  0
CIRCLE
  5
2D84
330
1E
100
AcDbEntity
  8
0
100
AcDbCircle
 10
1.977839661217661
 20
7.252381400131359
 30
0.0
 40
0.078
  0
CIRCLE
  5
2D85
330
1E
100
AcDbEntity
  8
0
100
AcDbCircle
 10
2.477839661217661
 20
7.50238140013143
 30
0.0
 40
0.078
  0
CIRCLE
  5
2D86
330
1E
100
AcDbEntity
  8
0
100
AcDbCircle
 10
2.977839661217661
 20
7.377381400131444
 30
0.0
 40
0.078
  0
ARC
  5
2D87
330
1E
100
AcDbEntity
  8
0
100
AcDbCircle
 10
1.790339661217661
 20
7.127381400131331
 30
0.0
 40
0.125
100
AcDbArc
 50
180.0000000000016
 51
270.0000000000069
  0
LINE
  5
2D88
330
1E
100
AcDbEntity
  8
0
100
AcDbLine
 10
1.665339661217658
 20
7.127381400131327
 30
0.0
 11
1.665339661217644
 21
7.252381400131483
 31
0.0
  0
LINE
  5
2D89
330
1E
100
AcDbEntity
  8
0
100
AcDbLine
 10
1.790339661217672
 20
7.002381400131327
 30
0.0
 11
3.602256227742657
 21
7.002381400131554
 31
0.0
  0
LINE
  5
2D8A
330
1E
100
AcDbEntity
  8
0
100
AcDbLine
 10
3.802042016318538
 20
7.500084798062574
 30
0.0
 11
3.97720738997262
 21
8.401232524553493
 31
0.0
  0
ARC
  5
2D8B
330
1E
100
AcDbEntity
  8
0
100
AcDbCircle
 10
3.602256227742647
 20
7.127381400131556
 30
0.0
 40
0.125
100
AcDbArc
 50
270.0000000000073
 51
349.0000000000001
  0
LINE
  5
2D8C
330
1E
100
AcDbEntity
  8
0
100
AcDbLine
 10
3.724959625673591
 20
7.103530275709488
 30
0.0
 11
3.754339767474406
 21
7.254678002200663
 31
0.0
  0
LINE
  5
2D8D
330
1E
100
AcDbEntity
  8
0
100
AcDbLine
 10
1.665339661217658
 20
7.502381400131483
 30
0.0
 11
1.665339661217644
 21
8.377381400131426
 31
0.0
  0
LINE
  5
2D8E
330
1E
100
AcDbEntity
  8
0
100
AcDbLine
 10
1.665339661217644
 20
7.127381400131228
 30
0.0
 11
1.665339661217658
 21
7.252381400131483
 31
0.0
  0
LINE
  5
2D8F
330
1E
100
AcDbEntity
  8
0
100
AcDbLine
 10
1.790339661217558
 20
7.002381400131341
 30
0.0
 11
3.604595814612281
 21
7.002381400131569
 31
0.0
  0
LINE
  5
2D90
330
1E
100
AcDbEntity
  8
0
100
AcDbLine
 10
9.852839661217644
 20
7.502381400131483
 30
0.0
 11
9.852839661217644
 21
8.377381400131426
 31
0.0
  0
LINE
  5
2D91
330
1E
100
AcDbEntity
  8
0
100
AcDbLine
 10
9.852839661217644
 20
7.127381400131327
 30
0.0
 11
9.852839661217644
 21
7.252381400131483
 31
0.0
  0
CIRCLE
  5
2D92
330
1E
100
AcDbEntity
  8
0
100
AcDbCircle
 10
8.040339661217633
 20
7.252381400131357
 30
0.0
 40
0.078
  0
ARC
  5
2D93
330
1E
100
AcDbEntity
  8
0
100
AcDbCircle
 10
7.418268534531723
 20
8.377381400131428
 30
0.0
 40
0.125
100
AcDbArc
 50
10.99999999999985
 51
89.99999999999999
  0
CIRCLE
  5
2D94
330
1E
100
AcDbEntity
  8
0
100
AcDbCircle
 10
9.540339661217637
 20
7.252381400131357
 30
0.0
 40
0.078
  0
CIRCLE
  5
2D95
330
1E
100
AcDbEntity
  8
0
100
AcDbCircle
 10
9.040339661217633
 20
7.502381400131428
 30
0.0
 40
0.078
  0
LINE
  5
2D96
330
1E
100
AcDbEntity
  8
0
100
AcDbLine
 10
9.852839661217644
 20
7.533381400131489
 30
0.0
 11
9.852839661217644
 21
8.377381400131426
 31
0.0
  0
LINE
  5
2D97
330
1E
100
AcDbEntity
  8
0
100
AcDbLine
 10
9.852839661217644
 20
7.127381400131228
 30
0.0
 11
9.852839661217644
 21
7.252381400131483
 31
0.0
  0
LINE
  5
2D98
330
1E
100
AcDbEntity
  8
0
100
AcDbLine
 10
0.2278396612176437
 20
8.502381400131426
 30
0.0
 11
11.29033966121764
 21
8.502381400131423
 31
0.0
  0
ARC
  5
2D99
330
1E
100
AcDbEntity
  8
0
100
AcDbCircle
 10
9.977839661217644
 20
8.377381400131428
 30
0.0
 40
0.125
100
AcDbArc
 50
89.99999999999999
 51
180.0
  0
CIRCLE
  5
2D9A
330
1E
100
AcDbEntity
  8
0
100
AcDbCircle
 10
8.540339661217633
 20
7.377381400131442
 30
0.0
 40
0.078
  0
ARC
  5
2D9B
330
1E
100
AcDbEntity
  8
0
100
AcDbCircle
 10
4.099910787903571
 20
8.377381400131428
 30
0.0
 40
0.125
100
AcDbArc
 50
89.99999999999999
 51
169.0000000000001
  0
ARC
  5
2D9C
330
1E
100
AcDbEntity
  8
0
100
AcDbCircle
 10
1.540339661217647
 20
8.377381400131444
 30
0.0
 40
0.125
100
AcDbArc
 50
0.0
 51
89.99999999999999
  0
ARC
  5
2D9D
330
1E
100
AcDbEntity
  8
0
100
AcDbCircle
 10
9.727839661217644
 20
7.127381400131329
 30
0.0
 40
0.125
100
AcDbArc
 50
269.9999999999927
 51
0.0
  0
ARC
  5
2D9E
330
1E
100
AcDbEntity
  8
0
100
AcDbCircle
 10
7.915923094692662
 20
7.12738140013157
 30
0.0
 40
0.125
100
AcDbArc
 50
190.9999999999999
 51
269.9999999999927
  0
LINE
  5
2D9F
330
1E
100
AcDbEntity
  8
0
100
AcDbLine
 10
9.727839661217629
 20
7.002381400131327
 30
0.0
 11
7.915923094692644
 21
7.002381400131569
 31
0.0
  0
LINE
  5
2DA0
330
1E
100
AcDbEntity
  8
0
100
AcDbLine
 10
0.2278396612176437
 20
8.592381400131504
 30
0.0
 11
11.29033966121764
 21
8.592381400131501
 31
0.0
  0
LINE
  5
2DA1
330
1E
100
AcDbEntity
  8
0
100
AcDbLine
 10
11.29033966121764
 20
8.502381400131423
 30
0.0
 11
11.29033966121764
 21
8.592381400131501
 31
0.0
  0
LINE
  5
2DA2
330
1E
100
AcDbEntity
  8
0
100
AcDbLine
 10
11.16533966121764
 20
8.502381400131423
 30
0.0
 11
11.16533966121764
 21
8.592381400131501
 31
0.0
  0
LINE
  5
2DA3
330
1E
100
AcDbEntity
  8
0
100
AcDbLine
 10
7.055839661217647
 20
8.502381400131426
 30
0.0
 11
7.055839661217654
 21
8.592381400131504
 31
0.0
  0
LINE
  5
2DA4
330
1E
100
AcDbEntity
  8
0
100
AcDbLine
 10
6.899839661217641
 20
8.502381400131426
 30
0.0
 11
6.899839661217648
 21
8.592381400131504
 31
0.0
  0
LINE
  5
2DA5
330
1E
100
AcDbEntity
  8
0
100
AcDbLine
 10
4.618339661217647
 20
8.502381400131426
 30
0.0
 11
4.618339661217647
 21
8.592381400131504
 31
0.0
  0
LINE
  5
2DA6
330
1E
100
AcDbEntity
  8
0
100
AcDbLine
 10
4.462339661217641
 20
8.502381400131426
 30
0.0
 11
4.462339661217641
 21
8.592381400131504
 31
0.0
  0
LINE
  5
2DA7
330
1E
100
AcDbEntity
  8
0
100
AcDbLine
 10
0.2278396612176437
 20
8.502381400131426
 30
0.0
 11
0.2278396612176437
 21
8.592381400131504
 31
0.0
  0
LINE
  5
2DA8
330
1E
100
AcDbEntity
  8
0
100
AcDbLine
 10
0.3528396612176437
 20
8.502381400131426
 30
0.0
 11
0.3528396612176437
 21
8.592381400131504
 31
0.0
  0
LINE
  5
2DA9
330
1E
100
AcDbEntity
  8
0
100
AcDbLine
 10
1.540339661217672
 20
8.502381400131426
 30
0.0
 11
1.540339661217672
 21
8.592381400131504
 31
0.0
  0
LINE
  5
2DAA
330
1E
100
AcDbEntity
  8
0
100
AcDbLine
 10
1.665339661217629
 20
8.502381400131426
 30
0.0
 11
1.665339661217629
 21
8.592381400131504
 31
0.0
  0
LINE
  5
2DAB
330
1E
100
AcDbEntity
  8
0
100
AcDbLine
 10
3.754339767474381
 20
8.502381400131426
 30
0.0
 11
3.754339767474381
 21
8.592381400131504
 31
0.0
  0
LINE
  5
2DAC
330
1E
100
AcDbEntity
  8
0
100
AcDbLine
 10
3.936255035950666
 20
8.502381400131426
 30
0.0
 11
3.936255035950669
 21
8.592381400131501
 31
0.0
  0
LINE
  5
2DAD
330
1E
100
AcDbEntity
  8
0
100
AcDbLine
 10
9.977839661217608
 20
8.502381400131423
 30
0.0
 11
9.977839661217608
 21
8.592381400131501
 31
0.0
  0
LINE
  5
2DAE
330
1E
100
AcDbEntity
  8
0
100
AcDbLine
 10
9.852839661217651
 20
8.502381400131426
 30
0.0
 11
9.852839661217651
 21
8.592381400131504
 31
0.0
  0
LINE
  5
2DAF
330
1E
100
AcDbEntity
  8
0
100
AcDbLine
 10
7.763839554960903
 20
8.502381400131426
 30
0.0
 11
7.763839554960903
 21
8.592381400131504
 31
0.0
  0
LINE
  5
2DB0
330
1E
100
AcDbEntity
  8
0
100
AcDbLine
 10
7.581924286484615
 20
8.502381400131426
 30
0.0
 11
7.581924286484615
 21
8.592381400131501
 31
0.0
  0
LINE
  5
2DB1
330
1E
100
AcDbEntity
  8
0
100
AcDbLine
 10
-3.502230372618904
 20
0.3187696960102073
 30
0.0
 11
-3.502230372618904
 21
0.4087696960102853
 31
0.0
  0
LINE
  5
2DB2
330
1E
100
AcDbEntity
  8
0
100
AcDbLine
 10
-3.752230372618911
 20
0.3187696960102073
 30
0.0
 11
-3.752230372618911
 21
0.4087696960102853
 31
0.0
  0
ENDSEC
  0
SECTION
  2
OBJECTS
  0
DICTIONARY
  5
C
330
0
100
AcDbDictionary
281
     1
  3
ACAD_COLOR
350
691
  3
ACAD_GROUP
350
D
  3
ACAD_LAYOUT
350
19
  3
ACAD_MATERIAL
350
690
  3
ACAD_MLINESTYLE
350
16
  3
ACAD_PLOTSETTINGS
350
18
  3
ACAD_PLOTSTYLENAME
350
E
  3
ACAD_TABLESTYLE
350
692
  3
ACDBHEADERROUNDTRIPXREC
350
2DC2
  3
AcDbVariableDictionary
350
A9D
  0
DICTIONARY
  5
A01
330
2
100
AcDbDictionary
280
     1
281
     1
  3
ACAD_LAYERFILTERS
360
197B
  3
ACAD_LAYERSTATES
360
A02
  3
ACLYDICTIONARY
360
197A
  0
DICTIONARY
  5
4EE
330
1E
100
AcDbDictionary
280
     1
281
     1
  3
ACAD_SORTENTS
360
1BD2
  0
DICTIONARY
  5
691
102
{ACAD_REACTORS
330
C
102
}
330
C
100
AcDbDictionary
281
     1
  0
DICTIONARY
  5
D
102
{ACAD_REACTORS
330
C
102
}
330
C
100
AcDbDictionary
281
     1
  0
DICTIONARY
  5
19
102
{ACAD_REACTORS
330
C
102
}
330
C
100
AcDbDictionary
281
     1
  3
Layout1
350
1D
  3
Model
350
21
  0
DICTIONARY
  5
690
102
{ACAD_REACTORS
330
C
102
}
330
C
100
AcDbDictionary
281
     1
  0
DICTIONARY
  5
16
102
{ACAD_REACTORS
330
C
102
}
330
C
100
AcDbDictionary
281
     1
  3
Standard
350
17
  0
DICTIONARY
  5
18
102
{ACAD_REACTORS
330
C
102
}
330
C
100
AcDbDictionary
281
     1
  0
ACDBDICTIONARYWDFLT
  5
E
102
{ACAD_REACTORS
330
C
102
}
330
C
100
AcDbDictionary
281
     1
  3
Normal
350
F
100
AcDbDictionaryWithDefault
340
F
  0
DICTIONARY
  5
692
102
{ACAD_REACTORS
330
C
102
}
330
C
100
AcDbDictionary
281
     1
  3
Standard
350
693
  0
DICTIONARY
  5
2DC2
102
{ACAD_REACTORS
330
C
102
}
330
C
100
AcDbDictionary
281
     1
  3
COLORDICT
350
2DC3
  3
MATERIALDICT
350
2DC4
  0
DICTIONARY
  5
A9D
102
{ACAD_REACTORS
330
C
102
}
330
C
100
AcDbDictionary
281
     1
  3
CTABLESTYLE
350
A9E
  3
DIMASSOC
350
A9F
  0
DICTIONARY
  5
197B
102
{ACAD_REACTORS
330
A01
102
}
330
A01
100
AcDbDictionary
281
     1
  0
DICTIONARY
  5
A02
102
{ACAD_REACTORS
330
A01
102
}
330
A01
100
AcDbDictionary
281
     1
  0
DICTIONARY
  5
197A
102
{ACAD_REACTORS
330
A01
102
}
330
A01
100
AcDbDictionary
281
     1
1001
ACAD
1000
<All
  0
SORTENTSTABLE
  5
1BD2
102
{ACAD_REACTORS
330
4EE
102
}
330
4EE
100
AcDbSortentsTable
330
1E
331
4DD
  5
4DD
331
2BDB
  5
2D1F
  0
LAYOUT
  5
1D
102
{ACAD_REACTORS
330
19
102
}
102
{ACAD_XDICTIONARY
360
2DC5
102
}
330
19
100
AcDbPlotSettings
  1

  2
Fax
  4

  6

 40
0.0
 41
0.0
 42
0.0
 43
0.0
 44
0.0
 45
0.0
 46
0.0
 47
0.0
 48
0.0
 49
0.0
140
0.0
141
0.0
142
1.0
143
1.0
 70
   688
 72
     0
 73
     0
 74
     5
  7
monochrome.ctb
 75
    16
147
1.0
148
0.0
149
0.0
100
AcDbLayout
  1
Layout1
 70
     0
 71
     1
 10
0.0
 20
0.0
 11
12.0
 21
9.0
 12
0.0
 22
0.0
 32
0.0
 14
1.000000000000000E+20
 24
1.000000000000000E+20
 34
1.000000000000000E+20
 15
-1.000000000000000E+20
 25
-1.000000000000000E+20
 35
-1.000000000000000E+20
146
0.0
 13
0.0
 23
0.0
 33
0.0
 16
1.0
 26
0.0
 36
0.0
 17
0.0
 27
1.0
 37
0.0
 76
     0
330
1A
  0
LAYOUT
  5
21
102
{ACAD_REACTORS
330
19
102
}
102
{ACAD_XDICTIONARY
360
2DC7
102
}
330
19
100
AcDbPlotSettings
  1

  2
HP LaserJet 2100 Series PS
  4
Letter
  6

 40
5.365749835968018
 41
5.408073902130127
 42
5.132904052734375
 43
5.090576171875
 44
215.8999938964844
 45
279.3999938964844
 46
0.0
 47
0.0
 48
0.0
 49
0.0
140
0.0
141
0.0
142
1.0
143
1.983808722055739
 70
 11952
 72
     0
 73
     0
 74
     1
  7
monochrome.ctb
 75
     0
147
0.5040808566280228
148
0.0210673756255908
149
0.6594106558317505
100
AcDbLayout
  1
Model
 70
     1
 71
     0
 10
0.0
 20
0.0
 11
12.0
 21
9.0
 12
0.0
 22
0.0
 32
0.0
 14
0.0
 24
0.0
 34
0.0
 15
0.0
 25
0.0
 35
0.0
146
0.0
 13
0.0
 23
0.0
 33
0.0
 16
1.0
 26
0.0
 36
0.0
 17
0.0
 27
1.0
 37
0.0
 76
     0
330
1E
1001
ACAD_PSEXT
1000
HP LaserJet 2100 Series PS
1000
HP LaserJet 2100 Series PS
1000
LPT1:
1000

1070
     0
  0
MLINESTYLE
  5
17
102
{ACAD_REACTORS
330
16
102
}
330
16
100
AcDbMlineStyle
  2
STANDARD
 70
     0
  3

 62
   256
 51
90.0
 52
90.0
 71
     2
 49
0.5
 62
   256
  6
BYLAYER
 49
-0.5
 62
   256
  6
BYLAYER
  0
ACDBPLACEHOLDER
  5
F
102
{ACAD_REACTORS
330
E
102
}
330
E
  0
ACAD_PROXY_OBJECT
  5
693
102
{ACAD_REACTORS
330
692
102
}
330
692
100
AcDbProxyObject
 90
      499
 91
      519
 95
   983063
 70
     0
 93
     1841
310
4214DD185B99185C9928B81E85EB51B8AE3F2E07A17AD46E2B8FC02B5E8DC0F42B1CFD028000000C1008070000C3001FDFF8000000C1003FBFF000000182007F7FE00000030400FEFFC00000060801FDFF8000000C1003FBFF00000018200000000000000681FA0B0000001820100E000186003FBFF000000182007F7FE000
310
00030400FEFFC00000060801FDFF8000000C1003FBFF000000182007F7FE000000304000AD7A3703D0AC73F4160000003040201C00030C007F7FE00000030400FEFFC00000060801FDFF8000000C1003FBFF000000182007F7FE00000030400FEFFC000000608000
340
11
340
11
340
11
 94
        0
  0
XRECORD
  5
2DC3
102
{ACAD_REACTORS
330
2DC2
102
}
330
2DC2
100
AcDbXrecord
340
691
  0
XRECORD
  5
2DC4
102
{ACAD_REACTORS
330
2DC2
102
}
330
2DC2
100
AcDbXrecord
340
690
  0
DICTIONARYVAR
  5
A9E
102
{ACAD_REACTORS
330
A9D
102
}
330
A9D
100
DictionaryVariables
280
     0
  1
STANDARD
  0
DICTIONARYVAR
  5
A9F
102
{ACAD_REACTORS
330
A9D
102
}
330
A9D
100
DictionaryVariables
280
     0
  1
2
  0
DICTIONARY
  5
2DC5
330
1D
100
AcDbDictionary
280
     1
281
     1
  3
ACAD_XREC_ROUNDTRIP
360
2DC6
  0
DICTIONARY
  5
2DC7
330
21
100
AcDbDictionary
280
     1
281
     1
  3
ACAD_XREC_ROUNDTRIP
360
2DC8
  0
XRECORD
  5
2DC6
102
{ACAD_REACTORS
330
2DC5
102
}
330
2DC5
100
AcDbXrecord
102
SHADEPLOT
 70
     0
102
SHADEPLOTRESLEVEL
 70
     2
102
SHADEPLOTCUSTOMDPI
 70
   300
  0
XRECORD
  5
2DC8
102
{ACAD_REACTORS
330
2DC7
102
}
330
2DC7
100
AcDbXrecord
102
SHADEPLOT
 70
     0
102
SHADEPLOTRESLEVEL
 70
     2
102
SHADEPLOTCUSTOMDPI
 70
   300
  0
ENDSEC
  0
EOF
