  0
SECTION
  2
HEADER
  9
$ACADVER
  1
AC1015
  9
$ACADMAINTVER
 70
    20
  9
$DWGCODEPAGE
  3
ANSI_1252
  9
$INSBASE
 10
0.0
 20
0.0
 30
0.0
  9
$EXTMIN
 10
-0.6248776659781257
 20
-0.0000000000000009
 30
0.0
  9
$EXTMAX
 10
3.87542481991759
 20
7.529620178367192
 30
0.0
  9
$LIMMIN
 10
0.0
 20
0.0
  9
$LIMMAX
 10
16.0
 20
21.0
  9
$ORTHOMODE
 70
     1
  9
$REGENMODE
 70
     1
  9
$FILLMODE
 70
     1
  9
$QTEXTMODE
 70
     0
  9
$MIRRTEXT
 70
     0
  9
$LTSCALE
 40
1.0
  9
$ATTMODE
 70
     1
  9
$TEXTSIZE
 40
0.18
  9
$TRACEWID
 40
0.05
  9
$TEXTSTYLE
  7
STANDARD
  9
$CLAYER
  8
0
  9
$CELTYPE
  6
BYLAYER
  9
$CECOLOR
 62
   256
  9
$CELTSCALE
 40
1.0
  9
$DISPSILH
 70
     0
  9
$DIMSCALE
 40
2.0
  9
$DIMASZ
 40
0.09375
  9
$DIMEXO
 40
0.03075
  9
$DIMDLI
 40
0.03125
  9
$DIMRND
 40
0.0
  9
$DIMDLE
 40
0.0
  9
$DIMEXE
 40
0.08
  9
$DIMTP
 40
0.0
  9
$DIMTM
 40
0.0
  9
$DIMTXT
 40
0.05875
  9
$DIMCEN
 40
0.02875
  9
$DIMTSZ
 40
0.0
  9
$DIMTOL
 70
     0
  9
$DIMLIM
 70
     0
  9
$DIMTIH
 70
     1
  9
$DIMTOH
 70
     1
  9
$DIMSE1
 70
     0
  9
$DIMSE2
 70
     0
  9
$DIMTAD
 70
     0
  9
$DIMZIN
 70
     0
  9
$DIMBLK
  1

  9
$DIMASO
 70
     0
  9
$DIMSHO
 70
     0
  9
$DIMPOST
  1

  9
$DIMAPOST
  1

  9
$DIMALT
 70
     0
  9
$DIMALTD
 70
     2
  9
$DIMALTF
 40
25.4
  9
$DIMLFAC
 40
1.0
  9
$DIMTOFL
 70
     0
  9
$DIMTVP
 40
0.0
  9
$DIMTIX
 70
     0
  9
$DIMSOXD
 70
     0
  9
$DIMSAH
 70
     0
  9
$DIMBLK1
  1

  9
$DIMBLK2
  1

  9
$DIMSTYLE
  2
STANDARD
  9
$DIMCLRD
 70
     0
  9
$DIMCLRE
 70
     0
  9
$DIMCLRT
 70
     0
  9
$DIMTFAC
 40
1.0
  9
$DIMGAP
 40
0.0625
  9
$DIMJUST
 70
     0
  9
$DIMSD1
 70
     0
  9
$DIMSD2
 70
     0
  9
$DIMTOLJ
 70
     1
  9
$DIMTZIN
 70
     0
  9
$DIMALTZ
 70
     0
  9
$DIMALTTZ
 70
     0
  9
$DIMUPT
 70
     0
  9
$DIMDEC
 70
     5
  9
$DIMTDEC
 70
     5
  9
$DIMALTU
 70
     5
  9
$DIMALTTD
 70
     2
  9
$DIMTXSTY
  7
STANDARD
  9
$DIMAUNIT
 70
     0
  9
$DIMADEC
 70
     0
  9
$DIMALTRND
 40
0.0
  9
$DIMAZIN
 70
     0
  9
$DIMDSEP
 70
    46
  9
$DIMATFIT
 70
     3
  9
$DIMFRAC
 70
     2
  9
$DIMLDRBLK
  1

  9
$DIMLUNIT
 70
     5
  9
$DIMLWD
 70
    -2
  9
$DIMLWE
 70
    -2
  9
$DIMTMOVE
 70
     2
  9
$LUNITS
 70
     5
  9
$LUPREC
 70
     5
  9
$SKETCHINC
 40
0.1
  9
$FILLETRAD
 40
0.0625
  9
$AUNITS
 70
     0
  9
$AUPREC
 70
     0
  9
$MENU
  1
QA
  9
$ELEVATION
 40
0.0
  9
$PELEVATION
 40
0.0
  9
$THICKNESS
 40
0.0
  9
$LIMCHECK
 70
     0
  9
$CHAMFERA
 40
0.25
  9
$CHAMFERB
 40
0.25
  9
$CHAMFERC
 40
0.0
  9
$CHAMFERD
 40
0.0
  9
$SKPOLY
 70
     0
  9
$TDCREATE
 40
2450969.588270602
  9
$TDUCREATE
 40
2450969.879937269
  9
$TDUPDATE
 40
2455448.423777847
  9
$TDUUPDATE
 40
2455448.715444514
  9
$TDINDWG
 40
1.4884256713
  9
$TDUSRTIMER
 40
1.4884256713
  9
$USRTIMER
 70
     1
  9
$ANGBASE
 50
0.0
  9
$ANGDIR
 70
     0
  9
$PDMODE
 70
     0
  9
$PDSIZE
 40
0.0
  9
$PLINEWID
 40
0.0
  9
$SPLFRAME
 70
     0
  9
$SPLINETYPE
 70
     6
  9
$SPLINESEGS
 70
     8
  9
$HANDSEED
  5
374C
  9
$SURFTAB1
 70
     6
  9
$SURFTAB2
 70
     6
  9
$SURFTYPE
 70
     6
  9
$SURFU
 70
     6
  9
$SURFV
 70
     6
  9
$UCSBASE
  2

  9
$UCSNAME
  2

  9
$UCSORG
 10
0.0
 20
0.0
 30
0.0
  9
$UCSXDIR
 10
1.0
 20
0.0
 30
0.0
  9
$UCSYDIR
 10
0.0
 20
1.0
 30
0.0
  9
$UCSORTHOREF
  2

  9
$UCSORTHOVIEW
 70
     0
  9
$UCSORGTOP
 10
0.0
 20
0.0
 30
0.0
  9
$UCSORGBOTTOM
 10
0.0
 20
0.0
 30
0.0
  9
$UCSORGLEFT
 10
0.0
 20
0.0
 30
0.0
  9
$UCSORGRIGHT
 10
0.0
 20
0.0
 30
0.0
  9
$UCSORGFRONT
 10
0.0
 20
0.0
 30
0.0
  9
$UCSORGBACK
 10
0.0
 20
0.0
 30
0.0
  9
$PUCSBASE
  2

  9
$PUCSNAME
  2

  9
$PUCSORG
 10
0.0
 20
0.0
 30
0.0
  9
$PUCSXDIR
 10
1.0
 20
0.0
 30
0.0
  9
$PUCSYDIR
 10
0.0
 20
1.0
 30
0.0
  9
$PUCSORTHOREF
  2

  9
$PUCSORTHOVIEW
 70
     0
  9
$PUCSORGTOP
 10
0.0
 20
0.0
 30
0.0
  9
$PUCSORGBOTTOM
 10
0.0
 20
0.0
 30
0.0
  9
$PUCSORGLEFT
 10
0.0
 20
0.0
 30
0.0
  9
$PUCSORGRIGHT
 10
0.0
 20
0.0
 30
0.0
  9
$PUCSORGFRONT
 10
0.0
 20
0.0
 30
0.0
  9
$PUCSORGBACK
 10
0.0
 20
0.0
 30
0.0
  9
$USERI1
 70
     0
  9
$USERI2
 70
     0
  9
$USERI3
 70
     0
  9
$USERI4
 70
     0
  9
$USERI5
 70
     0
  9
$USERR1
 40
0.0
  9
$USERR2
 40
0.0
  9
$USERR3
 40
0.0
  9
$USERR4
 40
0.0
  9
$USERR5
 40
0.0
  9
$WORLDVIEW
 70
     1
  9
$SHADEDGE
 70
     3
  9
$SHADEDIF
 70
    70
  9
$TILEMODE
 70
     1
  9
$MAXACTVP
 70
    16
  9
$PINSBASE
 10
0.0
 20
0.0
 30
0.0
  9
$PLIMCHECK
 70
     0
  9
$PEXTMIN
 10
1.000000000000000E+20
 20
1.000000000000000E+20
 30
1.000000000000000E+20
  9
$PEXTMAX
 10
-1.000000000000000E+20
 20
-1.000000000000000E+20
 30
-1.000000000000000E+20
  9
$PLIMMIN
 10
0.0
 20
0.0
  9
$PLIMMAX
 10
12.0
 20
9.0
  9
$UNITMODE
 70
     0
  9
$VISRETAIN
 70
     0
  9
$PLINEGEN
 70
     1
  9
$PSLTSCALE
 70
     0
  9
$TREEDEPTH
 70
  3020
  9
$CMLSTYLE
  2
STANDARD
  9
$CMLJUST
 70
     0
  9
$CMLSCALE
 40
1.0
  9
$PROXYGRAPHICS
 70
     1
  9
$MEASUREMENT
 70
     0
  9
$CELWEIGHT
370
    -1
  9
$ENDCAPS
280
     0
  9
$JOINSTYLE
280
     0
  9
$LWDISPLAY
290
     0
  9
$INSUNITS
 70
     0
  9
$HYPERLINKBASE
  1

  9
$STYLESHEET
  1
monochrome.ctb
  9
$XEDIT
290
     1
  9
$CEPSNTYPE
380
     0
  9
$PSTYLEMODE
290
     1
  9
$FINGERPRINTGUID
  2
{B9AD525F-3553-48FB-AD56-047284DCC912}
  9
$VERSIONGUID
  2
{B4A1D81E-84A4-4639-87B4-6EF15ABD9E34}
  9
$EXTNAMES
290
     1
  9
$PSVPSCALE
 40
0.0
  9
$OLESTARTUP
290
     0
  0
ENDSEC
  0
SECTION
  2
CLASSES
  0
CLASS
  1
DICTIONARYVAR
  2
AcDbDictionaryVar
  3
ObjectDBX Classes
 90
        0
280
     0
281
     0
  0
CLASS
  1
ACDBDICTIONARYWDFLT
  2
AcDbDictionaryWithDefault
  3
ObjectDBX Classes
 90
        0
280
     0
281
     0
  0
CLASS
  1
ACDBPLACEHOLDER
  2
AcDbPlaceHolder
  3
ObjectDBX Classes
 90
        0
280
     0
281
     0
  0
CLASS
  1
LAYOUT
  2
AcDbLayout
  3
ObjectDBX Classes
 90
        0
280
     0
281
     0
  0
CLASS
  1
TABLESTYLE
  2
AcDbTableStyle
  3
ObjectDBX Classes
 90
     2047
280
     0
281
     0
  0
CLASS
  1
SORTENTSTABLE
  2
AcDbSortentsTable
  3
ObjectDBX Classes
 90
        0
280
     0
281
     0
  0
CLASS
  1
DIMASSOC
  2
AcDbDimAssoc
  3
"AcDbDimAssoc|Product Desc:     AcDim ARX App For Dimension|Company:          Autodesk, Inc.|WEB Address:      www.autodesk.com"
 90
    32768
280
     0
281
     0
  0
ENDSEC
  0
SECTION
  2
TABLES
  0
TABLE
  2
VPORT
  5
11A0
330
0
100
AcDbSymbolTable
 70
     2
  0
VPORT
  5
3746
330
11A0
100
AcDbSymbolTableRecord
100
AcDbViewportTableRecord
  2
*Active
 70
     0
 10
0.0
 20
0.0
 11
1.0
 21
1.0
 12
3.560156335478298
 22
3.769227126951346
 13
0.0
 23
0.0
 14
0.0625
 24
0.0625
 15
0.25
 25
0.25
 16
0.0
 26
0.0
 36
1.0
 17
0.0
 27
0.0
 37
0.0
 40
14.95878576966076
 41
1.684322033898305
 42
50.0
 43
0.0
 44
0.0
 50
0.0
 51
0.0
 71
     0
 72
   100
 73
     1
 74
     0
 75
     0
 76
     0
 77
     0
 78
     0
281
     0
 65
     1
110
0.0
120
0.0
130
0.0
111
1.0
121
0.0
131
0.0
112
0.0
122
1.0
132
0.0
 79
     0
146
0.0
  0
ENDTAB
  0
TABLE
  2
LTYPE
  5
119D
330
0
100
AcDbSymbolTable
 70
     2
  0
LTYPE
  5
11A9
330
119D
100
AcDbSymbolTableRecord
100
AcDbLinetypeTableRecord
  2
BYBLOCK
 70
     0
  3

 72
    65
 73
     0
 40
0.0
  0
LTYPE
  5
11AA
330
119D
100
AcDbSymbolTableRecord
100
AcDbLinetypeTableRecord
  2
BYLAYER
 70
     0
  3

 72
    65
 73
     0
 40
0.0
  0
LTYPE
  5
11AB
330
119D
100
AcDbSymbolTableRecord
100
AcDbLinetypeTableRecord
  2
CONTINUOUS
 70
     0
  3
Solid line
 72
    65
 73
     0
 40
0.0
  0
LTYPE
  5
1E92
330
119D
100
AcDbSymbolTableRecord
100
AcDbLinetypeTableRecord
  2
HIDDEN
 70
     0
  3
_ _ _ _ _ _ _ _ _ _ _ _ _ _ _ _ _ _ _ _ _ _ _
 72
    65
 73
     2
 40
0.375
 49
0.25
 74
     0
 49
-0.125
 74
     0
  0
ENDTAB
  0
TABLE
  2
LAYER
  5
119A
102
{ACAD_XDICTIONARY
360
20C1
102
}
330
0
100
AcDbSymbolTable
 70
     4
  0
LAYER
  5
11A6
330
119A
100
AcDbSymbolTableRecord
100
AcDbLayerTableRecord
  2
0
 70
     0
 62
     7
  6
CONTINUOUS
370
    -3
390
1850
  0
LAYER
  5
11CF
330
119A
100
AcDbSymbolTableRecord
100
AcDbLayerTableRecord
  2
NOTE
 70
     0
 62
     1
  6
CONTINUOUS
370
    -3
390
1850
  0
LAYER
  5
11D4
330
119A
100
AcDbSymbolTableRecord
100
AcDbLayerTableRecord
  2
DIM
 70
     0
 62
     5
  6
CONTINUOUS
370
    -3
390
1850
  0
LAYER
  5
20BE
330
119A
100
AcDbSymbolTableRecord
100
AcDbLayerTableRecord
  2
DEFPOINTS
 70
     0
 62
     7
  6
CONTINUOUS
290
     0
370
    -3
390
1850
  0
ENDTAB
  0
TABLE
  2
STYLE
  5
119B
330
0
100
AcDbSymbolTable
 70
     1
  0
STYLE
  5
11A7
330
119B
100
AcDbSymbolTableRecord
100
AcDbTextStyleTableRecord
  2
STANDARD
 70
     0
 40
0.0
 41
1.0
 50
0.0
 71
     0
 42
0.18
  3
TXT
  4

  0
ENDTAB
  0
TABLE
  2
VIEW
  5
119E
330
0
100
AcDbSymbolTable
 70
     1
  0
VIEW
  5
11CB
330
119E
100
AcDbSymbolTableRecord
100
AcDbViewTableRecord
  2
1
 70
     0
 40
8.149475694399708
 10
6.869897054360147
 20
9.830771043222521
 41
0.0
 11
0.0
 21
0.0
 31
1.0
 12
0.0
 22
0.0
 32
0.0
 42
0.0
 43
0.0
 44
0.0
 50
0.0
 71
     0
281
     0
 72
     0
  0
ENDTAB
  0
TABLE
  2
UCS
  5
119F
330
0
100
AcDbSymbolTable
 70
     0
  0
ENDTAB
  0
TABLE
  2
APPID
  5
11A1
330
0
100
AcDbSymbolTable
 70
    12
  0
APPID
  5
11A8
330
11A1
100
AcDbSymbolTableRecord
100
AcDbRegAppTableRecord
  2
ACAD
 70
     0
  0
APPID
  5
14D5
330
11A1
100
AcDbSymbolTableRecord
100
AcDbRegAppTableRecord
  2
RAK
 70
     0
  0
APPID
  5
14D6
330
11A1
100
AcDbSymbolTableRecord
100
AcDbRegAppTableRecord
  2
AME_SOL
 70
     0
  0
APPID
  5
1EDA
330
11A1
100
AcDbSymbolTableRecord
100
AcDbRegAppTableRecord
  2
DCO15
 70
     0
  0
APPID
  5
23CB
330
11A1
100
AcDbSymbolTableRecord
100
AcDbRegAppTableRecord
  2
ACAD_DSTYLE_DIMTEXT_FILL
 70
     0
  0
APPID
  5
2EEB
330
11A1
100
AcDbSymbolTableRecord
100
AcDbRegAppTableRecord
  2
ACAD_PSEXT
 70
     0
  0
APPID
  5
2EEC
330
11A1
100
AcDbSymbolTableRecord
100
AcDbRegAppTableRecord
  2
ACAD_DSTYLE_DIMJAG
 70
     0
  0
APPID
  5
2EED
330
11A1
100
AcDbSymbolTableRecord
100
AcDbRegAppTableRecord
  2
ACAD_DSTYLE_DIMTALN
 70
     0
  0
APPID
  5
2EEE
330
11A1
100
AcDbSymbolTableRecord
100
AcDbRegAppTableRecord
  2
AcLayerTools
 70
     0
  0
APPID
  5
2EEF
330
11A1
100
AcDbSymbolTableRecord
100
AcDbRegAppTableRecord
  2
ACAD_DSTYLE_DIMBREAK
 70
     0
  0
APPID
  5
2EF0
330
11A1
100
AcDbSymbolTableRecord
100
AcDbRegAppTableRecord
  2
ACAD_DSTYLE_DIMRADIAL_EXTENSION
 70
     0
  0
APPID
  5
3261
330
11A1
100
AcDbSymbolTableRecord
100
AcDbRegAppTableRecord
  2
AcAecLayerStandard
 70
     0
  0
ENDTAB
  0
TABLE
  2
DIMSTYLE
  5
11A2
330
0
100
AcDbSymbolTable
 70
     1
100
AcDbDimStyleTable
 71
     1
340
11CE
  0
DIMSTYLE
105
11CE
330
11A2
100
AcDbSymbolTableRecord
100
AcDbDimStyleTableRecord
  2
STANDARD
 70
     0
271
     5
272
     5
273
     5
277
     5
279
     2
340
11A7
  0
ENDTAB
  0
TABLE
  2
BLOCK_RECORD
  5
1199
330
0
100
AcDbSymbolTable
 70
     0
  0
BLOCK_RECORD
  5
11AF
102
{ACAD_XDICTIONARY
360
18B9
102
}
330
1199
100
AcDbSymbolTableRecord
100
AcDbBlockTableRecord
  2
*MODEL_SPACE
340
1853
  0
BLOCK_RECORD
  5
11AC
102
{ACAD_XDICTIONARY
360
18B7
102
}
330
1199
100
AcDbSymbolTableRecord
100
AcDbBlockTableRecord
  2
*PAPER_SPACE
340
1854
  0
ENDTAB
  0
ENDSEC
  0
SECTION
  2
BLOCKS
  0
BLOCK
  5
11E0
330
11AF
100
AcDbEntity
  8
0
100
AcDbBlockBegin
  2
*MODEL_SPACE
 70
     0
 10
0.0
 20
0.0
 30
0.0
  3
*MODEL_SPACE
  1

  0
ENDBLK
  5
11E1
330
11AF
100
AcDbEntity
  8
0
100
AcDbBlockEnd
  0
BLOCK
  5
11DE
330
11AC
100
AcDbEntity
 67
     1
  8
0
100
AcDbBlockBegin
  2
*PAPER_SPACE
 70
     0
 10
0.0
 20
0.0
 30
0.0
  3
*PAPER_SPACE
  1

  0
ENDBLK
  5
11DF
330
11AC
100
AcDbEntity
 67
     1
  8
0
100
AcDbBlockEnd
  0
ENDSEC
  0
SECTION
  2
ENTITIES
  0
CIRCLE
  5
219E
330
11AF
100
AcDbEntity
  8
0
100
AcDbCircle
 10
2.125273576969725
 20
6.9206201783673
 30
0.0
 40
0.0855
  0
CIRCLE
  5
219F
330
11AF
100
AcDbEntity
  8
0
100
AcDbCircle
 10
0.1252735769697253
 20
6.9206201783673
 30
0.0
 40
0.0855
  0
CIRCLE
  5
21A0
330
11AF
100
AcDbEntity
  8
0
100
AcDbCircle
 10
1.125273576969725
 20
6.295620178367187
 30
0.0
 40
0.0855
  0
CIRCLE
  5
21A1
330
11AF
100
AcDbEntity
  8
0
100
AcDbCircle
 10
2.125273576969725
 20
6.0456201783673
 30
0.0
 40
0.0855
  0
CIRCLE
  5
21A2
330
11AF
100
AcDbEntity
  8
0
100
AcDbCircle
 10
3.125273576969725
 20
5.846456673904697
 30
0.0
 40
0.0855
  0
CIRCLE
  5
21A3
330
11AF
100
AcDbEntity
  8
0
100
AcDbCircle
 10
0.1252735769697253
 20
5.596456673904697
 30
0.0
 40
0.0855
  0
CIRCLE
  5
21A4
330
11AF
100
AcDbEntity
  8
0
100
AcDbCircle
 10
1.125273576969725
 20
7.170620178367187
 30
0.0
 40
0.0855
  0
CIRCLE
  5
21A5
330
11AF
100
AcDbEntity
  8
0
100
AcDbCircle
 10
3.125273576969725
 20
7.170620178367187
 30
0.0
 40
0.0855
  0
CIRCLE
  5
21A6
330
11AF
100
AcDbEntity
  8
0
100
AcDbCircle
 10
2.608009070234096
 20
6.553114676096981
 30
0.0
 40
0.0855
  0
CIRCLE
  5
21A7
330
11AF
100
AcDbEntity
  8
0
100
AcDbCircle
 10
0.6425380837053681
 20
6.736867447003305
 30
0.0
 40
0.0855
  0
LINE
  5
21A8
330
11AF
100
AcDbEntity
  8
0
  6
HIDDEN
100
AcDbLine
 10
0.0000000000000053
 20
0.1207636771990792
 30
0.0
 11
0.0
 21
3.310541531510207
 31
0.0
  0
LINE
  5
21A9
330
11AF
100
AcDbEntity
  8
0
  6
HIDDEN
100
AcDbLine
 10
0.8065000000000068
 20
0.0296940715969072
 30
0.0
 11
0.0
 21
0.0296940715969072
 31
0.0
  0
LINE
  5
21AA
330
11AF
100
AcDbEntity
  8
0
100
AcDbLine
 10
0.8130000000000077
 20
-0.0000000000000009
 30
0.0
 11
0.8130000000000094
 21
2.582412661044681
 31
0.0
  0
ARC
  5
21AB
330
11AF
100
AcDbEntity
  8
0
100
AcDbCircle
 10
1.3329711376755
 20
2.593346301890704
 30
0.0
 40
0.5200860779887174
100
AcDbArc
 50
89.50106725090618
 51
181.2046037279038
  0
LINE
  5
21AC
330
11AF
100
AcDbEntity
  8
0
100
AcDbLine
 10
1.337500000000005
 20
3.113412661044687
 30
0.0
 11
1.913047153939437
 21
3.113412661044687
 31
0.0
  0
ARC
  5
21AD
330
11AF
100
AcDbEntity
  8
0
100
AcDbCircle
 10
1.917576016263957
 20
2.593346301890704
 30
0.0
 40
0.5200860779887134
100
AcDbArc
 50
358.7953962720962
 51
90.49893274909416
  0
LINE
  5
21AE
330
11AF
100
AcDbEntity
  8
0
100
AcDbLine
 10
2.437547153939448
 20
2.582412661044681
 30
0.0
 11
2.437547153939448
 21
0.0
 31
0.0
  0
LINE
  5
21AF
330
11AF
100
AcDbEntity
  8
0
100
AcDbLine
 10
3.87542481991759
 20
4.10840128781248
 30
0.0
 11
3.87542481991759
 21
7.295620178367183
 31
0.0
  0
LINE
  5
21B0
330
11AF
100
AcDbEntity
  8
0
100
AcDbLine
 10
3.87542481991759
 20
7.295620178367183
 30
0.0
 11
3.62542481991759
 21
7.529620178367192
 31
0.0
  0
LINE
  5
21B1
330
11AF
100
AcDbEntity
  8
0
100
AcDbLine
 10
3.62542481991759
 20
7.529620178367192
 30
0.0
 11
-0.3748776659781257
 21
7.529620178367192
 31
0.0
  0
LINE
  5
21B2
330
11AF
100
AcDbEntity
  8
0
100
AcDbLine
 10
-0.3748776659781257
 20
7.529620178367192
 30
0.0
 11
-0.6248776659781257
 21
7.295620178367183
 31
0.0
  0
LINE
  5
21B3
330
11AF
100
AcDbEntity
  8
0
100
AcDbLine
 10
-0.6248776659781257
 20
7.295620178367183
 30
0.0
 11
-0.6248776659781257
 21
4.10840128781248
 31
0.0
  0
ARC
  5
21D5
330
11AF
100
AcDbEntity
  8
0
100
AcDbCircle
 10
3.350547153939459
 20
0.1207636771990792
 30
0.0
 40
0.1
100
AcDbArc
 50
142.5154457981105
 51
180.0
  0
ARC
  5
21D6
330
11AF
100
AcDbEntity
  8
0
100
AcDbCircle
 10
3.350545858756376
 20
3.341147619104475
 30
0.0
 40
0.1
100
AcDbArc
 50
141.9322240995733
 51
217.4845542018936
  0
LINE
  5
21D7
330
11AF
100
AcDbEntity
  8
0
100
AcDbLine
 10
3.271817665883819
 20
3.402806938327293
 30
0.0
 11
3.87542481991759
 21
4.10840128781248
 31
0.0
  0
LINE
  5
21D8
330
11AF
100
AcDbEntity
  8
0
100
AcDbLine
 10
0.0
 20
0.0
 30
0.0
 11
0.0
 21
0.1207636771990792
 31
0.0
  0
ARC
  5
21D9
330
11AF
100
AcDbEntity
  8
0
100
AcDbCircle
 10
-0.0999999999999943
 20
0.1207636771990792
 30
0.0
 40
0.1
100
AcDbArc
 50
0.0
 51
37.48455420189156
  0
LINE
  5
21DA
330
11AF
100
AcDbEntity
  8
0
100
AcDbLine
 10
-0.0206482578612679
 20
0.1816184306663047
 30
0.0
 11
-0.0465764230302774
 21
0.2154275410381183
 31
0.0
  0
ARC
  5
21DB
330
11AF
100
AcDbEntity
  8
0
100
AcDbCircle
 10
-0.0999987048169331
 20
3.341147619104475
 30
0.0
 40
0.1
100
AcDbArc
 50
322.5154457981064
 51
38.06777590042539
  0
LINE
  5
21DC
330
11AF
100
AcDbEntity
  8
0
100
AcDbLine
 10
-0.0465764230302774
 20
3.249476981430561
 30
0.0
 11
-0.0206469626781924
 21
3.280292865637388
 31
0.0
  0
LINE
  5
21DD
330
11AF
100
AcDbEntity
  8
0
100
AcDbLine
 10
-0.0212705119443726
 20
3.402806938327291
 30
0.0
 11
-0.6248776659781257
 21
4.10840128781248
 31
0.0
  0
LINE
  5
221D
330
11AF
100
AcDbEntity
  8
0
100
AcDbLine
 10
0.0
 20
0.0
 30
0.0
 11
0.8130000000000094
 21
0.0
 31
0.0
  0
LINE
  5
2220
330
11AF
100
AcDbEntity
  8
0
  6
HIDDEN
100
AcDbLine
 10
2.444047153939436
 20
0.0296940715969072
 30
0.0
 11
3.250547153939443
 21
0.0296940715969072
 31
0.0
  0
LINE
  5
2221
330
11AF
100
AcDbEntity
  8
0
100
AcDbLine
 10
3.250547153939443
 20
0.0
 30
0.0
 11
3.250547153939443
 21
0.1207636771990792
 31
0.0
  0
LINE
  5
2222
330
11AF
100
AcDbEntity
  8
0
100
AcDbLine
 10
3.250547153939443
 20
0.0
 30
0.0
 11
2.437547153939433
 21
0.0
 31
0.0
  0
LINE
  5
2225
330
11AF
100
AcDbEntity
  8
0
  6
HIDDEN
100
AcDbLine
 10
0.3589746271500083
 20
0.2056241816612809
 30
0.0
 11
0.4540253728500013
 21
0.2056241816612809
 31
0.0
  0
LINE
  5
2226
330
11AF
100
AcDbEntity
  8
0
  6
HIDDEN
100
AcDbLine
 10
0.4540253728500048
 20
0.0296940715969072
 30
0.0
 11
0.4540253728500013
 21
0.2056241816612809
 31
0.0
  0
LINE
  5
2227
330
11AF
100
AcDbEntity
  8
0
  6
HIDDEN
100
AcDbLine
 10
0.5853627144602598
 20
0.0296940715969072
 30
0.0
 11
0.4540253728500013
 21
0.2056241816612809
 31
0.0
  0
LINE
  5
2228
330
11AF
100
AcDbEntity
  8
0
  6
HIDDEN
100
AcDbLine
 10
0.3589746271500136
 20
0.0296940715969072
 30
0.0
 11
0.3589746271500083
 21
0.2056241816612809
 31
0.0
  0
LINE
  5
2229
330
11AF
100
AcDbEntity
  8
0
  6
HIDDEN
100
AcDbLine
 10
0.3589746271500083
 20
0.2056241816612809
 30
0.0
 11
0.2276372854459296
 21
0.0296940715969072
 31
0.0
  0
LINE
  5
222A
330
11AF
100
AcDbEntity
  8
0
  6
HIDDEN
100
AcDbLine
 10
0.35897462715001
 20
0.1637639165746094
 30
0.0
 11
0.2970064936472738
 21
0.0730314540839086
 31
0.0
  0
LINE
  5
222B
330
11AF
100
AcDbEntity
  8
0
  6
HIDDEN
100
AcDbLine
 10
0.5135459649818302
 20
0.0826244765382551
 30
0.0
 11
0.4540253728276778
 21
0.1637639165746094
 31
0.0
  0
LINE
  5
222C
330
11AF
100
AcDbEntity
  8
0
  6
HIDDEN
100
AcDbLine
 10
0.3813752200772722
 20
0.1808181698641817
 30
0.0
 11
0.4289005929272687
 21
0.1808181698641817
 31
0.0
  0
LINE
  5
222D
330
11AF
100
AcDbEntity
  8
0
  6
HIDDEN
100
AcDbLine
 10
2.891572526789435
 20
0.2056241816612809
 30
0.0
 11
2.796521781089442
 21
0.2056241816612809
 31
0.0
  0
LINE
  5
222E
330
11AF
100
AcDbEntity
  8
0
  6
HIDDEN
100
AcDbLine
 10
2.796521781089438
 20
0.0296940715969072
 30
0.0
 11
2.796521781089442
 21
0.2056241816612809
 31
0.0
  0
LINE
  5
222F
330
11AF
100
AcDbEntity
  8
0
  6
HIDDEN
100
AcDbLine
 10
2.665184439479183
 20
0.0296940715969072
 30
0.0
 11
2.796521781089442
 21
0.2056241816612809
 31
0.0
  0
LINE
  5
2230
330
11AF
100
AcDbEntity
  8
0
  6
HIDDEN
100
AcDbLine
 10
2.891572526789429
 20
0.0296940715969072
 30
0.0
 11
2.891572526789435
 21
0.2056241816612809
 31
0.0
  0
LINE
  5
2231
330
11AF
100
AcDbEntity
  8
0
  6
HIDDEN
100
AcDbLine
 10
2.891572526789435
 20
0.2056241816612809
 30
0.0
 11
3.022909868493513
 21
0.0296940715969072
 31
0.0
  0
LINE
  5
2232
330
11AF
100
AcDbEntity
  8
0
  6
HIDDEN
100
AcDbLine
 10
2.891572526789433
 20
0.1637639165746094
 30
0.0
 11
2.953540660292169
 21
0.0730314540839086
 31
0.0
  0
LINE
  5
2233
330
11AF
100
AcDbEntity
  8
0
  6
HIDDEN
100
AcDbLine
 10
2.737001188957613
 20
0.0826244765382551
 30
0.0
 11
2.796521781111765
 21
0.1637639165746094
 31
0.0
  0
LINE
  5
2234
330
11AF
100
AcDbEntity
  8
0
  6
HIDDEN
100
AcDbLine
 10
2.869171933862171
 20
0.1808181698641817
 30
0.0
 11
2.821646561012174
 21
0.1808181698641817
 31
0.0
  0
LINE
  5
2235
330
11AF
100
AcDbEntity
  8
0
100
AcDbLine
 10
-0.0465764230302774
 20
0.2154275410381183
 30
0.0
 11
-0.0465764230302774
 21
3.249476981430561
 31
0.0
  0
LINE
  5
2238
330
11AF
100
AcDbEntity
  8
0
  6
HIDDEN
100
AcDbLine
 10
3.250547153939438
 20
0.1207636771990792
 30
0.0
 11
3.250547153939443
 21
3.310541531510207
 31
0.0
  0
LINE
  5
2239
330
11AF
100
AcDbEntity
  8
0
100
AcDbLine
 10
3.271195411800711
 20
0.1816184306663047
 30
0.0
 11
3.29712357696972
 21
0.2154275410381183
 31
0.0
  0
LINE
  5
223A
330
11AF
100
AcDbEntity
  8
0
100
AcDbLine
 10
3.29712357696972
 20
3.218226981430561
 30
0.0
 11
3.27119411661765
 21
3.280292865637312
 31
0.0
  0
LINE
  5
223B
330
11AF
100
AcDbEntity
  8
0
100
AcDbLine
 10
3.29712357696972
 20
0.2154275410381183
 30
0.0
 11
3.29712357696972
 21
3.218226981430561
 31
0.0
  0
MTEXT
  5
29D3
330
11AF
100
AcDbEntity
  8
DIM
100
AcDbMText
 10
3.453705334580106
 20
14.17922672908922
 30
0.0
 40
0.1175
 41
0.0
 71
     9
 72
     1
  1
\A1;
 73
     1
 44
1.0
1001
ACAD
1000
MTEXTBEGIN
1070
    73
1070
     1
1070
    44
1040
1.0
1070
    74
1070
     0
1000
MTEXTEND
  0
MTEXT
  5
2C7F
330
11AF
100
AcDbEntity
  8
DIM
100
AcDbMText
 10
9.072898413761478
 20
11.7034824241634
 30
0.0
 40
0.1175
 41
0.0
 71
     1
 72
     1
  1
\A1;
 73
     1
 44
1.0
1001
ACAD
1000
MTEXTBEGIN
1070
    73
1070
     1
1070
    44
1040
1.0
1070
    74
1070
     0
1000
MTEXTEND
  0
MTEXT
  5
2CCA
330
11AF
100
AcDbEntity
  8
DIM
100
AcDbMText
 10
4.8601287235373
 20
16.23915799348986
 30
0.0
 40
0.1175
 41
0.0
 71
     9
 72
     1
  1
\A1;
 73
     1
 44
1.0
1001
ACAD
1000
MTEXTBEGIN
1070
    73
1070
     1
1070
    44
1040
1.0
1070
    74
1070
     0
1000
MTEXTEND
  0
MTEXT
  5
2DD7
330
11AF
100
AcDbEntity
  8
DIM
100
AcDbMText
 10
7.794627869775823
 20
7.876044896811738
 30
0.0
 40
0.1175
 41
0.5749097769521541
 71
     1
 72
     1
  1
\A1;
 73
     1
 44
1.0
1001
ACAD
1000
MTEXTBEGIN
1070
    73
1070
     1
1070
    44
1040
1.0
1070
    74
1070
     0
1000
MTEXTEND
  0
LINE
  5
2E74
330
11AF
100
AcDbEntity
  8
0
100
AcDbLine
 10
2.625273576969732
 20
4.762059212668699
 30
0.0
 11
2.625273576969732
 21
3.514370178367183
 31
0.0
  0
LINE
  5
2E75
330
11AF
100
AcDbEntity
  8
0
100
AcDbLine
 10
2.875273576969732
 20
4.762059212668699
 30
0.0
 11
2.875273576969732
 21
3.514370178367183
 31
0.0
  0
ARC
  5
2E76
330
11AF
100
AcDbEntity
  8
0
100
AcDbCircle
 10
2.750273576969732
 20
4.762059212668699
 30
0.0
 40
0.125
100
AcDbArc
 50
0.0
 51
180.0
  0
ARC
  5
2E77
330
11AF
100
AcDbEntity
  8
0
100
AcDbCircle
 10
2.750273576969732
 20
3.514370178367183
 30
0.0
 40
0.125
100
AcDbArc
 50
180.0
 51
0.0
  0
LINE
  5
2E79
330
11AF
100
AcDbEntity
  8
0
  6
HIDDEN
100
AcDbLine
 10
2.656523576969732
 20
4.73888610034935
 30
0.0
 11
2.656523576969732
 21
3.532800863278712
 31
0.0
  0
LINE
  5
2E7A
330
11AF
100
AcDbEntity
  8
0
  6
HIDDEN
100
AcDbLine
 10
2.844023576969732
 20
4.73888610034935
 30
0.0
 11
2.844023576969732
 21
3.532800863278712
 31
0.0
  0
ARC
  5
2E7B
330
11AF
100
AcDbEntity
  8
0
  6
HIDDEN
100
AcDbCircle
 10
2.750273576969732
 20
4.73888610034935
 30
0.0
 40
0.09375
100
AcDbArc
 50
0.0
 51
180.0
  0
ARC
  5
2E7C
330
11AF
100
AcDbEntity
  8
0
  6
HIDDEN
100
AcDbCircle
 10
2.750273576969732
 20
3.532800863278712
 30
0.0
 40
0.09375
100
AcDbArc
 50
180.0
 51
0.0
  0
LINE
  5
2E81
330
11AF
100
AcDbEntity
  8
0
100
AcDbLine
 10
1.875273576969732
 20
4.762059212668699
 30
0.0
 11
1.875273576969732
 21
3.514370178367183
 31
0.0
  0
LINE
  5
2E82
330
11AF
100
AcDbEntity
  8
0
100
AcDbLine
 10
2.125273576969732
 20
4.762059212668699
 30
0.0
 11
2.125273576969732
 21
3.514370178367183
 31
0.0
  0
ARC
  5
2E83
330
11AF
100
AcDbEntity
  8
0
100
AcDbCircle
 10
2.000273576969732
 20
4.762059212668699
 30
0.0
 40
0.125
100
AcDbArc
 50
0.0
 51
180.0
  0
ARC
  5
2E84
330
11AF
100
AcDbEntity
  8
0
100
AcDbCircle
 10
2.000273576969732
 20
3.514370178367183
 30
0.0
 40
0.125
100
AcDbArc
 50
180.0
 51
0.0
  0
LINE
  5
2E85
330
11AF
100
AcDbEntity
  8
0
  6
HIDDEN
100
AcDbLine
 10
1.906523576969732
 20
4.73888610034935
 30
0.0
 11
1.906523576969732
 21
3.532800863278712
 31
0.0
  0
LINE
  5
2E86
330
11AF
100
AcDbEntity
  8
0
  6
HIDDEN
100
AcDbLine
 10
2.094023576969732
 20
4.73888610034935
 30
0.0
 11
2.094023576969732
 21
3.532800863278712
 31
0.0
  0
ARC
  5
2E87
330
11AF
100
AcDbEntity
  8
0
  6
HIDDEN
100
AcDbCircle
 10
2.000273576969732
 20
4.73888610034935
 30
0.0
 40
0.09375
100
AcDbArc
 50
0.0
 51
180.0
  0
ARC
  5
2E88
330
11AF
100
AcDbEntity
  8
0
  6
HIDDEN
100
AcDbCircle
 10
2.000273576969732
 20
3.532800863278712
 30
0.0
 40
0.09375
100
AcDbArc
 50
180.0
 51
0.0
  0
LINE
  5
2E89
330
11AF
100
AcDbEntity
  8
0
100
AcDbLine
 10
1.125273576969732
 20
4.762059212668699
 30
0.0
 11
1.125273576969732
 21
3.514370178367183
 31
0.0
  0
LINE
  5
2E8A
330
11AF
100
AcDbEntity
  8
0
100
AcDbLine
 10
1.375273576969732
 20
4.762059212668699
 30
0.0
 11
1.375273576969732
 21
3.514370178367183
 31
0.0
  0
ARC
  5
2E8B
330
11AF
100
AcDbEntity
  8
0
100
AcDbCircle
 10
1.250273576969732
 20
4.762059212668699
 30
0.0
 40
0.125
100
AcDbArc
 50
0.0
 51
180.0
  0
ARC
  5
2E8C
330
11AF
100
AcDbEntity
  8
0
100
AcDbCircle
 10
1.250273576969732
 20
3.514370178367183
 30
0.0
 40
0.125
100
AcDbArc
 50
180.0
 51
0.0
  0
LINE
  5
2E8D
330
11AF
100
AcDbEntity
  8
0
  6
HIDDEN
100
AcDbLine
 10
1.156523576969732
 20
4.73888610034935
 30
0.0
 11
1.156523576969732
 21
3.532800863278712
 31
0.0
  0
LINE
  5
2E8E
330
11AF
100
AcDbEntity
  8
0
  6
HIDDEN
100
AcDbLine
 10
1.344023576969732
 20
4.73888610034935
 30
0.0
 11
1.344023576969732
 21
3.532800863278712
 31
0.0
  0
ARC
  5
2E8F
330
11AF
100
AcDbEntity
  8
0
  6
HIDDEN
100
AcDbCircle
 10
1.250273576969732
 20
4.73888610034935
 30
0.0
 40
0.09375
100
AcDbArc
 50
0.0
 51
180.0
  0
ARC
  5
2E90
330
11AF
100
AcDbEntity
  8
0
  6
HIDDEN
100
AcDbCircle
 10
1.250273576969732
 20
3.532800863278712
 30
0.0
 40
0.09375
100
AcDbArc
 50
180.0
 51
0.0
  0
LINE
  5
2E91
330
11AF
100
AcDbEntity
  8
0
100
AcDbLine
 10
0.3752735769697324
 20
4.762059212668699
 30
0.0
 11
0.3752735769697324
 21
3.514370178367183
 31
0.0
  0
LINE
  5
2E92
330
11AF
100
AcDbEntity
  8
0
100
AcDbLine
 10
0.6252735769697324
 20
4.762059212668699
 30
0.0
 11
0.6252735769697324
 21
3.514370178367183
 31
0.0
  0
ARC
  5
2E93
330
11AF
100
AcDbEntity
  8
0
100
AcDbCircle
 10
0.5002735769697324
 20
4.762059212668699
 30
0.0
 40
0.125
100
AcDbArc
 50
0.0
 51
180.0
  0
ARC
  5
2E94
330
11AF
100
AcDbEntity
  8
0
100
AcDbCircle
 10
0.5002735769697324
 20
3.514370178367183
 30
0.0
 40
0.125
100
AcDbArc
 50
180.0
 51
0.0
  0
LINE
  5
2E95
330
11AF
100
AcDbEntity
  8
0
  6
HIDDEN
100
AcDbLine
 10
0.4065235769697324
 20
4.73888610034935
 30
0.0
 11
0.4065235769697324
 21
3.532800863278712
 31
0.0
  0
LINE
  5
2E96
330
11AF
100
AcDbEntity
  8
0
  6
HIDDEN
100
AcDbLine
 10
0.5940235769697324
 20
4.73888610034935
 30
0.0
 11
0.5940235769697324
 21
3.532800863278712
 31
0.0
  0
ARC
  5
2E97
330
11AF
100
AcDbEntity
  8
0
  6
HIDDEN
100
AcDbCircle
 10
0.5002735769697324
 20
4.73888610034935
 30
0.0
 40
0.09375
100
AcDbArc
 50
0.0
 51
180.0
  0
ARC
  5
2E98
330
11AF
100
AcDbEntity
  8
0
  6
HIDDEN
100
AcDbCircle
 10
0.5002735769697324
 20
3.532800863278712
 30
0.0
 40
0.09375
100
AcDbArc
 50
180.0
 51
0.0
  0
MTEXT
  5
2EB5
330
11AF
100
AcDbEntity
  8
NOTE
100
AcDbMText
 10
6.112670296082598
 20
15.39048038692187
 30
0.0
 40
0.1175
 41
0.4933325382161513
 71
     9
 72
     1
  1
\A1;
 73
     1
 44
1.0
1001
ACAD
1000
MTEXTBEGIN
1070
    73
1070
     1
1070
    44
1040
1.0
1070
    74
1070
     0
1000
MTEXTEND
  0
ENDSEC
  0
SECTION
  2
OBJECTS
  0
DICTIONARY
  5
11A4
330
0
100
AcDbDictionary
281
     1
  3
ACAD_COLOR
350
1EE0
  3
ACAD_GROUP
350
11A5
  3
ACAD_LAYOUT
350
1851
  3
ACAD_MATERIAL
350
1EDF
  3
ACAD_MLINESTYLE
350
11B2
  3
ACAD_PLOTSETTINGS
350
1852
  3
ACAD_PLOTSTYLENAME
350
184F
  3
ACAD_TABLESTYLE
350
1EE1
  3
AcadDim
350
2CC8
  3
ACDBHEADERROUNDTRIPXREC
350
3747
  3
ACDBVARIABLEDICTIONARY
350
11E2
  3
ASE_INDEX_DICTIONARY
350
1ED9
  0
DICTIONARY
  5
20C1
330
119A
100
AcDbDictionary
280
     1
281
     1
  3
ACAD_LAYERFILTERS
360
36CB
  3
ACAD_LAYERSTATES
360
20C2
  3
ACLYDICTIONARY
360
36CA
  0
DICTIONARY
  5
18B9
330
11AF
100
AcDbDictionary
280
     1
281
     1
  3
ACAD_LAYOUTSELFREF
360
1E87
  3
ACAD_SORTENTS
360
2923
  0
DICTIONARY
  5
18B7
330
11AC
100
AcDbDictionary
280
     1
281
     1
  3
ACAD_LAYOUTSELFREF
360
1E86
  0
DICTIONARY
  5
1EE0
102
{ACAD_REACTORS
330
11A4
102
}
330
11A4
100
AcDbDictionary
281
     1
  0
DICTIONARY
  5
11A5
102
{ACAD_REACTORS
330
11A4
102
}
330
11A4
100
AcDbDictionary
281
     1
  0
DICTIONARY
  5
1851
102
{ACAD_REACTORS
330
11A4
102
}
330
11A4
100
AcDbDictionary
281
     1
  3
Layout1
350
1854
  3
Model
350
1853
  0
DICTIONARY
  5
1EDF
102
{ACAD_REACTORS
330
11A4
102
}
330
11A4
100
AcDbDictionary
281
     1
  0
DICTIONARY
  5
11B2
102
{ACAD_REACTORS
330
11A4
102
}
330
11A4
100
AcDbDictionary
281
     1
  3
STANDARD
350
11B3
  0
DICTIONARY
  5
1852
102
{ACAD_REACTORS
330
11A4
102
}
330
11A4
100
AcDbDictionary
281
     1
  0
ACDBDICTIONARYWDFLT
  5
184F
102
{ACAD_REACTORS
330
11A4
102
}
330
11A4
100
AcDbDictionary
281
     1
  3
Normal
350
1850
100
AcDbDictionaryWithDefault
340
1850
  0
DICTIONARY
  5
1EE1
102
{ACAD_REACTORS
330
11A4
102
}
330
11A4
100
AcDbDictionary
281
     1
  3
Standard
350
1EE2
  0
XRECORD
  5
2CC8
102
{ACAD_REACTORS
330
11A4
102
}
330
11A4
100
AcDbXrecord
280
     1
 90
   990106
  3

 60
     0
 61
     0
 62
     1
 63
     3
 64
     0
 65
     0
 66
     0
 67
     3
 68
     1
 69
     0
 70
     0
 71
     0
 72
     0
 40
1.399021519598449
170
     0
340
0
  0
DICTIONARY
  5
3747
102
{ACAD_REACTORS
330
11A4
102
}
330
11A4
100
AcDbDictionary
281
     1
  0
DICTIONARY
  5
11E2
102
{ACAD_REACTORS
330
11A4
102
}
330
11A4
100
AcDbDictionary
281
     1
  3
CTABLESTYLE
350
26EE
  3
DIMADEC
350
11E3
  3
DIMASSOC
350
2BA7
  3
PROJECTNAME
350
2BA8
  0
DICTIONARY
  5
1ED9
102
{ACAD_REACTORS
330
11A4
102
}
330
11A4
100
AcDbDictionary
281
     1
  3
ASEBlockHierarchyIndexRecord
350
1EDB
1001
DCO15
1040
1571128736.351
  0
DICTIONARY
  5
36CB
102
{ACAD_REACTORS
330
20C1
102
}
330
20C1
100
AcDbDictionary
281
     1
  0
DICTIONARY
  5
20C2
102
{ACAD_REACTORS
330
20C1
102
}
330
20C1
100
AcDbDictionary
281
     1
  0
DICTIONARY
  5
36CA
102
{ACAD_REACTORS
330
20C1
102
}
330
20C1
100
AcDbDictionary
281
     1
1001
ACAD
1000
<All
  0
XRECORD
  5
1E87
102
{ACAD_REACTORS
330
18B9
102
}
330
18B9
100
AcDbXrecord
280
     1
340
11AF
  0
SORTENTSTABLE
  5
2923
102
{ACAD_REACTORS
330
18B9
102
}
330
18B9
100
AcDbSortentsTable
330
11AF
331
21A7
  5
21A7
331
2E94
  5
2E96
331
21AF
  5
21AF
331
2EB5
  5
2F2B
331
21D8
  5
21DA
331
2E76
  5
2E79
331
2220
  5
2222
331
2E86
  5
2E88
331
2229
  5
222B
331
2E8F
  5
2E91
331
21A2
  5
21A2
331
2231
  5
2233
331
2239
  5
223B
331
2E97
  5
2EA4
331
21AA
  5
21AA
331
21B2
  5
21B2
331
21DB
  5
21DD
331
2E79
  5
2E7B
331
2E81
  5
2E83
331
222C
  5
222E
331
2E8A
  5
2E8C
331
21A5
  5
21A5
331
2234
  5
2238
331
2E92
  5
2E94
331
21AD
  5
21AD
331
21D6
  5
21D8
331
2E74
  5
2E76
331
2E7C
  5
2E82
331
2226
  5
2228
331
2E84
  5
2E86
331
21A0
  5
21A0
331
222F
  5
2231
331
2E8D
  5
2E8F
331
2E95
  5
2E97
331
21A8
  5
21A8
331
21B0
  5
21B0
331
2DD7
  5
2E44
331
21D9
  5
21DB
331
2E77
  5
2E7A
331
2221
  5
2225
331
2E87
  5
2E89
331
222A
  5
222C
331
2E88
  5
2E8A
331
2232
  5
2234
331
21A3
  5
21A3
331
2E90
  5
2E92
331
223A
  5
2249
331
2E98
  5
2EA6
331
21AB
  5
21AB
331
21B3
  5
21B3
331
21DC
  5
21DE
331
2E7A
  5
2E7C
331
29D3
  5
29F3
331
2E82
  5
2E84
331
219E
  5
219E
331
222D
  5
222F
331
2E8B
  5
2E8D
331
21A6
  5
21A6
331
2235
  5
2239
331
2E93
  5
2E95
331
21AE
  5
21AE
331
21D7
  5
21D9
331
2E75
  5
2E77
331
2227
  5
2229
331
2E85
  5
2E87
331
2228
  5
222A
331
2E8E
  5
2E90
331
21A1
  5
21A1
331
2230
  5
2232
331
2238
  5
223A
331
2E96
  5
2E98
331
21A9
  5
21A9
331
21B1
  5
21B1
331
2C7F
  5
2C83
331
21DA
  5
21DC
331
2222
  5
2226
331
222B
  5
222D
331
2E89
  5
2E8B
331
21A4
  5
21A4
331
2233
  5
2235
331
2E91
  5
2E93
331
223B
  5
224A
331
21AC
  5
21AC
331
2CCA
  5
2DD7
331
21D5
  5
21D7
331
21DD
  5
21DF
331
221D
  5
2221
331
2E7B
  5
2E81
331
2225
  5
2227
331
2E83
  5
2E85
331
219F
  5
219F
331
222E
  5
2230
331
2E8C
  5
2E8E
  0
XRECORD
  5
1E86
102
{ACAD_REACTORS
330
18B7
102
}
330
18B7
100
AcDbXrecord
280
     1
340
11AC
  0
LAYOUT
  5
1854
102
{ACAD_XDICTIONARY
360
374A
102
}
102
{ACAD_REACTORS
330
1851
102
}
330
1851
100
AcDbPlotSettings
  1

  2
C:\ACAD2000\plotters\DWF Classic.pc3
  4

  6

 40
0.0
 41
0.0
 42
0.0
 43
0.0
 44
0.0
 45
0.0
 46
0.0
 47
0.0
 48
0.0
 49
0.0
140
0.0
141
0.0
142
1.0
143
1.0
 70
   688
 72
     0
 73
     0
 74
     5
  7
monochrome.ctb
 75
    16
147
1.0
148
0.0
149
0.0
100
AcDbLayout
  1
Layout1
 70
     0
 71
     1
 10
0.0
 20
0.0
 11
12.0
 21
9.0
 12
0.0
 22
0.0
 32
0.0
 14
1.000000000000000E+20
 24
1.000000000000000E+20
 34
1.000000000000000E+20
 15
-1.000000000000000E+20
 25
-1.000000000000000E+20
 35
-1.000000000000000E+20
146
0.0
 13
0.0
 23
0.0
 33
0.0
 16
1.0
 26
0.0
 36
0.0
 17
0.0
 27
1.0
 37
0.0
 76
     0
330
11AC
  0
LAYOUT
  5
1853
102
{ACAD_XDICTIONARY
360
3748
102
}
102
{ACAD_REACTORS
330
1851
102
}
330
1851
100
AcDbPlotSettings
  1

  2
HP LaserJet 2100 Series PCL 6
  4
Letter
  6
1
 40
4.233333110809326
 41
4.233341693878173
 42
8.466659545898437
 43
4.23333740234375
 44
215.8999938964844
 45
279.3999938964844
 46
0.0
 47
2.11665658652781
 48
0.2933117219906762
 49
-0.1231745448445807
140
16.3050898606532
141
21.22630980632028
142
1.0
143
1.999999987797474
 70
 11956
 72
     0
 73
     0
 74
     2
  7
monochrome.ctb
 75
     0
147
0.5000000030506314
148
0.0
149
0.0
100
AcDbLayout
  1
Model
 70
     1
 71
     0
 10
0.0
 20
0.0
 11
12.0
 21
9.0
 12
0.0
 22
0.0
 32
0.0
 14
0.0
 24
0.0
 34
0.0
 15
0.0
 25
0.0
 35
0.0
146
0.0
 13
0.0
 23
0.0
 33
0.0
 16
1.0
 26
0.0
 36
0.0
 17
0.0
 27
1.0
 37
0.0
 76
     0
330
11AF
1001
ACAD_PSEXT
1000
HP LaserJet 2100 Series PCL 6
1000
HP LaserJet 2100 Series PCL 6
1000
LPT1:
1000

1070
     0
  0
MLINESTYLE
  5
11B3
102
{ACAD_REACTORS
330
11B2
102
}
330
11B2
100
AcDbMlineStyle
  2
STANDARD
 70
     0
  3

 62
   256
 51
90.0
 52
90.0
 71
     2
 49
0.5
 62
   256
  6
BYLAYER
 49
-0.5
 62
   256
  6
BYLAYER
  0
ACDBPLACEHOLDER
  5
1850
102
{ACAD_REACTORS
330
184F
102
}
330
184F
  0
TABLESTYLE
  5
1EE2
102
{ACAD_REACTORS
330
1EE1
102
}
330
1EE1
100
AcDbTableStyle
  3
Standard
 70
     0
 71
     0
 40
0.06
 41
0.06
280
     0
281
     0
  7
STANDARD
140
0.18
170
     2
 62
     0
 63
     7
283
     0
274
    -2
284
     1
 64
     0
275
    -2
285
     1
 65
     0
276
    -2
286
     1
 66
     0
277
    -2
287
     1
 67
     0
278
    -2
288
     1
 68
     0
279
    -2
289
     1
 69
     0
  7
STANDARD
140
0.25
170
     5
 62
     0
 63
     7
283
     0
274
    -2
284
     1
 64
     0
275
    -2
285
     1
 65
     0
276
    -2
286
     1
 66
     0
277
    -2
287
     1
 67
     0
278
    -2
288
     1
 68
     0
279
    -2
289
     1
 69
     0
  7
STANDARD
140
0.18
170
     5
 62
     0
 63
     7
283
     0
274
    -2
284
     1
 64
     0
275
    -2
285
     1
 65
     0
276
    -2
286
     1
 66
     0
277
    -2
287
     1
 67
     0
278
    -2
288
     1
 68
     0
279
    -2
289
     1
 69
     0
  0
DICTIONARYVAR
  5
26EE
102
{ACAD_REACTORS
330
11E2
102
}
330
11E2
100
DictionaryVariables
280
     0
  1
STANDARD
  0
DICTIONARYVAR
  5
11E3
102
{ACAD_REACTORS
330
11E2
102
}
330
11E2
100
DictionaryVariables
280
     0
  1
0
  0
DICTIONARYVAR
  5
2BA7
102
{ACAD_REACTORS
330
11E2
102
}
330
11E2
100
DictionaryVariables
280
     0
  1
2
  0
DICTIONARYVAR
  5
2BA8
102
{ACAD_REACTORS
330
11E2
102
}
330
11E2
100
DictionaryVariables
280
     0
  1

  0
XRECORD
  5
1EDB
102
{ACAD_REACTORS
330
1ED9
102
}
330
1ED9
100
AcDbXrecord
280
     1
330
0
330
0
330
0
330
0
330
0
330
0
  0
DICTIONARY
  5
374A
330
1854
100
AcDbDictionary
280
     1
281
     1
  3
ACAD_XREC_ROUNDTRIP
360
374B
  0
DICTIONARY
  5
3748
330
1853
100
AcDbDictionary
280
     1
281
     1
  3
ACAD_XREC_ROUNDTRIP
360
3749
  0
XRECORD
  5
374B
102
{ACAD_REACTORS
330
374A
102
}
330
374A
100
AcDbXrecord
280
     1
102
SHADEPLOT
 70
     0
102
SHADEPLOTRESLEVEL
 70
     2
102
SHADEPLOTCUSTOMDPI
 70
   300
  0
XRECORD
  5
3749
102
{ACAD_REACTORS
330
3748
102
}
330
3748
100
AcDbXrecord
280
     1
102
SHADEPLOT
 70
     0
102
SHADEPLOTRESLEVEL
 70
     2
102
SHADEPLOTCUSTOMDPI
 70
   300
  0
ENDSEC
  0
EOF
