  0
SECTION
  2
HEADER
  9
$ACADVER
  1
AC1015
  9
$ACADMAINTVER
 70
    20
  9
$DWGCODEPAGE
  3
ANSI_1252
  9
$INSBASE
 10
0.0
 20
0.0
 30
0.0
  9
$EXTMIN
 10
0.0
 20
-0.023817279836451
 30
0.0
  9
$EXTMAX
 10
4.500453728843584
 20
0.6684991436670061
 30
0.0
  9
$LIMMIN
 10
0.0
 20
0.0
  9
$LIMMAX
 10
16.0
 20
21.0
  9
$ORTHOMODE
 70
     1
  9
$REGENMODE
 70
     1
  9
$FILLMODE
 70
     1
  9
$QTEXTMODE
 70
     0
  9
$MIRRTEXT
 70
     0
  9
$LTSCALE
 40
1.0
  9
$ATTMODE
 70
     1
  9
$TEXTSIZE
 40
0.18
  9
$TRACEWID
 40
0.05
  9
$TEXTSTYLE
  7
STANDARD
  9
$CLAYER
  8
0
  9
$CELTYPE
  6
BYLAYER
  9
$CECOLOR
 62
   256
  9
$CELTSCALE
 40
1.0
  9
$DISPSILH
 70
     0
  9
$DIMSCALE
 40
2.0
  9
$DIMASZ
 40
0.09375
  9
$DIMEXO
 40
0.03075
  9
$DIMDLI
 40
0.03125
  9
$DIMRND
 40
0.0
  9
$DIMDLE
 40
0.0
  9
$DIMEXE
 40
0.08
  9
$DIMTP
 40
0.0
  9
$DIMTM
 40
0.0
  9
$DIMTXT
 40
0.05875
  9
$DIMCEN
 40
0.02875
  9
$DIMTSZ
 40
0.0
  9
$DIMTOL
 70
     0
  9
$DIMLIM
 70
     0
  9
$DIMTIH
 70
     1
  9
$DIMTOH
 70
     1
  9
$DIMSE1
 70
     0
  9
$DIMSE2
 70
     0
  9
$DIMTAD
 70
     0
  9
$DIMZIN
 70
     0
  9
$DIMBLK
  1

  9
$DIMASO
 70
     0
  9
$DIMSHO
 70
     0
  9
$DIMPOST
  1

  9
$DIMAPOST
  1

  9
$DIMALT
 70
     0
  9
$DIMALTD
 70
     2
  9
$DIMALTF
 40
25.4
  9
$DIMLFAC
 40
1.0
  9
$DIMTOFL
 70
     0
  9
$DIMTVP
 40
0.0
  9
$DIMTIX
 70
     0
  9
$DIMSOXD
 70
     0
  9
$DIMSAH
 70
     0
  9
$DIMBLK1
  1

  9
$DIMBLK2
  1

  9
$DIMSTYLE
  2
STANDARD
  9
$DIMCLRD
 70
     0
  9
$DIMCLRE
 70
     0
  9
$DIMCLRT
 70
     0
  9
$DIMTFAC
 40
1.0
  9
$DIMGAP
 40
0.0625
  9
$DIMJUST
 70
     0
  9
$DIMSD1
 70
     0
  9
$DIMSD2
 70
     0
  9
$DIMTOLJ
 70
     1
  9
$DIMTZIN
 70
     0
  9
$DIMALTZ
 70
     0
  9
$DIMALTTZ
 70
     0
  9
$DIMUPT
 70
     0
  9
$DIMDEC
 70
     5
  9
$DIMTDEC
 70
     5
  9
$DIMALTU
 70
     5
  9
$DIMALTTD
 70
     2
  9
$DIMTXSTY
  7
STANDARD
  9
$DIMAUNIT
 70
     0
  9
$DIMADEC
 70
     0
  9
$DIMALTRND
 40
0.0
  9
$DIMAZIN
 70
     0
  9
$DIMDSEP
 70
    46
  9
$DIMATFIT
 70
     3
  9
$DIMFRAC
 70
     2
  9
$DIMLDRBLK
  1

  9
$DIMLUNIT
 70
     5
  9
$DIMLWD
 70
    -2
  9
$DIMLWE
 70
    -2
  9
$DIMTMOVE
 70
     2
  9
$LUNITS
 70
     5
  9
$LUPREC
 70
     5
  9
$SKETCHINC
 40
0.1
  9
$FILLETRAD
 40
0.0625
  9
$AUNITS
 70
     0
  9
$AUPREC
 70
     0
  9
$MENU
  1
QA
  9
$ELEVATION
 40
0.0
  9
$PELEVATION
 40
0.0
  9
$THICKNESS
 40
0.0
  9
$LIMCHECK
 70
     0
  9
$CHAMFERA
 40
0.25
  9
$CHAMFERB
 40
0.25
  9
$CHAMFERC
 40
0.0
  9
$CHAMFERD
 40
0.0
  9
$SKPOLY
 70
     0
  9
$TDCREATE
 40
2450969.588270602
  9
$TDUCREATE
 40
2450969.879937269
  9
$TDUPDATE
 40
2455448.424380081
  9
$TDUUPDATE
 40
2455448.716046748
  9
$TDINDWG
 40
1.4883024884
  9
$TDUSRTIMER
 40
1.4883024884
  9
$USRTIMER
 70
     1
  9
$ANGBASE
 50
0.0
  9
$ANGDIR
 70
     0
  9
$PDMODE
 70
     0
  9
$PDSIZE
 40
0.0
  9
$PLINEWID
 40
0.0
  9
$SPLFRAME
 70
     0
  9
$SPLINETYPE
 70
     6
  9
$SPLINESEGS
 70
     8
  9
$HANDSEED
  5
3742
  9
$SURFTAB1
 70
     6
  9
$SURFTAB2
 70
     6
  9
$SURFTYPE
 70
     6
  9
$SURFU
 70
     6
  9
$SURFV
 70
     6
  9
$UCSBASE
  2

  9
$UCSNAME
  2

  9
$UCSORG
 10
0.0
 20
0.0
 30
0.0
  9
$UCSXDIR
 10
1.0
 20
0.0
 30
0.0
  9
$UCSYDIR
 10
0.0
 20
1.0
 30
0.0
  9
$UCSORTHOREF
  2

  9
$UCSORTHOVIEW
 70
     0
  9
$UCSORGTOP
 10
0.0
 20
0.0
 30
0.0
  9
$UCSORGBOTTOM
 10
0.0
 20
0.0
 30
0.0
  9
$UCSORGLEFT
 10
0.0
 20
0.0
 30
0.0
  9
$UCSORGRIGHT
 10
0.0
 20
0.0
 30
0.0
  9
$UCSORGFRONT
 10
0.0
 20
0.0
 30
0.0
  9
$UCSORGBACK
 10
0.0
 20
0.0
 30
0.0
  9
$PUCSBASE
  2

  9
$PUCSNAME
  2

  9
$PUCSORG
 10
0.0
 20
0.0
 30
0.0
  9
$PUCSXDIR
 10
1.0
 20
0.0
 30
0.0
  9
$PUCSYDIR
 10
0.0
 20
1.0
 30
0.0
  9
$PUCSORTHOREF
  2

  9
$PUCSORTHOVIEW
 70
     0
  9
$PUCSORGTOP
 10
0.0
 20
0.0
 30
0.0
  9
$PUCSORGBOTTOM
 10
0.0
 20
0.0
 30
0.0
  9
$PUCSORGLEFT
 10
0.0
 20
0.0
 30
0.0
  9
$PUCSORGRIGHT
 10
0.0
 20
0.0
 30
0.0
  9
$PUCSORGFRONT
 10
0.0
 20
0.0
 30
0.0
  9
$PUCSORGBACK
 10
0.0
 20
0.0
 30
0.0
  9
$USERI1
 70
     0
  9
$USERI2
 70
     0
  9
$USERI3
 70
     0
  9
$USERI4
 70
     0
  9
$USERI5
 70
     0
  9
$USERR1
 40
0.0
  9
$USERR2
 40
0.0
  9
$USERR3
 40
0.0
  9
$USERR4
 40
0.0
  9
$USERR5
 40
0.0
  9
$WORLDVIEW
 70
     1
  9
$SHADEDGE
 70
     3
  9
$SHADEDIF
 70
    70
  9
$TILEMODE
 70
     1
  9
$MAXACTVP
 70
    16
  9
$PINSBASE
 10
0.0
 20
0.0
 30
0.0
  9
$PLIMCHECK
 70
     0
  9
$PEXTMIN
 10
1.000000000000000E+20
 20
1.000000000000000E+20
 30
1.000000000000000E+20
  9
$PEXTMAX
 10
-1.000000000000000E+20
 20
-1.000000000000000E+20
 30
-1.000000000000000E+20
  9
$PLIMMIN
 10
0.0
 20
0.0
  9
$PLIMMAX
 10
12.0
 20
9.0
  9
$UNITMODE
 70
     0
  9
$VISRETAIN
 70
     0
  9
$PLINEGEN
 70
     1
  9
$PSLTSCALE
 70
     0
  9
$TREEDEPTH
 70
  3020
  9
$CMLSTYLE
  2
STANDARD
  9
$CMLJUST
 70
     0
  9
$CMLSCALE
 40
1.0
  9
$PROXYGRAPHICS
 70
     1
  9
$MEASUREMENT
 70
     0
  9
$CELWEIGHT
370
    -1
  9
$ENDCAPS
280
     0
  9
$JOINSTYLE
280
     0
  9
$LWDISPLAY
290
     0
  9
$INSUNITS
 70
     0
  9
$HYPERLINKBASE
  1

  9
$STYLESHEET
  1
monochrome.ctb
  9
$XEDIT
290
     1
  9
$CEPSNTYPE
380
     0
  9
$PSTYLEMODE
290
     1
  9
$FINGERPRINTGUID
  2
{B9AD525F-3553-48FB-AD56-047284DCC912}
  9
$VERSIONGUID
  2
{A697323F-B39D-4D3D-85AC-3CAED103446D}
  9
$EXTNAMES
290
     1
  9
$PSVPSCALE
 40
0.0
  9
$OLESTARTUP
290
     0
  0
ENDSEC
  0
SECTION
  2
CLASSES
  0
CLASS
  1
DICTIONARYVAR
  2
AcDbDictionaryVar
  3
ObjectDBX Classes
 90
        0
280
     0
281
     0
  0
CLASS
  1
ACDBDICTIONARYWDFLT
  2
AcDbDictionaryWithDefault
  3
ObjectDBX Classes
 90
        0
280
     0
281
     0
  0
CLASS
  1
ACDBPLACEHOLDER
  2
AcDbPlaceHolder
  3
ObjectDBX Classes
 90
        0
280
     0
281
     0
  0
CLASS
  1
LAYOUT
  2
AcDbLayout
  3
ObjectDBX Classes
 90
        0
280
     0
281
     0
  0
CLASS
  1
TABLESTYLE
  2
AcDbTableStyle
  3
ObjectDBX Classes
 90
     2047
280
     0
281
     0
  0
CLASS
  1
SORTENTSTABLE
  2
AcDbSortentsTable
  3
ObjectDBX Classes
 90
        0
280
     0
281
     0
  0
CLASS
  1
DIMASSOC
  2
AcDbDimAssoc
  3
"AcDbDimAssoc|Product Desc:     AcDim ARX App For Dimension|Company:          Autodesk, Inc.|WEB Address:      www.autodesk.com"
 90
    32768
280
     0
281
     0
  0
ENDSEC
  0
SECTION
  2
TABLES
  0
TABLE
  2
VPORT
  5
11A0
330
0
100
AcDbSymbolTable
 70
     2
  0
VPORT
  5
373C
330
11A0
100
AcDbSymbolTableRecord
100
AcDbViewportTableRecord
  2
*Active
 70
     0
 10
0.0
 20
0.0
 11
1.0
 21
1.0
 12
7.643700042969296
 22
6.17440867821616
 13
0.0
 23
0.0
 14
0.0625
 24
0.0625
 15
0.25
 25
0.25
 16
0.0
 26
0.0
 36
1.0
 17
0.0
 27
0.0
 37
0.0
 40
14.95878576966075
 41
1.684322033898305
 42
50.0
 43
0.0
 44
0.0
 50
0.0
 51
0.0
 71
     0
 72
   100
 73
     1
 74
     0
 75
     0
 76
     0
 77
     0
 78
     0
281
     0
 65
     1
110
0.0
120
0.0
130
0.0
111
1.0
121
0.0
131
0.0
112
0.0
122
1.0
132
0.0
 79
     0
146
0.0
  0
ENDTAB
  0
TABLE
  2
LTYPE
  5
119D
330
0
100
AcDbSymbolTable
 70
     3
  0
LTYPE
  5
11A9
330
119D
100
AcDbSymbolTableRecord
100
AcDbLinetypeTableRecord
  2
BYBLOCK
 70
     0
  3

 72
    65
 73
     0
 40
0.0
  0
LTYPE
  5
11AA
330
119D
100
AcDbSymbolTableRecord
100
AcDbLinetypeTableRecord
  2
BYLAYER
 70
     0
  3

 72
    65
 73
     0
 40
0.0
  0
LTYPE
  5
11AB
330
119D
100
AcDbSymbolTableRecord
100
AcDbLinetypeTableRecord
  2
CONTINUOUS
 70
     0
  3
Solid line
 72
    65
 73
     0
 40
0.0
  0
LTYPE
  5
1A82
330
119D
100
AcDbSymbolTableRecord
100
AcDbLinetypeTableRecord
  2
HIDDEN2
 70
     0
  3
Hidden (.5x) _ _ _ _ _ _ _ _ _ _ _ _ _ _ _ _ _
 72
    65
 73
     2
 40
0.1875
 49
0.125
 74
     0
 49
-0.0625
 74
     0
  0
LTYPE
  5
1E92
330
119D
100
AcDbSymbolTableRecord
100
AcDbLinetypeTableRecord
  2
HIDDEN
 70
     0
  3
_ _ _ _ _ _ _ _ _ _ _ _ _ _ _ _ _ _ _ _ _ _ _
 72
    65
 73
     2
 40
0.375
 49
0.25
 74
     0
 49
-0.125
 74
     0
  0
ENDTAB
  0
TABLE
  2
LAYER
  5
119A
102
{ACAD_XDICTIONARY
360
20C1
102
}
330
0
100
AcDbSymbolTable
 70
     4
  0
LAYER
  5
11A6
330
119A
100
AcDbSymbolTableRecord
100
AcDbLayerTableRecord
  2
0
 70
     0
 62
     7
  6
CONTINUOUS
370
    -3
390
1850
  0
LAYER
  5
11CF
330
119A
100
AcDbSymbolTableRecord
100
AcDbLayerTableRecord
  2
NOTE
 70
     0
 62
     1
  6
CONTINUOUS
370
    -3
390
1850
  0
LAYER
  5
11D4
330
119A
100
AcDbSymbolTableRecord
100
AcDbLayerTableRecord
  2
DIM
 70
     0
 62
     5
  6
CONTINUOUS
370
    -3
390
1850
  0
LAYER
  5
20BE
330
119A
100
AcDbSymbolTableRecord
100
AcDbLayerTableRecord
  2
DEFPOINTS
 70
     0
 62
     7
  6
CONTINUOUS
290
     0
370
    -3
390
1850
  0
ENDTAB
  0
TABLE
  2
STYLE
  5
119B
330
0
100
AcDbSymbolTable
 70
     1
  0
STYLE
  5
11A7
330
119B
100
AcDbSymbolTableRecord
100
AcDbTextStyleTableRecord
  2
STANDARD
 70
     0
 40
0.0
 41
1.0
 50
0.0
 71
     0
 42
0.18
  3
TXT
  4

  0
ENDTAB
  0
TABLE
  2
VIEW
  5
119E
330
0
100
AcDbSymbolTable
 70
     1
  0
VIEW
  5
11CB
330
119E
100
AcDbSymbolTableRecord
100
AcDbViewTableRecord
  2
1
 70
     0
 40
8.149475694399708
 10
6.869897054360147
 20
9.830771043222521
 41
0.0
 11
0.0
 21
0.0
 31
1.0
 12
0.0
 22
0.0
 32
0.0
 42
0.0
 43
0.0
 44
0.0
 50
0.0
 71
     0
281
     0
 72
     0
  0
ENDTAB
  0
TABLE
  2
UCS
  5
119F
330
0
100
AcDbSymbolTable
 70
     0
  0
ENDTAB
  0
TABLE
  2
APPID
  5
11A1
330
0
100
AcDbSymbolTable
 70
    12
  0
APPID
  5
11A8
330
11A1
100
AcDbSymbolTableRecord
100
AcDbRegAppTableRecord
  2
ACAD
 70
     0
  0
APPID
  5
14D5
330
11A1
100
AcDbSymbolTableRecord
100
AcDbRegAppTableRecord
  2
RAK
 70
     0
  0
APPID
  5
14D6
330
11A1
100
AcDbSymbolTableRecord
100
AcDbRegAppTableRecord
  2
AME_SOL
 70
     0
  0
APPID
  5
1EDA
330
11A1
100
AcDbSymbolTableRecord
100
AcDbRegAppTableRecord
  2
DCO15
 70
     0
  0
APPID
  5
23CB
330
11A1
100
AcDbSymbolTableRecord
100
AcDbRegAppTableRecord
  2
ACAD_DSTYLE_DIMTEXT_FILL
 70
     0
  0
APPID
  5
2EEB
330
11A1
100
AcDbSymbolTableRecord
100
AcDbRegAppTableRecord
  2
ACAD_PSEXT
 70
     0
  0
APPID
  5
2EEC
330
11A1
100
AcDbSymbolTableRecord
100
AcDbRegAppTableRecord
  2
ACAD_DSTYLE_DIMJAG
 70
     0
  0
APPID
  5
2EED
330
11A1
100
AcDbSymbolTableRecord
100
AcDbRegAppTableRecord
  2
ACAD_DSTYLE_DIMTALN
 70
     0
  0
APPID
  5
2EEE
330
11A1
100
AcDbSymbolTableRecord
100
AcDbRegAppTableRecord
  2
AcLayerTools
 70
     0
  0
APPID
  5
2EEF
330
11A1
100
AcDbSymbolTableRecord
100
AcDbRegAppTableRecord
  2
ACAD_DSTYLE_DIMBREAK
 70
     0
  0
APPID
  5
2EF0
330
11A1
100
AcDbSymbolTableRecord
100
AcDbRegAppTableRecord
  2
ACAD_DSTYLE_DIMRADIAL_EXTENSION
 70
     0
  0
APPID
  5
3261
330
11A1
100
AcDbSymbolTableRecord
100
AcDbRegAppTableRecord
  2
AcAecLayerStandard
 70
     0
  0
ENDTAB
  0
TABLE
  2
DIMSTYLE
  5
11A2
330
0
100
AcDbSymbolTable
 70
     1
100
AcDbDimStyleTable
 71
     1
340
11CE
  0
DIMSTYLE
105
11CE
330
11A2
100
AcDbSymbolTableRecord
100
AcDbDimStyleTableRecord
  2
STANDARD
 70
     0
271
     5
272
     5
273
     5
277
     5
279
     2
340
11A7
  0
ENDTAB
  0
TABLE
  2
BLOCK_RECORD
  5
1199
330
0
100
AcDbSymbolTable
 70
     0
  0
BLOCK_RECORD
  5
11AF
102
{ACAD_XDICTIONARY
360
18B9
102
}
330
1199
100
AcDbSymbolTableRecord
100
AcDbBlockTableRecord
  2
*MODEL_SPACE
340
1853
  0
BLOCK_RECORD
  5
11AC
102
{ACAD_XDICTIONARY
360
18B7
102
}
330
1199
100
AcDbSymbolTableRecord
100
AcDbBlockTableRecord
  2
*PAPER_SPACE
340
1854
  0
ENDTAB
  0
ENDSEC
  0
SECTION
  2
BLOCKS
  0
BLOCK
  5
11E0
330
11AF
100
AcDbEntity
  8
0
100
AcDbBlockBegin
  2
*MODEL_SPACE
 70
     0
 10
0.0
 20
0.0
 30
0.0
  3
*MODEL_SPACE
  1

  0
ENDBLK
  5
11E1
330
11AF
100
AcDbEntity
  8
0
100
AcDbBlockEnd
  0
BLOCK
  5
11DE
330
11AC
100
AcDbEntity
 67
     1
  8
0
100
AcDbBlockBegin
  2
*PAPER_SPACE
 70
     0
 10
0.0
 20
0.0
 30
0.0
  3
*PAPER_SPACE
  1

  0
ENDBLK
  5
11DF
330
11AC
100
AcDbEntity
 67
     1
  8
0
100
AcDbBlockEnd
  0
ENDSEC
  0
SECTION
  2
ENTITIES
  0
LINE
  5
21B4
330
11AF
100
AcDbEntity
  8
0
100
AcDbLine
 10
0.0
 20
0.0450000000000017
 30
0.0
 11
0.5589098049933892
 21
0.0450000000000017
 31
0.0
  0
LINE
  5
21B5
330
11AF
100
AcDbEntity
  8
0
100
AcDbLine
 10
0.0001512429478616
 20
0.0
 30
0.0
 11
4.500453728843584
 21
0.0
 31
0.0
  0
LINE
  5
21C3
330
11AF
100
AcDbEntity
  8
0
100
AcDbLine
 10
1.437377665978154
 20
0.5434991436670061
 30
0.0
 11
1.437377665978139
 21
0.0450000000000017
 31
0.0
  0
LINE
  5
21C4
330
11AF
100
AcDbEntity
  8
0
100
AcDbLine
 10
0.6248776659781328
 20
0.5434991436670061
 30
0.0
 11
0.6248776659781328
 21
0.0497217776961172
 31
0.0
  0
LINE
  5
21C5
330
11AF
100
AcDbEntity
  8
0
100
AcDbLine
 10
1.437377665978154
 20
0.5434991436670061
 30
0.0
 11
1.312377665978139
 21
0.6684991436670061
 31
0.0
  0
LINE
  5
21C6
330
11AF
100
AcDbEntity
  8
0
100
AcDbLine
 10
0.7498776659781328
 20
0.6684991436670061
 30
0.0
 11
1.312377665978139
 21
0.6684991436670061
 31
0.0
  0
LINE
  5
21C7
330
11AF
100
AcDbEntity
  8
0
100
AcDbLine
 10
0.6248776659781328
 20
0.5434991436670061
 30
0.0
 11
0.7498776659781328
 21
0.6684991436670061
 31
0.0
  0
LINE
  5
21C8
330
11AF
100
AcDbEntity
  8
0
100
AcDbLine
 10
3.062924819917583
 20
0.5434991436670061
 30
0.0
 11
3.06292481991759
 21
0.0450000000000017
 31
0.0
  0
LINE
  5
21C9
330
11AF
100
AcDbEntity
  8
0
100
AcDbLine
 10
3.875424819917583
 20
0.5434991436670061
 30
0.0
 11
3.875424819917583
 21
0.0497217776961172
 31
0.0
  0
LINE
  5
21CA
330
11AF
100
AcDbEntity
  8
0
100
AcDbLine
 10
3.062924819917583
 20
0.5434991436670061
 30
0.0
 11
3.18792481991759
 21
0.6684991436670061
 31
0.0
  0
LINE
  5
21CB
330
11AF
100
AcDbEntity
  8
0
100
AcDbLine
 10
3.75042481991759
 20
0.6684991436670061
 30
0.0
 11
3.18792481991759
 21
0.6684991436670061
 31
0.0
  0
LINE
  5
21CC
330
11AF
100
AcDbEntity
  8
0
100
AcDbLine
 10
3.875424819917583
 20
0.5434991436670061
 30
0.0
 11
3.75042481991759
 21
0.6684991436670061
 31
0.0
  0
LINE
  5
21CD
330
11AF
100
AcDbEntity
  8
0
100
AcDbLine
 10
0.257000000000005
 20
0.0450000000000017
 30
0.0
 11
0.257000000000005
 21
0.0
 31
0.0
  0
LINE
  5
21CE
330
11AF
100
AcDbEntity
  8
0
100
AcDbLine
 10
0.0
 20
0.0
 30
0.0
 11
0.0
 21
0.0450000000000017
 31
0.0
  0
LINE
  5
21CF
330
11AF
100
AcDbEntity
  8
0
100
AcDbLine
 10
4.243302485895725
 20
0.0
 30
0.0
 11
4.243302485895725
 21
0.0450000000000017
 31
0.0
  0
LINE
  5
21D0
330
11AF
100
AcDbEntity
  8
0
100
AcDbLine
 10
4.500302485895723
 20
0.0450000000000017
 30
0.0
 11
4.500302485895728
 21
0.0
 31
0.0
  0
LINE
  5
21DE
330
11AF
100
AcDbEntity
  8
0
  6
HIDDEN2
100
AcDbLine
 10
1.078653038828136
 20
0.2193502884254173
 30
0.0
 11
1.078653038828129
 21
0.1276535527409592
 31
0.0
  0
LINE
  5
21DF
330
11AF
100
AcDbEntity
  8
0
  6
HIDDEN2
100
AcDbLine
 10
0.9836022931281505
 20
0.2193502884254173
 30
0.0
 11
0.9836022931281505
 21
0.0450000000000017
 31
0.0
  0
LINE
  5
21E0
330
11AF
100
AcDbEntity
  8
0
  6
HIDDEN2
100
AcDbLine
 10
1.078653038828136
 20
0.2193502884254173
 30
0.0
 11
0.9836022931281505
 21
0.2193502884254173
 31
0.0
  0
LINE
  5
21E1
330
11AF
100
AcDbEntity
  8
0
100
AcDbLine
 10
0.9836022931281505
 20
0.2193502884254173
 30
0.0
 11
0.8436276659281318
 21
0.0450000000000017
 31
0.0
  0
LINE
  5
21E2
330
11AF
100
AcDbEntity
  8
0
  6
HIDDEN2
100
AcDbLine
 10
1.147763704190051
 20
0.1332670839992787
 30
0.0
 11
1.078653038828136
 21
0.2193502884254173
 31
0.0
  0
LINE
  5
21E3
330
11AF
100
AcDbEntity
  8
0
  6
HIDDEN2
100
AcDbLine
 10
3.516700192767572
 20
0.2193502884254173
 30
0.0
 11
3.516700192767572
 21
0.0450000000000017
 31
0.0
  0
LINE
  5
21E4
330
11AF
100
AcDbEntity
  8
0
  6
HIDDEN2
100
AcDbLine
 10
3.421649447067593
 20
0.2193502884254173
 30
0.0
 11
3.421649447067593
 21
0.127572061311767
 31
0.0
  0
LINE
  5
21E5
330
11AF
100
AcDbEntity
  8
0
  6
HIDDEN2
100
AcDbLine
 10
3.516700192767572
 20
0.2193502884254173
 30
0.0
 11
3.421649447067593
 21
0.2193502884254173
 31
0.0
  0
LINE
  5
21E6
330
11AF
100
AcDbEntity
  8
0
  6
HIDDEN2
100
AcDbLine
 10
3.421649447067593
 20
0.2193502884254173
 30
0.0
 11
3.352573617325576
 21
0.1333104747845049
 31
0.0
  0
LINE
  5
21E7
330
11AF
100
AcDbEntity
  8
0
100
AcDbLine
 10
3.656674819867575
 20
0.0450000000000017
 30
0.0
 11
3.516700192767572
 21
0.2193502884254173
 31
0.0
  0
ARC
  5
21F2
330
11AF
100
AcDbEntity
  8
0
  6
Continuous
100
AcDbCircle
 10
2.625026242947868
 20
-0.0150347222222109
 30
0.0
 40
0.1500347222222112
100
AcDbArc
 50
23.5868593698184
 51
156.4131406301816
  0
ARC
  5
21F3
330
11AF
100
AcDbEntity
  8
0
  6
HIDDEN2
100
AcDbCircle
 10
2.625026242947868
 20
-0.0150347222222109
 30
0.0
 40
0.1040347222222112
100
AcDbArc
 50
35.24432362972767
 51
144.7556763702737
  0
ARC
  5
21F4
330
11AF
100
AcDbEntity
  8
0
  6
Continuous
100
AcDbCircle
 10
1.875026242947861
 20
-0.0150347222222109
 30
0.0
 40
0.1500347222222112
100
AcDbArc
 50
23.5868593698184
 51
156.4131406301816
  0
ARC
  5
21F5
330
11AF
100
AcDbEntity
  8
0
  6
HIDDEN2
100
AcDbCircle
 10
1.875026242947861
 20
-0.0150347222222109
 30
0.0
 40
0.1040347222222112
100
AcDbArc
 50
35.24432362972767
 51
144.7556763702737
  0
ARC
  5
21FA
330
11AF
100
AcDbEntity
  8
0
100
AcDbCircle
 10
3.375026242947868
 20
-0.0150347222222109
 30
0.0
 40
0.1500347222222112
100
AcDbArc
 50
23.5868593698184
 51
156.4131406301816
  0
ARC
  5
21FB
330
11AF
100
AcDbEntity
  8
0
  6
HIDDEN2
100
AcDbCircle
 10
3.375026242947868
 20
-0.0150347222222109
 30
0.0
 40
0.1040347222222112
100
AcDbArc
 50
35.24432362972767
 51
144.7556763702737
  0
ARC
  5
21FC
330
11AF
100
AcDbEntity
  8
0
100
AcDbCircle
 10
1.125026242947868
 20
-0.0150347222222109
 30
0.0
 40
0.1500347222222112
100
AcDbArc
 50
23.5868593698184
 51
156.4131406301816
  0
ARC
  5
21FD
330
11AF
100
AcDbEntity
  8
0
  6
HIDDEN2
100
AcDbCircle
 10
1.125026242947868
 20
-0.0150347222222109
 30
0.0
 40
0.1040347222222112
100
AcDbArc
 50
35.24432362972767
 51
144.7556763702737
  0
MTEXT
  5
29D3
330
11AF
100
AcDbEntity
  8
DIM
100
AcDbMText
 10
3.453705334580106
 20
14.17922672908922
 30
0.0
 40
0.1175
 41
0.0
 71
     9
 72
     1
  1
\A1;
 73
     1
 44
1.0
1001
ACAD
1000
MTEXTBEGIN
1070
    73
1070
     1
1070
    44
1040
1.0
1070
    74
1070
     0
1000
MTEXTEND
  0
MTEXT
  5
2C7F
330
11AF
100
AcDbEntity
  8
DIM
100
AcDbMText
 10
9.072898413761478
 20
11.7034824241634
 30
0.0
 40
0.1175
 41
0.0
 71
     1
 72
     1
  1
\A1;
 73
     1
 44
1.0
1001
ACAD
1000
MTEXTBEGIN
1070
    73
1070
     1
1070
    44
1040
1.0
1070
    74
1070
     0
1000
MTEXTEND
  0
MTEXT
  5
2CCA
330
11AF
100
AcDbEntity
  8
DIM
100
AcDbMText
 10
4.8601287235373
 20
16.23915799348986
 30
0.0
 40
0.1175
 41
0.0
 71
     9
 72
     1
  1
\A1;
 73
     1
 44
1.0
1001
ACAD
1000
MTEXTBEGIN
1070
    73
1070
     1
1070
    44
1040
1.0
1070
    74
1070
     0
1000
MTEXTEND
  0
MTEXT
  5
2DD7
330
11AF
100
AcDbEntity
  8
DIM
100
AcDbMText
 10
7.794627869775823
 20
7.876044896811738
 30
0.0
 40
0.1175
 41
0.5749097769521541
 71
     1
 72
     1
  1
\A1;
 73
     1
 44
1.0
1001
ACAD
1000
MTEXTBEGIN
1070
    73
1070
     1
1070
    44
1040
1.0
1070
    74
1070
     0
1000
MTEXTEND
  0
MTEXT
  5
2EB5
330
11AF
100
AcDbEntity
  8
NOTE
100
AcDbMText
 10
6.112670296082598
 20
15.39048038692187
 30
0.0
 40
0.1175
 41
0.4933325382161513
 71
     9
 72
     1
  1
\A1;
 73
     1
 44
1.0
1001
ACAD
1000
MTEXTBEGIN
1070
    73
1070
     1
1070
    44
1040
1.0
1070
    74
1070
     0
1000
MTEXTEND
  0
ARC
  5
2FF0
330
11AF
100
AcDbEntity
  8
0
100
AcDbCircle
 10
3.850151242947863
 20
0.115000000000002
 30
0.0
 40
0.115
100
AcDbArc
 50
270.0
 51
0.0
  0
ARC
  5
2FF1
330
11AF
100
AcDbEntity
  8
0
100
AcDbCircle
 10
3.850151242947863
 20
0.115000000000002
 30
0.0
 40
0.07
100
AcDbArc
 50
270.0
 51
0.0
  0
LINE
  5
2FF2
330
11AF
100
AcDbEntity
  8
0
100
AcDbLine
 10
0.5801512429478617
 20
0.115000000000002
 30
0.0
 11
0.5801512429478617
 21
0.3639823100000008
 31
0.0
  0
ARC
  5
2FF3
330
11AF
100
AcDbEntity
  8
0
100
AcDbCircle
 10
0.650151242947862
 20
0.115000000000002
 30
0.0
 40
0.07
100
AcDbArc
 50
180.0
 51
270.0
  0
LINE
  5
2FF4
330
11AF
100
AcDbEntity
  8
0
100
AcDbLine
 10
0.5351512429478618
 20
0.115000000000002
 30
0.0
 11
0.5351512429478618
 21
0.3639823100000008
 31
0.0
  0
ARC
  5
2FF5
330
11AF
100
AcDbEntity
  8
0
100
AcDbCircle
 10
0.650151242947862
 20
0.115000000000002
 30
0.0
 40
0.115
100
AcDbArc
 50
180.0
 51
270.0
  0
LINE
  5
2FF6
330
11AF
100
AcDbEntity
  8
0
100
AcDbLine
 10
3.920151242947863
 20
0.115000000000002
 30
0.0
 11
3.920151242947863
 21
0.3639823100000008
 31
0.0
  0
LINE
  5
2FF7
330
11AF
100
AcDbEntity
  8
0
100
AcDbLine
 10
3.965151242947861
 20
0.115000000000002
 30
0.0
 11
3.965151242947861
 21
0.3639823100000008
 31
0.0
  0
LINE
  5
2FF8
330
11AF
100
AcDbEntity
  8
0
100
AcDbLine
 10
0.5351512429478618
 20
0.3639823100000008
 30
0.0
 11
0.5801512429478617
 21
0.3639823100000008
 31
0.0
  0
LINE
  5
2FF9
330
11AF
100
AcDbEntity
  8
0
100
AcDbLine
 10
3.920151242947863
 20
0.3639823100000008
 30
0.0
 11
3.965151242947861
 21
0.3639823100000008
 31
0.0
  0
LINE
  5
300B
330
11AF
100
AcDbEntity
  8
0
100
AcDbLine
 10
3.941392680902335
 20
0.0450000000000017
 30
0.0
 11
4.500302485895723
 21
0.0450000000000017
 31
0.0
  0
LINE
  5
300C
330
11AF
100
AcDbEntity
  8
0
100
AcDbLine
 10
0.650151242947862
 20
0.0450000000000017
 30
0.0
 11
3.850151242947863
 21
0.0450000000000017
 31
0.0
  0
ENDSEC
  0
SECTION
  2
OBJECTS
  0
DICTIONARY
  5
11A4
330
0
100
AcDbDictionary
281
     1
  3
ACAD_COLOR
350
1EE0
  3
ACAD_GROUP
350
11A5
  3
ACAD_LAYOUT
350
1851
  3
ACAD_MATERIAL
350
1EDF
  3
ACAD_MLINESTYLE
350
11B2
  3
ACAD_PLOTSETTINGS
350
1852
  3
ACAD_PLOTSTYLENAME
350
184F
  3
ACAD_TABLESTYLE
350
1EE1
  3
AcadDim
350
2CC8
  3
ACDBHEADERROUNDTRIPXREC
350
373D
  3
ACDBVARIABLEDICTIONARY
350
11E2
  3
ASE_INDEX_DICTIONARY
350
1ED9
  0
DICTIONARY
  5
20C1
330
119A
100
AcDbDictionary
280
     1
281
     1
  3
ACAD_LAYERFILTERS
360
36CB
  3
ACAD_LAYERSTATES
360
20C2
  3
ACLYDICTIONARY
360
36CA
  0
DICTIONARY
  5
18B9
330
11AF
100
AcDbDictionary
280
     1
281
     1
  3
ACAD_LAYOUTSELFREF
360
1E87
  3
ACAD_SORTENTS
360
2923
  0
DICTIONARY
  5
18B7
330
11AC
100
AcDbDictionary
280
     1
281
     1
  3
ACAD_LAYOUTSELFREF
360
1E86
  0
DICTIONARY
  5
1EE0
102
{ACAD_REACTORS
330
11A4
102
}
330
11A4
100
AcDbDictionary
281
     1
  0
DICTIONARY
  5
11A5
102
{ACAD_REACTORS
330
11A4
102
}
330
11A4
100
AcDbDictionary
281
     1
  0
DICTIONARY
  5
1851
102
{ACAD_REACTORS
330
11A4
102
}
330
11A4
100
AcDbDictionary
281
     1
  3
Layout1
350
1854
  3
Model
350
1853
  0
DICTIONARY
  5
1EDF
102
{ACAD_REACTORS
330
11A4
102
}
330
11A4
100
AcDbDictionary
281
     1
  0
DICTIONARY
  5
11B2
102
{ACAD_REACTORS
330
11A4
102
}
330
11A4
100
AcDbDictionary
281
     1
  3
STANDARD
350
11B3
  0
DICTIONARY
  5
1852
102
{ACAD_REACTORS
330
11A4
102
}
330
11A4
100
AcDbDictionary
281
     1
  0
ACDBDICTIONARYWDFLT
  5
184F
102
{ACAD_REACTORS
330
11A4
102
}
330
11A4
100
AcDbDictionary
281
     1
  3
Normal
350
1850
100
AcDbDictionaryWithDefault
340
1850
  0
DICTIONARY
  5
1EE1
102
{ACAD_REACTORS
330
11A4
102
}
330
11A4
100
AcDbDictionary
281
     1
  3
Standard
350
1EE2
  0
XRECORD
  5
2CC8
102
{ACAD_REACTORS
330
11A4
102
}
330
11A4
100
AcDbXrecord
280
     1
 90
   990106
  3

 60
     0
 61
     0
 62
     1
 63
     3
 64
     0
 65
     0
 66
     0
 67
     3
 68
     1
 69
     0
 70
     0
 71
     0
 72
     0
 40
1.399021519598449
170
     0
340
0
  0
DICTIONARY
  5
373D
102
{ACAD_REACTORS
330
11A4
102
}
330
11A4
100
AcDbDictionary
281
     1
  0
DICTIONARY
  5
11E2
102
{ACAD_REACTORS
330
11A4
102
}
330
11A4
100
AcDbDictionary
281
     1
  3
CTABLESTYLE
350
26EE
  3
DIMADEC
350
11E3
  3
DIMASSOC
350
2BA7
  3
PROJECTNAME
350
2BA8
  0
DICTIONARY
  5
1ED9
102
{ACAD_REACTORS
330
11A4
102
}
330
11A4
100
AcDbDictionary
281
     1
  3
ASEBlockHierarchyIndexRecord
350
1EDB
1001
DCO15
1040
1571128736.351
  0
DICTIONARY
  5
36CB
102
{ACAD_REACTORS
330
20C1
102
}
330
20C1
100
AcDbDictionary
281
     1
  0
DICTIONARY
  5
20C2
102
{ACAD_REACTORS
330
20C1
102
}
330
20C1
100
AcDbDictionary
281
     1
  0
DICTIONARY
  5
36CA
102
{ACAD_REACTORS
330
20C1
102
}
330
20C1
100
AcDbDictionary
281
     1
1001
ACAD
1000
<All
  0
XRECORD
  5
1E87
102
{ACAD_REACTORS
330
18B9
102
}
330
18B9
100
AcDbXrecord
280
     1
340
11AF
  0
SORTENTSTABLE
  5
2923
102
{ACAD_REACTORS
330
18B9
102
}
330
18B9
100
AcDbSortentsTable
330
11AF
331
21C8
  5
21CA
331
21D0
  5
21D3
331
21E0
  5
21E2
331
2FF6
  5
2FF8
331
2C7F
  5
2C83
331
21C9
  5
21CB
331
2DD7
  5
2E44
331
21E1
  5
21E3
331
2FF7
  5
2FF9
331
21CA
  5
21CC
331
2FF0
  5
2FF2
331
21E2
  5
21E4
331
2FF8
  5
300B
331
21F2
  5
21F4
331
21FA
  5
21FC
331
21C3
  5
21C5
331
21CB
  5
21CD
331
2FF1
  5
2FF3
331
21E3
  5
21E5
331
2FF9
  5
300C
331
21F3
  5
21F5
331
21FB
  5
21FD
331
2CCA
  5
2DD7
331
21B4
  5
21B4
331
21C4
  5
21C6
331
21CC
  5
21CE
331
29D3
  5
29F3
331
2FF2
  5
2FF4
331
21E4
  5
21E6
331
21F4
  5
21FA
331
21FC
  5
21FE
331
21B5
  5
21B8
331
21C5
  5
21C7
331
21CD
  5
21CF
331
2FF3
  5
2FF5
331
21E5
  5
21E7
331
21F5
  5
21FB
331
300B
  5
21B7
331
21FD
  5
21FF
331
21C6
  5
21C8
331
21CE
  5
21D0
331
21DE
  5
21E0
331
2FF4
  5
2FF6
331
21E6
  5
21E8
331
300C
  5
21B5
331
21C7
  5
21C9
331
2EB5
  5
2F2B
331
21CF
  5
21D1
331
21DF
  5
21E1
331
21E7
  5
21E9
331
2FF5
  5
2FF7
  0
XRECORD
  5
1E86
102
{ACAD_REACTORS
330
18B7
102
}
330
18B7
100
AcDbXrecord
280
     1
340
11AC
  0
LAYOUT
  5
1854
102
{ACAD_XDICTIONARY
360
3740
102
}
102
{ACAD_REACTORS
330
1851
102
}
330
1851
100
AcDbPlotSettings
  1

  2
C:\ACAD2000\plotters\DWF Classic.pc3
  4

  6

 40
0.0
 41
0.0
 42
0.0
 43
0.0
 44
0.0
 45
0.0
 46
0.0
 47
0.0
 48
0.0
 49
0.0
140
0.0
141
0.0
142
1.0
143
1.0
 70
   688
 72
     0
 73
     0
 74
     5
  7
monochrome.ctb
 75
    16
147
1.0
148
0.0
149
0.0
100
AcDbLayout
  1
Layout1
 70
     0
 71
     1
 10
0.0
 20
0.0
 11
12.0
 21
9.0
 12
0.0
 22
0.0
 32
0.0
 14
1.000000000000000E+20
 24
1.000000000000000E+20
 34
1.000000000000000E+20
 15
-1.000000000000000E+20
 25
-1.000000000000000E+20
 35
-1.000000000000000E+20
146
0.0
 13
0.0
 23
0.0
 33
0.0
 16
1.0
 26
0.0
 36
0.0
 17
0.0
 27
1.0
 37
0.0
 76
     0
330
11AC
  0
LAYOUT
  5
1853
102
{ACAD_XDICTIONARY
360
373E
102
}
102
{ACAD_REACTORS
330
1851
102
}
330
1851
100
AcDbPlotSettings
  1

  2
HP LaserJet 2100 Series PCL 6
  4
Letter
  6
1
 40
4.233333110809326
 41
4.233341693878173
 42
8.466659545898437
 43
4.23333740234375
 44
215.8999938964844
 45
279.3999938964844
 46
0.0
 47
2.11665658652781
 48
0.2933117219906762
 49
-0.1231745448445807
140
16.3050898606532
141
21.22630980632028
142
1.0
143
1.999999987797474
 70
 11956
 72
     0
 73
     0
 74
     2
  7
monochrome.ctb
 75
     0
147
0.5000000030506314
148
0.0
149
0.0
100
AcDbLayout
  1
Model
 70
     1
 71
     0
 10
0.0
 20
0.0
 11
12.0
 21
9.0
 12
0.0
 22
0.0
 32
0.0
 14
0.0
 24
0.0
 34
0.0
 15
0.0
 25
0.0
 35
0.0
146
0.0
 13
0.0
 23
0.0
 33
0.0
 16
1.0
 26
0.0
 36
0.0
 17
0.0
 27
1.0
 37
0.0
 76
     0
330
11AF
1001
ACAD_PSEXT
1000
HP LaserJet 2100 Series PCL 6
1000
HP LaserJet 2100 Series PCL 6
1000
LPT1:
1000

1070
     0
  0
MLINESTYLE
  5
11B3
102
{ACAD_REACTORS
330
11B2
102
}
330
11B2
100
AcDbMlineStyle
  2
STANDARD
 70
     0
  3

 62
   256
 51
90.0
 52
90.0
 71
     2
 49
0.5
 62
   256
  6
BYLAYER
 49
-0.5
 62
   256
  6
BYLAYER
  0
ACDBPLACEHOLDER
  5
1850
102
{ACAD_REACTORS
330
184F
102
}
330
184F
  0
TABLESTYLE
  5
1EE2
102
{ACAD_REACTORS
330
1EE1
102
}
330
1EE1
100
AcDbTableStyle
  3
Standard
 70
     0
 71
     0
 40
0.06
 41
0.06
280
     0
281
     0
  7
STANDARD
140
0.18
170
     2
 62
     0
 63
     7
283
     0
274
    -2
284
     1
 64
     0
275
    -2
285
     1
 65
     0
276
    -2
286
     1
 66
     0
277
    -2
287
     1
 67
     0
278
    -2
288
     1
 68
     0
279
    -2
289
     1
 69
     0
  7
STANDARD
140
0.25
170
     5
 62
     0
 63
     7
283
     0
274
    -2
284
     1
 64
     0
275
    -2
285
     1
 65
     0
276
    -2
286
     1
 66
     0
277
    -2
287
     1
 67
     0
278
    -2
288
     1
 68
     0
279
    -2
289
     1
 69
     0
  7
STANDARD
140
0.18
170
     5
 62
     0
 63
     7
283
     0
274
    -2
284
     1
 64
     0
275
    -2
285
     1
 65
     0
276
    -2
286
     1
 66
     0
277
    -2
287
     1
 67
     0
278
    -2
288
     1
 68
     0
279
    -2
289
     1
 69
     0
  0
DICTIONARYVAR
  5
26EE
102
{ACAD_REACTORS
330
11E2
102
}
330
11E2
100
DictionaryVariables
280
     0
  1
STANDARD
  0
DICTIONARYVAR
  5
11E3
102
{ACAD_REACTORS
330
11E2
102
}
330
11E2
100
DictionaryVariables
280
     0
  1
0
  0
DICTIONARYVAR
  5
2BA7
102
{ACAD_REACTORS
330
11E2
102
}
330
11E2
100
DictionaryVariables
280
     0
  1
2
  0
DICTIONARYVAR
  5
2BA8
102
{ACAD_REACTORS
330
11E2
102
}
330
11E2
100
DictionaryVariables
280
     0
  1

  0
XRECORD
  5
1EDB
102
{ACAD_REACTORS
330
1ED9
102
}
330
1ED9
100
AcDbXrecord
280
     1
330
0
330
0
330
0
330
0
330
0
330
0
  0
DICTIONARY
  5
3740
330
1854
100
AcDbDictionary
280
     1
281
     1
  3
ACAD_XREC_ROUNDTRIP
360
3741
  0
DICTIONARY
  5
373E
330
1853
100
AcDbDictionary
280
     1
281
     1
  3
ACAD_XREC_ROUNDTRIP
360
373F
  0
XRECORD
  5
3741
102
{ACAD_REACTORS
330
3740
102
}
330
3740
100
AcDbXrecord
280
     1
102
SHADEPLOT
 70
     0
102
SHADEPLOTRESLEVEL
 70
     2
102
SHADEPLOTCUSTOMDPI
 70
   300
  0
XRECORD
  5
373F
102
{ACAD_REACTORS
330
373E
102
}
330
373E
100
AcDbXrecord
280
     1
102
SHADEPLOT
 70
     0
102
SHADEPLOTRESLEVEL
 70
     2
102
SHADEPLOTCUSTOMDPI
 70
   300
  0
ENDSEC
  0
EOF
