  0
SECTION
  2
HEADER
  9
$ACADVER
  1
AC1015
  9
$ACADMAINTVER
 70
     6
  9
$DWGCODEPAGE
  3
ANSI_1252
  9
$INSBASE
 10
0.0
 20
0.0
 30
0.0
  9
$EXTMIN
 10
-0.5258883476483185
 20
0.0
 30
0.0
  9
$EXTMAX
 10
2.525888347648318
 20
4.249999999999999
 30
0.0
  9
$LIMMIN
 10
0.0
 20
0.0
  9
$LIMMAX
 10
10.0
 20
13.125
  9
$ORTHOMODE
 70
     0
  9
$REGENMODE
 70
     1
  9
$FILLMODE
 70
     1
  9
$QTEXTMODE
 70
     0
  9
$MIRRTEXT
 70
     0
  9
$LTSCALE
 40
0.5
  9
$ATTMODE
 70
     1
  9
$TEXTSIZE
 40
0.1125
  9
$TRACEWID
 40
0.05
  9
$TEXTSTYLE
  7
STANDARD
  9
$CLAYER
  8
0
  9
$CELTYPE
  6
BYLAYER
  9
$CECOLOR
 62
   256
  9
$CELTSCALE
 40
1.0
  9
$DISPSILH
 70
     0
  9
$DIMSCALE
 40
1.25
  9
$DIMASZ
 40
0.125
  9
$DIMEXO
 40
0.062
  9
$DIMDLI
 40
0.375
  9
$DIMRND
 40
0.0
  9
$DIMDLE
 40
0.0
  9
$DIMEXE
 40
0.08
  9
$DIMTP
 40
0.0
  9
$DIMTM
 40
0.0
  9
$DIMTXT
 40
0.09
  9
$DIMCEN
 40
-0.03125
  9
$DIMTSZ
 40
0.0
  9
$DIMTOL
 70
     0
  9
$DIMLIM
 70
     0
  9
$DIMTIH
 70
     1
  9
$DIMTOH
 70
     1
  9
$DIMSE1
 70
     0
  9
$DIMSE2
 70
     0
  9
$DIMTAD
 70
     0
  9
$DIMZIN
 70
     0
  9
$DIMBLK
  1

  9
$DIMASO
 70
     0
  9
$DIMSHO
 70
     0
  9
$DIMPOST
  1

  9
$DIMAPOST
  1

  9
$DIMALT
 70
     0
  9
$DIMALTD
 70
     2
  9
$DIMALTF
 40
25.4
  9
$DIMLFAC
 40
1.0
  9
$DIMTOFL
 70
     0
  9
$DIMTVP
 40
0.0
  9
$DIMTIX
 70
     0
  9
$DIMSOXD
 70
     0
  9
$DIMSAH
 70
     0
  9
$DIMBLK1
  1

  9
$DIMBLK2
  1

  9
$DIMSTYLE
  2
STANDARD
  9
$DIMCLRD
 70
     0
  9
$DIMCLRE
 70
     0
  9
$DIMCLRT
 70
     0
  9
$DIMTFAC
 40
1.0
  9
$DIMGAP
 40
0.09
  9
$DIMJUST
 70
     0
  9
$DIMSD1
 70
     0
  9
$DIMSD2
 70
     0
  9
$DIMTOLJ
 70
     1
  9
$DIMTZIN
 70
     0
  9
$DIMALTZ
 70
     0
  9
$DIMALTTZ
 70
     0
  9
$DIMUPT
 70
     0
  9
$DIMDEC
 70
     4
  9
$DIMTDEC
 70
     4
  9
$DIMALTU
 70
     2
  9
$DIMALTTD
 70
     2
  9
$DIMTXSTY
  7
STANDARD
  9
$DIMAUNIT
 70
     0
  9
$DIMADEC
 70
     0
  9
$DIMALTRND
 40
0.0
  9
$DIMAZIN
 70
     0
  9
$DIMDSEP
 70
    46
  9
$DIMATFIT
 70
     3
  9
$DIMFRAC
 70
     0
  9
$DIMLDRBLK
  1

  9
$DIMLUNIT
 70
     2
  9
$DIMLWD
 70
    -2
  9
$DIMLWE
 70
    -2
  9
$DIMTMOVE
 70
     2
  9
$LUNITS
 70
     2
  9
$LUPREC
 70
     4
  9
$SKETCHINC
 40
0.1
  9
$FILLETRAD
 40
0.0
  9
$AUNITS
 70
     0
  9
$AUPREC
 70
     0
  9
$MENU
  1
qa
  9
$ELEVATION
 40
0.0
  9
$PELEVATION
 40
0.0
  9
$THICKNESS
 40
0.0
  9
$LIMCHECK
 70
     0
  9
$CHAMFERA
 40
0.0
  9
$CHAMFERB
 40
0.0
  9
$CHAMFERC
 40
0.0
  9
$CHAMFERD
 40
0.0
  9
$SKPOLY
 70
     0
  9
$TDCREATE
 40
2449743.601344907
  9
$TDUCREATE
 40
2449743.934678241
  9
$TDUPDATE
 40
2454181.835187303
  9
$TDUUPDATE
 40
2454182.168520636
  9
$TDINDWG
 40
0.2537359144
  9
$TDUSRTIMER
 40
0.2537359144
  9
$USRTIMER
 70
     1
  9
$ANGBASE
 50
0.0
  9
$ANGDIR
 70
     0
  9
$PDMODE
 70
     0
  9
$PDSIZE
 40
0.0
  9
$PLINEWID
 40
0.0
  9
$SPLFRAME
 70
     0
  9
$SPLINETYPE
 70
     6
  9
$SPLINESEGS
 70
     8
  9
$HANDSEED
  5
F1
  9
$SURFTAB1
 70
     6
  9
$SURFTAB2
 70
     6
  9
$SURFTYPE
 70
     6
  9
$SURFU
 70
     6
  9
$SURFV
 70
     6
  9
$UCSBASE
  2

  9
$UCSNAME
  2

  9
$UCSORG
 10
0.0
 20
0.0
 30
0.0
  9
$UCSXDIR
 10
1.0
 20
0.0
 30
0.0
  9
$UCSYDIR
 10
0.0
 20
1.0
 30
0.0
  9
$UCSORTHOREF
  2

  9
$UCSORTHOVIEW
 70
     0
  9
$UCSORGTOP
 10
0.0
 20
0.0
 30
0.0
  9
$UCSORGBOTTOM
 10
0.0
 20
0.0
 30
0.0
  9
$UCSORGLEFT
 10
0.0
 20
0.0
 30
0.0
  9
$UCSORGRIGHT
 10
0.0
 20
0.0
 30
0.0
  9
$UCSORGFRONT
 10
0.0
 20
0.0
 30
0.0
  9
$UCSORGBACK
 10
0.0
 20
0.0
 30
0.0
  9
$PUCSBASE
  2

  9
$PUCSNAME
  2

  9
$PUCSORG
 10
0.0
 20
0.0
 30
0.0
  9
$PUCSXDIR
 10
1.0
 20
0.0
 30
0.0
  9
$PUCSYDIR
 10
0.0
 20
1.0
 30
0.0
  9
$PUCSORTHOREF
  2

  9
$PUCSORTHOVIEW
 70
     0
  9
$PUCSORGTOP
 10
0.0
 20
0.0
 30
0.0
  9
$PUCSORGBOTTOM
 10
0.0
 20
0.0
 30
0.0
  9
$PUCSORGLEFT
 10
0.0
 20
0.0
 30
0.0
  9
$PUCSORGRIGHT
 10
0.0
 20
0.0
 30
0.0
  9
$PUCSORGFRONT
 10
0.0
 20
0.0
 30
0.0
  9
$PUCSORGBACK
 10
0.0
 20
0.0
 30
0.0
  9
$USERI1
 70
     0
  9
$USERI2
 70
     0
  9
$USERI3
 70
     0
  9
$USERI4
 70
     0
  9
$USERI5
 70
     0
  9
$USERR1
 40
0.0
  9
$USERR2
 40
0.0
  9
$USERR3
 40
0.0
  9
$USERR4
 40
0.0
  9
$USERR5
 40
0.0
  9
$WORLDVIEW
 70
     1
  9
$SHADEDGE
 70
     3
  9
$SHADEDIF
 70
    70
  9
$TILEMODE
 70
     1
  9
$MAXACTVP
 70
    16
  9
$PINSBASE
 10
0.0
 20
0.0
 30
0.0
  9
$PLIMCHECK
 70
     0
  9
$PEXTMIN
 10
1.000000000000000E+20
 20
1.000000000000000E+20
 30
1.000000000000000E+20
  9
$PEXTMAX
 10
-1.000000000000000E+20
 20
-1.000000000000000E+20
 30
-1.000000000000000E+20
  9
$PLIMMIN
 10
0.0
 20
0.0
  9
$PLIMMAX
 10
12.0
 20
9.0
  9
$UNITMODE
 70
     0
  9
$VISRETAIN
 70
     0
  9
$PLINEGEN
 70
     0
  9
$PSLTSCALE
 70
     0
  9
$TREEDEPTH
 70
  3020
  9
$CMLSTYLE
  2
STANDARD
  9
$CMLJUST
 70
     0
  9
$CMLSCALE
 40
1.0
  9
$PROXYGRAPHICS
 70
     1
  9
$MEASUREMENT
 70
     0
  9
$CELWEIGHT
370
    -1
  9
$ENDCAPS
280
     0
  9
$JOINSTYLE
280
     0
  9
$LWDISPLAY
290
     0
  9
$INSUNITS
 70
     0
  9
$HYPERLINKBASE
  1

  9
$STYLESHEET
  1

  9
$XEDIT
290
     1
  9
$CEPSNTYPE
380
     0
  9
$PSTYLEMODE
290
     1
  9
$FINGERPRINTGUID
  2
{D2704EFC-7122-11D5-BE3F-00508B5FCD51}
  9
$VERSIONGUID
  2
{68D6044F-B3C2-4AB9-9336-230AC7BB2ACF}
  9
$EXTNAMES
290
     1
  9
$PSVPSCALE
 40
0.0
  9
$OLESTARTUP
290
     0
  0
ENDSEC
  0
SECTION
  2
CLASSES
  0
CLASS
  1
DICTIONARYVAR
  2
AcDbDictionaryVar
  3
AutoCAD 2000
 90
        0
280
     0
281
     0
  0
CLASS
  1
LWPOLYLINE
  2
AcDbPolyline
  3
AutoCAD 2000
 90
        0
280
     0
281
     1
  0
CLASS
  1
ACDBDICTIONARYWDFLT
  2
AcDbDictionaryWithDefault
  3
AutoCAD 2000
 90
        0
280
     0
281
     0
  0
CLASS
  1
ACDBPLACEHOLDER
  2
AcDbPlaceHolder
  3
ObjectDBX Classes
 90
        0
280
     0
281
     0
  0
CLASS
  1
LAYOUT
  2
AcDbLayout
  3
ObjectDBX Classes
 90
        0
280
     0
281
     0
  0
CLASS
  1
LONG_TRANSACTION
  2
AcDbLongTransaction
  3
ObjectDBX Classes
 90
   -65536
280
     1
281
     0
  0
CLASS
  1
LWPOLYLINE
  2
AcDbPolyline
  3
AutoCAD 2000
 90
        0
280
     0
281
     1
  0
CLASS
  1
HATCH
  2
AcDbHatch
  3
AutoCAD 2000
 90
        0
280
     0
281
     1
  0
CLASS
  1
XRECORD
  2
AcDbXrecord
  3
AutoCAD 2000
 90
        0
280
     0
281
     0
  0
CLASS
  1
LONG_TRANSACTION
  2
AcDbLongTransaction
  3
ObjectDBX Classes
 90
   -65536
280
     1
281
     0
  0
CLASS
  1
LWPOLYLINE
  2
AcDbPolyline
  3
AutoCAD 2000
 90
        0
280
     0
281
     1
  0
CLASS
  1
HATCH
  2
AcDbHatch
  3
AutoCAD 2000
 90
        0
280
     0
281
     1
  0
CLASS
  1
XRECORD
  2
AcDbXrecord
  3
AutoCAD 2000
 90
        0
280
     0
281
     0
  0
CLASS
  1
LONG_TRANSACTION
  2
AcDbLongTransaction
  3
ObjectDBX Classes
 90
   -65536
280
     1
281
     0
  0
CLASS
  1
LWPOLYLINE
  2
AcDbPolyline
  3
AutoCAD 2000
 90
        0
280
     0
281
     1
  0
CLASS
  1
HATCH
  2
AcDbHatch
  3
AutoCAD 2000
 90
        0
280
     0
281
     1
  0
CLASS
  1
XRECORD
  2
AcDbXrecord
  3
AutoCAD 2000
 90
        0
280
     0
281
     0
  0
CLASS
  1
LONG_TRANSACTION
  2
AcDbLongTransaction
  3
ObjectDBX Classes
 90
   -65536
280
     1
281
     0
  0
CLASS
  1
LWPOLYLINE
  2
AcDbPolyline
  3
AutoCAD 2000
 90
        0
280
     0
281
     1
  0
CLASS
  1
HATCH
  2
AcDbHatch
  3
AutoCAD 2000
 90
        0
280
     0
281
     1
  0
CLASS
  1
XRECORD
  2
AcDbXrecord
  3
AutoCAD 2000
 90
        0
280
     0
281
     0
  0
CLASS
  1
LONG_TRANSACTION
  2
AcDbLongTransaction
  3
ObjectDBX Classes
 90
   -65536
280
     1
281
     0
  0
CLASS
  1
LWPOLYLINE
  2
AcDbPolyline
  3
AutoCAD 2000
 90
        0
280
     0
281
     1
  0
CLASS
  1
HATCH
  2
AcDbHatch
  3
AutoCAD 2000
 90
        0
280
     0
281
     1
  0
CLASS
  1
XRECORD
  2
AcDbXrecord
  3
AutoCAD 2000
 90
        0
280
     0
281
     0
  0
CLASS
  1
LONG_TRANSACTION
  2
AcDbLongTransaction
  3
ObjectDBX Classes
 90
   -65536
280
     1
281
     0
  0
CLASS
  1
LWPOLYLINE
  2
AcDbPolyline
  3
AutoCAD 2000
 90
        0
280
     0
281
     1
  0
CLASS
  1
HATCH
  2
AcDbHatch
  3
AutoCAD 2000
 90
        0
280
     0
281
     1
  0
CLASS
  1
XRECORD
  2
AcDbXrecord
  3
AutoCAD 2000
 90
        0
280
     0
281
     0
  0
CLASS
  1
TABLESTYLE
  2
AcDbTableStyle
  3
ObjectDBX Classes
 90
     2047
280
     1
281
     0
  0
CLASS
  1
SORTENTSTABLE
  2
AcDbSortentsTable
  3
AutoCAD 2000
 90
        0
280
     0
281
     0
  0
ENDSEC
  0
SECTION
  2
TABLES
  0
TABLE
  2
VPORT
  5
1D
330
0
100
AcDbSymbolTable
 70
     2
  0
VPORT
  5
E3
330
1D
100
AcDbSymbolTableRecord
100
AcDbViewportTableRecord
  2
*Active
 70
     0
 10
0.0
 20
0.0
 11
1.0
 21
1.0
 12
6.568585328928108
 22
4.633435917419279
 13
0.0
 23
0.0
 14
0.063
 24
0.063
 15
0.25
 25
0.25
 16
0.0
 26
0.0
 36
1.0
 17
0.0
 27
0.0
 37
0.0
 40
13.22649473380716
 41
1.814583333333333
 42
50.0
 43
0.0
 44
0.0
 50
0.0
 51
0.0
 71
     0
 72
   100
 73
     1
 74
     0
 75
     0
 76
     0
 77
     0
 78
     0
281
     0
 65
     1
110
0.0
120
0.0
130
0.0
111
1.0
121
0.0
131
0.0
112
0.0
122
1.0
132
0.0
 79
     0
146
0.0
  0
ENDTAB
  0
TABLE
  2
LTYPE
  5
18
330
0
100
AcDbSymbolTable
 70
     1
  0
LTYPE
  5
19
330
18
100
AcDbSymbolTableRecord
100
AcDbLinetypeTableRecord
  2
BYBLOCK
 70
     0
  3

 72
    65
 73
     0
 40
0.0
  0
LTYPE
  5
1A
330
18
100
AcDbSymbolTableRecord
100
AcDbLinetypeTableRecord
  2
BYLAYER
 70
     0
  3

 72
    65
 73
     0
 40
0.0
  0
LTYPE
  5
A
330
18
100
AcDbSymbolTableRecord
100
AcDbLinetypeTableRecord
  2
CONTINUOUS
 70
     0
  3
Solid line
 72
    65
 73
     0
 40
0.0
  0
ENDTAB
  0
TABLE
  2
LAYER
  5
14
330
0
100
AcDbSymbolTable
 70
     1
  0
LAYER
  5
6
330
14
100
AcDbSymbolTableRecord
100
AcDbLayerTableRecord
  2
0
 70
     0
 62
     7
  6
CONTINUOUS
370
    -3
390
7
  0
ENDTAB
  0
TABLE
  2
STYLE
  5
15
330
0
100
AcDbSymbolTable
 70
     1
  0
STYLE
  5
16
330
15
100
AcDbSymbolTableRecord
100
AcDbTextStyleTableRecord
  2
STANDARD
 70
     0
 40
0.0
 41
1.0
 50
0.0
 71
     0
 42
0.1125
  3
TXT
  4

  0
ENDTAB
  0
TABLE
  2
VIEW
  5
1B
330
0
100
AcDbSymbolTable
 70
     0
  0
ENDTAB
  0
TABLE
  2
UCS
  5
1C
330
0
100
AcDbSymbolTable
 70
     0
  0
ENDTAB
  0
TABLE
  2
APPID
  5
1F
330
0
100
AcDbSymbolTable
 70
     1
  0
APPID
  5
20
330
1F
100
AcDbSymbolTableRecord
100
AcDbRegAppTableRecord
  2
ACAD
 70
     0
  0
ENDTAB
  0
TABLE
  2
DIMSTYLE
  5
21
330
0
100
AcDbSymbolTable
 70
     1
100
AcDbDimStyleTable
  0
DIMSTYLE
105
28
330
21
100
AcDbSymbolTableRecord
100
AcDbDimStyleTableRecord
  2
STANDARD
 70
     0
  3

  4

340
16
  0
ENDTAB
  0
TABLE
  2
BLOCK_RECORD
  5
1
330
0
100
AcDbSymbolTable
 70
     0
  0
BLOCK_RECORD
  5
2
102
{ACAD_XDICTIONARY
360
3
102
}
330
1
100
AcDbSymbolTableRecord
100
AcDbBlockTableRecord
  2
*MODEL_SPACE
340
C
  0
BLOCK_RECORD
  5
E
330
1
100
AcDbSymbolTableRecord
100
AcDbBlockTableRecord
  2
*PAPER_SPACE
340
13
  0
ENDTAB
  0
ENDSEC
  0
SECTION
  2
BLOCKS
  0
BLOCK
  5
5
330
2
100
AcDbEntity
  8
0
100
AcDbBlockBegin
  2
*MODEL_SPACE
 70
     0
 10
0.0
 20
0.0
 30
0.0
  3
*MODEL_SPACE
  1

  4

  0
ENDBLK
  5
B
330
2
100
AcDbEntity
  8
0
100
AcDbBlockEnd
  0
BLOCK
  5
11
330
E
100
AcDbEntity
 67
     1
  8
0
100
AcDbBlockBegin
  2
*PAPER_SPACE
 70
     0
 10
0.0
 20
0.0
 30
0.0
  3
*PAPER_SPACE
  1

  4

  0
ENDBLK
  5
12
330
E
100
AcDbEntity
 67
     1
  8
0
100
AcDbBlockEnd
  0
ENDSEC
  0
SECTION
  2
ENTITIES
  0
LINE
  5
83
330
2
100
AcDbEntity
  8
0
100
AcDbLine
 10
0.0
 20
2.0
 30
0.0
 11
0.0
 21
1.5
 31
0.0
  0
LINE
  5
84
330
2
100
AcDbEntity
  8
0
100
AcDbLine
 10
2.5
 20
1.5
 30
0.0
 11
2.5
 21
2.0
 31
0.0
  0
CIRCLE
  5
85
330
2
100
AcDbEntity
  8
0
100
AcDbCircle
 10
2.25
 20
1.75
 30
0.0
 40
0.078
  0
CIRCLE
  5
86
330
2
100
AcDbEntity
  8
0
100
AcDbCircle
 10
0.5
 20
1.75
 30
0.0
 40
0.078
  0
LINE
  5
87
330
2
100
AcDbEntity
  8
0
100
AcDbLine
 10
0.0
 20
0.0
 30
0.0
 11
2.5
 21
0.0
 31
0.0
  0
LINE
  5
88
330
2
100
AcDbEntity
  8
0
100
AcDbLine
 10
-0.375
 20
0.625
 30
0.0
 11
-0.125
 21
0.625
 31
0.0
  0
LINE
  5
89
330
2
100
AcDbEntity
  8
0
100
AcDbLine
 10
-0.125
 20
1.375
 30
0.0
 11
-0.375
 21
1.375
 31
0.0
  0
ARC
  5
8A
330
2
100
AcDbEntity
  8
0
100
AcDbCircle
 10
-0.375
 20
0.75
 30
0.0
 40
0.125
100
AcDbArc
 50
180.0
 51
270.0
  0
LINE
  5
8B
330
2
100
AcDbEntity
  8
0
100
AcDbLine
 10
-0.5
 20
1.25
 30
0.0
 11
-0.5
 21
0.75
 31
0.0
  0
CIRCLE
  5
8C
330
2
100
AcDbEntity
  8
0
100
AcDbCircle
 10
-0.25
 20
1.0
 30
0.0
 40
0.078
  0
ARC
  5
8D
330
2
100
AcDbEntity
  8
0
100
AcDbCircle
 10
-0.375
 20
1.25
 30
0.0
 40
0.125
100
AcDbArc
 50
90.0
 51
180.0
  0
TEXT
  5
8E
330
2
100
AcDbEntity
  8
0
100
AcDbText
 10
0.9508388688932135
 20
1.49798096017504
 30
0.0
 40
0.1
  1
PLATE LINE
 50
270.0
100
AcDbText
  0
CIRCLE
  5
8F
330
2
100
AcDbEntity
  8
0
100
AcDbCircle
 10
0.5
 20
0.25
 30
0.0
 40
0.078
  0
LINE
  5
90
330
2
100
AcDbEntity
  8
0
100
AcDbLine
 10
0.0
 20
0.5
 30
0.0
 11
0.0
 21
0.0
 31
0.0
  0
ARC
  5
91
330
2
100
AcDbEntity
  8
0
100
AcDbCircle
 10
-0.125
 20
0.5
 30
0.0
 40
0.125
100
AcDbArc
 50
0.0
 51
90.0
  0
LINE
  5
92
330
2
100
AcDbEntity
  8
0
100
AcDbLine
 10
1.0
 20
0.15625
 30
0.0
 11
1.0
 21
0.3125
 31
0.0
  0
LINE
  5
93
330
2
100
AcDbEntity
  8
0
100
AcDbLine
 10
1.0
 20
0.0
 30
0.0
 11
0.953125
 21
0.15625
 31
0.0
  0
LINE
  5
94
330
2
100
AcDbEntity
  8
0
100
AcDbLine
 10
1.046875
 20
0.15625
 30
0.0
 11
1.0
 21
0.0
 31
0.0
  0
LINE
  5
95
330
2
100
AcDbEntity
  8
0
100
AcDbLine
 10
0.953125
 20
0.15625
 30
0.0
 11
1.046875
 21
0.15625
 31
0.0
  0
ARC
  5
96
330
2
100
AcDbEntity
  8
0
100
AcDbCircle
 10
-0.125
 20
1.5
 30
0.0
 40
0.125
100
AcDbArc
 50
270.0
 51
0.0
  0
LINE
  5
97
330
2
100
AcDbEntity
  8
0
100
AcDbLine
 10
2.125
 20
1.375
 30
0.0
 11
2.375
 21
1.375
 31
0.0
  0
LWPOLYLINE
  5
98
330
2
100
AcDbEntity
  8
0
100
AcDbPolyline
 90
        2
 70
     0
 43
0.0
 10
2.375
 20
0.625
 10
2.125
 20
0.625
  0
CIRCLE
  5
99
330
2
100
AcDbEntity
  8
0
100
AcDbCircle
 10
2.25
 20
0.25
 30
0.0
 40
0.078
  0
ARC
  5
9A
330
2
100
AcDbEntity
  8
0
100
AcDbCircle
 10
2.125
 20
0.75
 30
0.0
 40
0.125
100
AcDbArc
 50
180.0
 51
270.0
  0
CIRCLE
  5
9B
330
2
100
AcDbEntity
  8
0
100
AcDbCircle
 10
1.5
 20
1.0
 30
0.0
 40
0.078
  0
LINE
  5
9C
330
2
100
AcDbEntity
  8
0
100
AcDbLine
 10
2.0
 20
0.75
 30
0.0
 11
2.0
 21
1.25
 31
0.0
  0
ARC
  5
9D
330
2
100
AcDbEntity
  8
0
100
AcDbCircle
 10
2.125
 20
1.25
 30
0.0
 40
0.125
100
AcDbArc
 50
90.0
 51
180.0
  0
LINE
  5
9E
330
2
100
AcDbEntity
  8
0
100
AcDbLine
 10
2.5
 20
0.0
 30
0.0
 11
2.5
 21
0.5
 31
0.0
  0
ARC
  5
9F
330
2
100
AcDbEntity
  8
0
100
AcDbCircle
 10
2.375
 20
0.5
 30
0.0
 40
0.125
100
AcDbArc
 50
0.0
 51
90.0
  0
ARC
  5
A0
330
2
100
AcDbEntity
  8
0
100
AcDbCircle
 10
2.375
 20
1.5
 30
0.0
 40
0.125
100
AcDbArc
 50
270.0
 51
0.0
  0
TEXT
  5
A1
330
2
100
AcDbEntity
  8
0
100
AcDbText
 10
0.5525102808782432
 20
1.960172894556714
 30
0.0
 40
0.1
  1
PLATE LINE
100
AcDbText
  0
LINE
  5
A2
330
2
100
AcDbEntity
  8
0
100
AcDbLine
 10
2.0
 20
4.249999999999999
 30
0.0
 11
-0.5
 21
4.249999999999999
 31
0.0
  0
LINE
  5
A3
330
2
100
AcDbEntity
  8
0
100
AcDbLine
 10
-0.5
 20
4.249999999999999
 30
0.0
 11
-0.5
 21
3.749999999999999
 31
0.0
  0
LINE
  5
A4
330
2
100
AcDbEntity
  8
0
100
AcDbLine
 10
-0.375
 20
2.125
 30
0.0
 11
-0.125
 21
2.125
 31
0.0
  0
LINE
  5
A5
330
2
100
AcDbEntity
  8
0
100
AcDbLine
 10
-0.125
 20
2.874999999999999
 30
0.0
 11
-0.375
 21
2.874999999999999
 31
0.0
  0
LINE
  5
A6
330
2
100
AcDbEntity
  8
0
100
AcDbLine
 10
-0.375
 20
3.624999999999999
 30
0.0
 11
-0.125
 21
3.624999999999999
 31
0.0
  0
ARC
  5
A7
330
2
100
AcDbEntity
  8
0
100
AcDbCircle
 10
-0.375
 20
2.749999999999999
 30
0.0
 40
0.125
100
AcDbArc
 50
90.0
 51
180.0
  0
ARC
  5
A8
330
2
100
AcDbEntity
  8
0
100
AcDbCircle
 10
-0.375
 20
2.25
 30
0.0
 40
0.125
100
AcDbArc
 50
180.0
 51
270.0
  0
LINE
  5
A9
330
2
100
AcDbEntity
  8
0
100
AcDbLine
 10
-0.5
 20
2.749999999999999
 30
0.0
 11
-0.5
 21
2.25
 31
0.0
  0
CIRCLE
  5
AA
330
2
100
AcDbEntity
  8
0
100
AcDbCircle
 10
-0.25
 20
2.5
 30
0.0
 40
0.078
  0
ARC
  5
AB
330
2
100
AcDbEntity
  8
0
100
AcDbCircle
 10
-0.375
 20
3.749999999999999
 30
0.0
 40
0.125
100
AcDbArc
 50
180.0
 51
270.0
  0
LINE
  5
AC
330
2
100
AcDbEntity
  8
0
100
AcDbLine
 10
0.0
 20
2.125
 30
0.0
 11
0.15625
 21
2.078125
 31
0.0
  0
LINE
  5
AD
330
2
100
AcDbEntity
  8
0
100
AcDbLine
 10
0.15625
 20
2.171875
 30
0.0
 11
0.0
 21
2.125
 31
0.0
  0
ARC
  5
AE
330
2
100
AcDbEntity
  8
0
100
AcDbCircle
 10
-0.125
 20
2.0
 30
0.0
 40
0.125
100
AcDbArc
 50
0.0
 51
90.0
  0
LINE
  5
AF
330
2
100
AcDbEntity
  8
0
100
AcDbLine
 10
0.15625
 20
2.125
 30
0.0
 11
0.3125
 21
2.125
 31
0.0
  0
LINE
  5
B0
330
2
100
AcDbEntity
  8
0
100
AcDbLine
 10
0.15625
 20
2.078125
 30
0.0
 11
0.15625
 21
2.171875
 31
0.0
  0
CIRCLE
  5
B1
330
2
100
AcDbEntity
  8
0
100
AcDbCircle
 10
0.5
 20
3.249999999999999
 30
0.0
 40
0.078
  0
LINE
  5
B2
330
2
100
AcDbEntity
  8
0
100
AcDbLine
 10
0.0
 20
3.499999999999999
 30
0.0
 11
0.0
 21
2.999999999999999
 31
0.0
  0
ARC
  5
B3
330
2
100
AcDbEntity
  8
0
100
AcDbCircle
 10
-0.125
 20
2.999999999999999
 30
0.0
 40
0.125
100
AcDbArc
 50
270.0
 51
0.0
  0
ARC
  5
B4
330
2
100
AcDbEntity
  8
0
100
AcDbCircle
 10
-0.125
 20
3.499999999999999
 30
0.0
 40
0.125
100
AcDbArc
 50
0.0
 51
90.0
  0
CIRCLE
  5
B5
330
2
100
AcDbEntity
  8
0
100
AcDbCircle
 10
-0.25
 20
3.999999999999999
 30
0.0
 40
0.078
  0
LINE
  5
B6
330
2
100
AcDbEntity
  8
0
100
AcDbLine
 10
1.0
 20
4.093749999999999
 30
0.0
 11
1.0
 21
3.937499999999999
 31
0.0
  0
LINE
  5
B7
330
2
100
AcDbEntity
  8
0
100
AcDbLine
 10
0.953125
 20
4.093749999999999
 30
0.0
 11
1.046875
 21
4.093749999999999
 31
0.0
  0
LINE
  5
B8
330
2
100
AcDbEntity
  8
0
100
AcDbLine
 10
1.0
 20
4.249999999999999
 30
0.0
 11
0.953125
 21
4.093749999999999
 31
0.0
  0
LINE
  5
B9
330
2
100
AcDbEntity
  8
0
100
AcDbLine
 10
1.046875
 20
4.093749999999999
 30
0.0
 11
1.0
 21
4.249999999999999
 31
0.0
  0
LINE
  5
BA
330
2
100
AcDbEntity
  8
0
100
AcDbLine
 10
2.0
 20
3.749999999999999
 30
0.0
 11
2.0
 21
4.249999999999999
 31
0.0
  0
LINE
  5
BB
330
2
100
AcDbEntity
  8
0
100
AcDbLine
 10
2.375
 20
3.624999999999999
 30
0.0
 11
2.125
 21
3.624999999999999
 31
0.0
  0
LINE
  5
BC
330
2
100
AcDbEntity
  8
0
100
AcDbLine
 10
2.125
 20
2.874999999999999
 30
0.0
 11
2.375
 21
2.874999999999999
 31
0.0
  0
LINE
  5
BD
330
2
100
AcDbEntity
  8
0
100
AcDbLine
 10
2.375
 20
2.125
 30
0.0
 11
2.125
 21
2.125
 31
0.0
  0
CIRCLE
  5
BE
330
2
100
AcDbEntity
  8
0
100
AcDbCircle
 10
2.25
 20
3.249999999999999
 30
0.0
 40
0.078
  0
ARC
  5
BF
330
2
100
AcDbEntity
  8
0
100
AcDbCircle
 10
2.125
 20
2.749999999999999
 30
0.0
 40
0.125
100
AcDbArc
 50
90.0
 51
180.0
  0
CIRCLE
  5
C0
330
2
100
AcDbEntity
  8
0
100
AcDbCircle
 10
1.5
 20
2.5
 30
0.0
 40
0.078
  0
ARC
  5
C1
330
2
100
AcDbEntity
  8
0
100
AcDbCircle
 10
2.125
 20
2.25
 30
0.0
 40
0.125
100
AcDbArc
 50
180.0
 51
270.0
  0
LINE
  5
C2
330
2
100
AcDbEntity
  8
0
100
AcDbLine
 10
2.0
 20
2.125
 30
0.0
 11
1.84375
 21
2.078125
 31
0.0
  0
LINE
  5
C3
330
2
100
AcDbEntity
  8
0
100
AcDbLine
 10
1.84375
 20
2.171875
 30
0.0
 11
2.0
 21
2.125
 31
0.0
  0
LINE
  5
C4
330
2
100
AcDbEntity
  8
0
100
AcDbLine
 10
1.84375
 20
2.125
 30
0.0
 11
1.6875
 21
2.125
 31
0.0
  0
LINE
  5
C5
330
2
100
AcDbEntity
  8
0
100
AcDbLine
 10
1.84375
 20
2.078125
 30
0.0
 11
1.84375
 21
2.171875
 31
0.0
  0
LINE
  5
C6
330
2
100
AcDbEntity
  8
0
100
AcDbLine
 10
2.0
 20
2.25
 30
0.0
 11
2.0
 21
2.749999999999999
 31
0.0
  0
ARC
  5
C7
330
2
100
AcDbEntity
  8
0
100
AcDbCircle
 10
2.125
 20
3.749999999999999
 30
0.0
 40
0.125
100
AcDbArc
 50
180.0
 51
270.0
  0
ARC
  5
C8
330
2
100
AcDbEntity
  8
0
100
AcDbCircle
 10
2.375
 20
2.0
 30
0.0
 40
0.125
100
AcDbArc
 50
0.0
 51
90.0
  0
LINE
  5
C9
330
2
100
AcDbEntity
  8
0
100
AcDbLine
 10
2.5
 20
2.999999999999999
 30
0.0
 11
2.5
 21
3.499999999999999
 31
0.0
  0
ARC
  5
CA
330
2
100
AcDbEntity
  8
0
100
AcDbCircle
 10
2.375
 20
2.999999999999999
 30
0.0
 40
0.125
100
AcDbArc
 50
270.0
 51
0.0
  0
ARC
  5
CB
330
2
100
AcDbEntity
  8
0
100
AcDbCircle
 10
2.375
 20
3.499999999999999
 30
0.0
 40
0.125
100
AcDbArc
 50
0.0
 51
90.0
  0
CIRCLE
  5
CC
330
2
100
AcDbEntity
  8
0
100
AcDbCircle
 10
1.5
 20
3.999999999999999
 30
0.0
 40
0.078
  0
ENDSEC
  0
SECTION
  2
OBJECTS
  0
DICTIONARY
  5
9
330
0
100
AcDbDictionary
281
     1
  3
ACAD_COLOR
350
7E
  3
ACAD_GROUP
350
23
  3
ACAD_LAYOUT
350
D
  3
ACAD_MATERIAL
350
7D
  3
ACAD_MLINESTYLE
350
24
  3
ACAD_PLOTSETTINGS
350
25
  3
ACAD_PLOTSTYLENAME
350
8
  3
ACAD_TABLESTYLE
350
7F
  3
ACDBHEADERROUNDTRIPXREC
350
EA
  3
AcDbVariableDictionary
350
79
  0
DICTIONARY
  5
3
330
2
100
AcDbDictionary
280
     1
281
     1
  3
ACAD_SORTENTS
360
CD
  0
DICTIONARY
  5
7E
102
{ACAD_REACTORS
330
9
102
}
330
9
100
AcDbDictionary
281
     1
  0
DICTIONARY
  5
23
102
{ACAD_REACTORS
330
9
102
}
330
9
100
AcDbDictionary
281
     1
  0
DICTIONARY
  5
D
102
{ACAD_REACTORS
330
9
102
}
330
9
100
AcDbDictionary
281
     1
  3
Layout1
350
13
  3
Model
350
C
  0
DICTIONARY
  5
7D
102
{ACAD_REACTORS
330
9
102
}
330
9
100
AcDbDictionary
281
     1
  0
DICTIONARY
  5
24
102
{ACAD_REACTORS
330
9
102
}
330
9
100
AcDbDictionary
281
     1
  3
STANDARD
350
27
  0
DICTIONARY
  5
25
102
{ACAD_REACTORS
330
9
102
}
330
9
100
AcDbDictionary
281
     1
  0
ACDBDICTIONARYWDFLT
  5
8
102
{ACAD_REACTORS
330
9
102
}
330
9
100
AcDbDictionary
281
     1
  3
Normal
350
7
100
AcDbDictionaryWithDefault
340
7
  0
DICTIONARY
  5
7F
102
{ACAD_REACTORS
330
9
102
}
330
9
100
AcDbDictionary
281
     1
  3
Standard
350
80
  0
DICTIONARY
  5
EA
102
{ACAD_REACTORS
330
9
102
}
330
9
100
AcDbDictionary
281
     1
  3
COLORDICT
350
EB
  3
MATERIALDICT
350
EC
  0
DICTIONARY
  5
79
102
{ACAD_REACTORS
330
9
102
}
330
9
100
AcDbDictionary
281
     1
  3
CTABLESTYLE
350
D5
  3
HIDETEXT
350
E9
  0
SORTENTSTABLE
  5
CD
102
{ACAD_REACTORS
330
3
102
}
330
3
100
AcDbSortentsTable
330
2
331
9B
  5
9B
331
8E
  5
8E
331
B2
  5
B2
331
C2
  5
C2
331
BC
  5
BC
331
85
  5
85
331
8B
  5
8B
331
84
  5
84
331
C5
  5
C5
331
B7
  5
B7
331
97
  5
97
331
AF
  5
AF
331
B1
  5
B1
331
C9
  5
C9
331
C1
  5
C1
331
AC
  5
AC
331
C0
  5
C0
331
9C
  5
9C
331
CB
  5
CB
331
A7
  5
A7
331
A8
  5
A8
331
86
  5
86
331
BA
  5
BA
331
90
  5
90
331
C7
  5
C7
331
B9
  5
B9
331
92
  5
92
331
9A
  5
9A
331
96
  5
96
331
AD
  5
AD
331
A0
  5
A0
331
BD
  5
BD
331
C8
  5
C8
331
8F
  5
8F
331
AE
  5
AE
331
A1
  5
A1
331
94
  5
94
331
B8
  5
B8
331
B6
  5
B6
331
89
  5
89
331
B3
  5
B3
331
8A
  5
8A
331
B4
  5
B4
331
A5
  5
A5
331
93
  5
93
331
9D
  5
9D
331
C6
  5
C6
331
99
  5
99
331
A2
  5
A2
331
BE
  5
BE
331
A9
  5
A9
331
8D
  5
8D
331
9E
  5
9E
331
BF
  5
BF
331
95
  5
95
331
A6
  5
A6
331
98
  5
98
331
91
  5
91
331
AB
  5
AB
331
87
  5
87
331
CC
  5
CC
331
C3
  5
C3
331
9F
  5
9F
331
AA
  5
AA
331
B0
  5
B0
331
A3
  5
A3
331
C4
  5
C4
331
B5
  5
B5
331
BB
  5
BB
331
CA
  5
CA
331
8C
  5
8C
331
83
  5
83
331
A4
  5
A4
331
88
  5
88
  0
LAYOUT
  5
13
102
{ACAD_REACTORS
330
D
102
}
102
{ACAD_XDICTIONARY
360
ED
102
}
330
D
100
AcDbPlotSettings
  1

  2
HP LaserJet 2100 Series PS
  4

  6

 40
0.0
 41
0.0
 42
0.0
 43
0.0
 44
0.0
 45
0.0
 46
0.0
 47
0.0
 48
0.0
 49
0.0
140
0.0
141
0.0
142
1.0
143
1.0
 70
   688
 72
     0
 73
     0
 74
     5
  7

 75
    16
147
1.0
148
0.0
149
0.0
100
AcDbLayout
  1
Layout1
 70
     0
 71
     1
 10
0.0
 20
0.0
 11
12.0
 21
9.0
 12
0.0
 22
0.0
 32
0.0
 14
1.000000000000000E+20
 24
1.000000000000000E+20
 34
1.000000000000000E+20
 15
-1.000000000000000E+20
 25
-1.000000000000000E+20
 35
-1.000000000000000E+20
146
0.0
 13
0.0
 23
0.0
 33
0.0
 16
1.0
 26
0.0
 36
0.0
 17
0.0
 27
1.0
 37
0.0
 76
     0
330
E
  0
LAYOUT
  5
C
102
{ACAD_REACTORS
330
D
102
}
102
{ACAD_XDICTIONARY
360
EF
102
}
330
D
100
AcDbPlotSettings
  1

  2
HP LaserJet 4.pc3
  4
Letter
  6

 40
7.143749713897705
 41
6.127734661102295
 42
7.14373779296875
 43
7.14373779296875
 44
215.8999938964844
 45
279.3999938964844
 46
0.0
 47
0.0
 48
0.0
 49
0.0
140
0.0
141
0.0
142
1.0
143
1.259842479757396
 70
 11952
 72
     0
 73
     2
 74
     2
  7

 75
     0
147
0.7937500251559759
148
0.0
149
0.0
100
AcDbLayout
  1
Model
 70
     1
 71
     0
 10
0.0
 20
0.0
 11
12.0
 21
9.0
 12
0.0
 22
0.0
 32
0.0
 14
0.0
 24
0.0
 34
0.0
 15
0.0
 25
0.0
 35
0.0
146
0.0
 13
0.0
 23
0.0
 33
0.0
 16
1.0
 26
0.0
 36
0.0
 17
0.0
 27
1.0
 37
0.0
 76
     0
330
2
  0
MLINESTYLE
  5
27
102
{ACAD_REACTORS
330
24
102
}
330
24
100
AcDbMlineStyle
  2
STANDARD
 70
     0
  3

 62
   256
 51
90.0
 52
90.0
 71
     2
 49
0.5
 62
   256
  6
BYLAYER
 49
-0.5
 62
   256
  6
BYLAYER
  0
ACDBPLACEHOLDER
  5
7
102
{ACAD_REACTORS
330
8
102
}
330
8
  0
ACAD_PROXY_OBJECT
  5
80
102
{ACAD_REACTORS
330
7F
102
}
330
7F
100
AcDbProxyObject
 90
      499
 91
      529
 95
   983063
 70
     0
 93
     1841
310
4214DD185B99185C9928B81E85EB51B8AE3F2E07A17AD46E2B8FC02B5E8DC0F42B1CFD028000000C1008070000C3001FDFF8000000C1003FBFF000000182007F7FE00000030400FEFFC00000060801FDFF8000000C1003FBFF00000018200000000000000681FA0B0000001820100E000186003FBFF000000182007F7FE000
310
00030400FEFFC00000060801FDFF8000000C1003FBFF000000182007F7FE000000304000AD7A3703D0AC73F4160000003040201C00030C007F7FE00000030400FEFFC00000060801FDFF8000000C1003FBFF000000182007F7FE00000030400FEFFC000000608000
340
16
340
16
340
16
 94
        0
  0
XRECORD
  5
EB
102
{ACAD_REACTORS
330
EA
102
}
330
EA
100
AcDbXrecord
340
7E
  0
XRECORD
  5
EC
102
{ACAD_REACTORS
330
EA
102
}
330
EA
100
AcDbXrecord
340
7D
  0
DICTIONARYVAR
  5
D5
102
{ACAD_REACTORS
330
79
102
}
330
79
100
DictionaryVariables
280
     0
  1
STANDARD
  0
DICTIONARYVAR
  5
E9
102
{ACAD_REACTORS
330
79
102
}
330
79
100
DictionaryVariables
280
     0
  1
0
  0
DICTIONARY
  5
ED
330
13
100
AcDbDictionary
280
     1
281
     1
  3
ACAD_XREC_ROUNDTRIP
360
EE
  0
DICTIONARY
  5
EF
330
C
100
AcDbDictionary
280
     1
281
     1
  3
ACAD_XREC_ROUNDTRIP
360
F0
  0
XRECORD
  5
EE
102
{ACAD_REACTORS
330
ED
102
}
330
ED
100
AcDbXrecord
102
SHADEPLOT
 70
     0
102
SHADEPLOTRESLEVEL
 70
     2
102
SHADEPLOTCUSTOMDPI
 70
   300
  0
XRECORD
  5
F0
102
{ACAD_REACTORS
330
EF
102
}
330
EF
100
AcDbXrecord
102
SHADEPLOT
 70
     0
102
SHADEPLOTRESLEVEL
 70
     2
102
SHADEPLOTCUSTOMDPI
 70
   300
  0
ENDSEC
  0
EOF
