  0
SECTION
  2
HEADER
  9
$ACADVER
  1
AC1015
  9
$ACADMAINTVER
 70
     6
  9
$DWGCODEPAGE
  3
ANSI_1252
  9
$INSBASE
 10
0.0
 20
0.0
 30
0.0
  9
$EXTMIN
 10
-7.30222105408221
 20
-0.0012268400668489
 30
-0.0000000349181948
  9
$EXTMAX
 10
5.801018200167469
 20
20.20416892204959
 30
0.0000000814935746
  9
$LIMMIN
 10
0.0
 20
0.0
  9
$LIMMAX
 10
26.25
 20
20.0
  9
$ORTHOMODE
 70
     1
  9
$REGENMODE
 70
     1
  9
$FILLMODE
 70
     1
  9
$QTEXTMODE
 70
     0
  9
$MIRRTEXT
 70
     1
  9
$LTSCALE
 40
0.5
  9
$ATTMODE
 70
     1
  9
$TEXTSIZE
 40
0.225
  9
$TRACEWID
 40
0.05
  9
$TEXTSTYLE
  7
STANDARD
  9
$CLAYER
  8
OBJECT
  9
$CELTYPE
  6
BYLAYER
  9
$CECOLOR
 62
   256
  9
$CELTSCALE
 40
1.0
  9
$DISPSILH
 70
     0
  9
$DIMSCALE
 40
2.5
  9
$DIMASZ
 40
0.125
  9
$DIMEXO
 40
0.062
  9
$DIMDLI
 40
0.375
  9
$DIMRND
 40
0.0
  9
$DIMDLE
 40
0.0
  9
$DIMEXE
 40
0.08
  9
$DIMTP
 40
0.0
  9
$DIMTM
 40
0.0
  9
$DIMTXT
 40
0.09
  9
$DIMCEN
 40
-0.03125
  9
$DIMTSZ
 40
0.0
  9
$DIMTOL
 70
     0
  9
$DIMLIM
 70
     0
  9
$DIMTIH
 70
     1
  9
$DIMTOH
 70
     1
  9
$DIMSE1
 70
     0
  9
$DIMSE2
 70
     0
  9
$DIMTAD
 70
     0
  9
$DIMZIN
 70
     0
  9
$DIMBLK
  1

  9
$DIMASO
 70
     0
  9
$DIMSHO
 70
     0
  9
$DIMPOST
  1

  9
$DIMAPOST
  1

  9
$DIMALT
 70
     0
  9
$DIMALTD
 70
     2
  9
$DIMALTF
 40
25.4
  9
$DIMLFAC
 40
1.0
  9
$DIMTOFL
 70
     0
  9
$DIMTVP
 40
0.0
  9
$DIMTIX
 70
     0
  9
$DIMSOXD
 70
     0
  9
$DIMSAH
 70
     0
  9
$DIMBLK1
  1

  9
$DIMBLK2
  1

  9
$DIMSTYLE
  2
STANDARD
  9
$DIMCLRD
 70
     0
  9
$DIMCLRE
 70
     0
  9
$DIMCLRT
 70
     0
  9
$DIMTFAC
 40
1.0
  9
$DIMGAP
 40
0.09
  9
$DIMJUST
 70
     0
  9
$DIMSD1
 70
     0
  9
$DIMSD2
 70
     0
  9
$DIMTOLJ
 70
     1
  9
$DIMTZIN
 70
     0
  9
$DIMALTZ
 70
     0
  9
$DIMALTTZ
 70
     0
  9
$DIMUPT
 70
     0
  9
$DIMDEC
 70
     5
  9
$DIMTDEC
 70
     5
  9
$DIMALTU
 70
     5
  9
$DIMALTTD
 70
     2
  9
$DIMTXSTY
  7
STANDARD
  9
$DIMAUNIT
 70
     0
  9
$DIMADEC
 70
     0
  9
$DIMALTRND
 40
0.0
  9
$DIMAZIN
 70
     0
  9
$DIMDSEP
 70
    46
  9
$DIMATFIT
 70
     3
  9
$DIMFRAC
 70
     0
  9
$DIMLDRBLK
  1

  9
$DIMLUNIT
 70
     5
  9
$DIMLWD
 70
    -2
  9
$DIMLWE
 70
    -2
  9
$DIMTMOVE
 70
     2
  9
$LUNITS
 70
     5
  9
$LUPREC
 70
     5
  9
$SKETCHINC
 40
0.1
  9
$FILLETRAD
 40
0.0937
  9
$AUNITS
 70
     0
  9
$AUPREC
 70
     0
  9
$MENU
  1
acad
  9
$ELEVATION
 40
0.0
  9
$PELEVATION
 40
0.0
  9
$THICKNESS
 40
0.0
  9
$LIMCHECK
 70
     0
  9
$CHAMFERA
 40
0.25
  9
$CHAMFERB
 40
0.25
  9
$CHAMFERC
 40
0.0
  9
$CHAMFERD
 40
0.0
  9
$SKPOLY
 70
     0
  9
$TDCREATE
 40
2450368.739317477
  9
$TDUCREATE
 40
2450369.07265081
  9
$TDUPDATE
 40
2454181.842894236
  9
$TDUUPDATE
 40
2454182.17622757
  9
$TDINDWG
 40
0.0153753704
  9
$TDUSRTIMER
 40
0.0153753704
  9
$USRTIMER
 70
     1
  9
$ANGBASE
 50
0.0
  9
$ANGDIR
 70
     0
  9
$PDMODE
 70
     0
  9
$PDSIZE
 40
0.0
  9
$PLINEWID
 40
0.0
  9
$SPLFRAME
 70
     0
  9
$SPLINETYPE
 70
     6
  9
$SPLINESEGS
 70
     8
  9
$HANDSEED
  5
10E
  9
$SURFTAB1
 70
     6
  9
$SURFTAB2
 70
     6
  9
$SURFTYPE
 70
     6
  9
$SURFU
 70
     6
  9
$SURFV
 70
     6
  9
$UCSBASE
  2

  9
$UCSNAME
  2

  9
$UCSORG
 10
0.0
 20
0.0
 30
0.0
  9
$UCSXDIR
 10
1.0
 20
0.0
 30
0.0
  9
$UCSYDIR
 10
0.0
 20
1.0
 30
0.0
  9
$UCSORTHOREF
  2

  9
$UCSORTHOVIEW
 70
     0
  9
$UCSORGTOP
 10
0.0
 20
0.0
 30
0.0
  9
$UCSORGBOTTOM
 10
0.0
 20
0.0
 30
0.0
  9
$UCSORGLEFT
 10
0.0
 20
0.0
 30
0.0
  9
$UCSORGRIGHT
 10
0.0
 20
0.0
 30
0.0
  9
$UCSORGFRONT
 10
0.0
 20
0.0
 30
0.0
  9
$UCSORGBACK
 10
0.0
 20
0.0
 30
0.0
  9
$PUCSBASE
  2

  9
$PUCSNAME
  2

  9
$PUCSORG
 10
0.0
 20
0.0
 30
0.0
  9
$PUCSXDIR
 10
1.0
 20
0.0
 30
0.0
  9
$PUCSYDIR
 10
0.0
 20
1.0
 30
0.0
  9
$PUCSORTHOREF
  2

  9
$PUCSORTHOVIEW
 70
     0
  9
$PUCSORGTOP
 10
0.0
 20
0.0
 30
0.0
  9
$PUCSORGBOTTOM
 10
0.0
 20
0.0
 30
0.0
  9
$PUCSORGLEFT
 10
0.0
 20
0.0
 30
0.0
  9
$PUCSORGRIGHT
 10
0.0
 20
0.0
 30
0.0
  9
$PUCSORGFRONT
 10
0.0
 20
0.0
 30
0.0
  9
$PUCSORGBACK
 10
0.0
 20
0.0
 30
0.0
  9
$USERI1
 70
     0
  9
$USERI2
 70
     0
  9
$USERI3
 70
     0
  9
$USERI4
 70
     0
  9
$USERI5
 70
     0
  9
$USERR1
 40
0.0
  9
$USERR2
 40
0.0
  9
$USERR3
 40
0.0
  9
$USERR4
 40
0.0
  9
$USERR5
 40
0.0
  9
$WORLDVIEW
 70
     1
  9
$SHADEDGE
 70
     3
  9
$SHADEDIF
 70
    70
  9
$TILEMODE
 70
     1
  9
$MAXACTVP
 70
    16
  9
$PINSBASE
 10
0.0
 20
0.0
 30
0.0
  9
$PLIMCHECK
 70
     0
  9
$PEXTMIN
 10
1.000000000000000E+20
 20
1.000000000000000E+20
 30
1.000000000000000E+20
  9
$PEXTMAX
 10
-1.000000000000000E+20
 20
-1.000000000000000E+20
 30
-1.000000000000000E+20
  9
$PLIMMIN
 10
0.0
 20
0.0
  9
$PLIMMAX
 10
12.0
 20
9.0
  9
$UNITMODE
 70
     0
  9
$VISRETAIN
 70
     0
  9
$PLINEGEN
 70
     0
  9
$PSLTSCALE
 70
     0
  9
$TREEDEPTH
 70
  3020
  9
$CMLSTYLE
  2
STANDARD
  9
$CMLJUST
 70
     0
  9
$CMLSCALE
 40
1.0
  9
$PROXYGRAPHICS
 70
     1
  9
$MEASUREMENT
 70
     0
  9
$CELWEIGHT
370
    -1
  9
$ENDCAPS
280
     0
  9
$JOINSTYLE
280
     0
  9
$LWDISPLAY
290
     0
  9
$INSUNITS
 70
     0
  9
$HYPERLINKBASE
  1

  9
$STYLESHEET
  1

  9
$XEDIT
290
     1
  9
$CEPSNTYPE
380
     0
  9
$PSTYLEMODE
290
     1
  9
$FINGERPRINTGUID
  2
{1D8686F9-DE8B-4E5C-980C-AFE48A3010F2}
  9
$VERSIONGUID
  2
{FC4DB28B-05A4-4BA0-858C-995C526B0BD9}
  9
$EXTNAMES
290
     1
  9
$PSVPSCALE
 40
0.0
  9
$OLESTARTUP
290
     0
  0
ENDSEC
  0
SECTION
  2
CLASSES
  0
CLASS
  1
DICTIONARYVAR
  2
AcDbDictionaryVar
  3
AutoCAD 2000
 90
        0
280
     0
281
     0
  0
CLASS
  1
LWPOLYLINE
  2
AcDbPolyline
  3
AutoCAD 2000
 90
        0
280
     0
281
     1
  0
CLASS
  1
ACDBDICTIONARYWDFLT
  2
AcDbDictionaryWithDefault
  3
AutoCAD 2000
 90
        0
280
     0
281
     0
  0
CLASS
  1
ACDBPLACEHOLDER
  2
AcDbPlaceHolder
  3
ObjectDBX Classes
 90
        0
280
     0
281
     0
  0
CLASS
  1
LAYOUT
  2
AcDbLayout
  3
ObjectDBX Classes
 90
        0
280
     0
281
     0
  0
CLASS
  1
LONG_TRANSACTION
  2
AcDbLongTransaction
  3
ObjectDBX Classes
 90
   -65536
280
     1
281
     0
  0
CLASS
  1
LWPOLYLINE
  2
AcDbPolyline
  3
AutoCAD 2000
 90
        0
280
     0
281
     1
  0
CLASS
  1
HATCH
  2
AcDbHatch
  3
AutoCAD 2000
 90
        0
280
     0
281
     1
  0
CLASS
  1
XRECORD
  2
AcDbXrecord
  3
AutoCAD 2000
 90
        0
280
     0
281
     0
  0
CLASS
  1
TABLESTYLE
  2
AcDbTableStyle
  3
ObjectDBX Classes
 90
     2047
280
     1
281
     0
  0
CLASS
  1
SORTENTSTABLE
  2
AcDbSortentsTable
  3
AutoCAD 2000
 90
        0
280
     0
281
     0
  0
ENDSEC
  0
SECTION
  2
TABLES
  0
TABLE
  2
VPORT
  5
1D
330
0
100
AcDbSymbolTable
 70
     2
  0
VPORT
  5
100
330
1D
100
AcDbSymbolTableRecord
100
AcDbViewportTableRecord
  2
*Active
 70
     0
 10
0.0
 20
0.0
 11
1.0
 21
1.0
 12
9.473889472958895
 22
10.10147104099137
 13
0.0
 23
0.0
 14
0.03125
 24
0.03125
 15
0.25
 25
0.25
 16
0.0
 26
0.0
 36
1.0
 17
0.0
 27
0.0
 37
0.0
 40
20.45743812089544
 41
1.814583333333333
 42
50.0
 43
0.0
 44
0.0
 50
0.0
 51
0.0
 71
     0
 72
   100
 73
     1
 74
     0
 75
     0
 76
     0
 77
     0
 78
     0
281
     0
 65
     1
110
0.0
120
0.0
130
0.0
111
1.0
121
0.0
131
0.0
112
0.0
122
1.0
132
0.0
 79
     0
146
0.0
  0
ENDTAB
  0
TABLE
  2
LTYPE
  5
18
330
0
100
AcDbSymbolTable
 70
     2
  0
LTYPE
  5
19
330
18
100
AcDbSymbolTableRecord
100
AcDbLinetypeTableRecord
  2
BYBLOCK
 70
     0
  3

 72
    65
 73
     0
 40
0.0
  0
LTYPE
  5
1A
330
18
100
AcDbSymbolTableRecord
100
AcDbLinetypeTableRecord
  2
BYLAYER
 70
     0
  3

 72
    65
 73
     0
 40
0.0
  0
LTYPE
  5
A
330
18
100
AcDbSymbolTableRecord
100
AcDbLinetypeTableRecord
  2
CONTINUOUS
 70
     0
  3
Solid line
 72
    65
 73
     0
 40
0.0
  0
LTYPE
  5
DE
330
18
100
AcDbSymbolTableRecord
100
AcDbLinetypeTableRecord
  2
HIDDEN
 70
     0
  3
Hidden __ __ __ __ __ __ __ __ __ __ __ __ __ _
 72
    65
 73
     2
 40
0.375
 49
0.25
 74
     0
 49
-0.125
 74
     0
  0
ENDTAB
  0
TABLE
  2
LAYER
  5
14
330
0
100
AcDbSymbolTable
 70
     2
  0
LAYER
  5
6
330
14
100
AcDbSymbolTableRecord
100
AcDbLayerTableRecord
  2
0
 70
     0
 62
    -1
  6
CONTINUOUS
370
    -3
390
7
  0
LAYER
  5
26
330
14
100
AcDbSymbolTableRecord
100
AcDbLayerTableRecord
  2
OBJECT
 70
     0
 62
     7
  6
CONTINUOUS
370
    -3
390
7
  0
ENDTAB
  0
TABLE
  2
STYLE
  5
15
330
0
100
AcDbSymbolTable
 70
     2
  0
STYLE
  5
16
330
15
100
AcDbSymbolTableRecord
100
AcDbTextStyleTableRecord
  2
STANDARD
 70
     0
 40
0.0
 41
1.0
 50
0.0
 71
     0
 42
0.225
  3
TXT
  4

  0
STYLE
  5
DD
330
15
100
AcDbSymbolTableRecord
100
AcDbTextStyleTableRecord
  2

 70
     1
 40
0.0
 41
1.0
 50
0.0
 71
     0
 42
0.225
  3
ltypeshp.shx
  4

  0
ENDTAB
  0
TABLE
  2
VIEW
  5
1B
330
0
100
AcDbSymbolTable
 70
     0
  0
ENDTAB
  0
TABLE
  2
UCS
  5
1C
330
0
100
AcDbSymbolTable
 70
     0
  0
ENDTAB
  0
TABLE
  2
APPID
  5
1F
330
0
100
AcDbSymbolTable
 70
     1
  0
APPID
  5
20
330
1F
100
AcDbSymbolTableRecord
100
AcDbRegAppTableRecord
  2
ACAD
 70
     0
  0
ENDTAB
  0
TABLE
  2
DIMSTYLE
  5
21
330
0
100
AcDbSymbolTable
 70
     1
100
AcDbDimStyleTable
  0
DIMSTYLE
105
28
330
21
100
AcDbSymbolTableRecord
100
AcDbDimStyleTableRecord
  2
STANDARD
 70
     0
  3

  4

340
16
  0
ENDTAB
  0
TABLE
  2
BLOCK_RECORD
  5
1
330
0
100
AcDbSymbolTable
 70
     0
  0
BLOCK_RECORD
  5
2
102
{ACAD_XDICTIONARY
360
3
102
}
330
1
100
AcDbSymbolTableRecord
100
AcDbBlockTableRecord
  2
*MODEL_SPACE
340
C
  0
BLOCK_RECORD
  5
E
330
1
100
AcDbSymbolTableRecord
100
AcDbBlockTableRecord
  2
*PAPER_SPACE
340
13
  0
ENDTAB
  0
ENDSEC
  0
SECTION
  2
BLOCKS
  0
BLOCK
  5
5
330
2
100
AcDbEntity
  8
0
100
AcDbBlockBegin
  2
*MODEL_SPACE
 70
     0
 10
0.0
 20
0.0
 30
0.0
  3
*MODEL_SPACE
  1

  4

  0
ENDBLK
  5
B
330
2
100
AcDbEntity
  8
0
100
AcDbBlockEnd
  0
BLOCK
  5
11
330
E
100
AcDbEntity
 67
     1
  8
0
100
AcDbBlockBegin
  2
*PAPER_SPACE
 70
     0
 10
0.0
 20
0.0
 30
0.0
  3
*PAPER_SPACE
  1

  4

  0
ENDBLK
  5
12
330
E
100
AcDbEntity
 67
     1
  8
0
100
AcDbBlockEnd
  0
ENDSEC
  0
SECTION
  2
ENTITIES
  0
LINE
  5
8E
330
2
100
AcDbEntity
  8
OBJECT
100
AcDbLine
 10
-0.1249999999999929
 20
19.75
 30
0.0
 11
-0.1249999999999965
 21
12.1875
 31
0.0
  0
LINE
  5
8F
330
2
100
AcDbEntity
  8
OBJECT
100
AcDbLine
 10
-1.374999999999993
 20
19.75
 30
0.0
 11
-1.374999999999996
 21
12.1875
 31
0.0
  0
LINE
  5
90
330
2
100
AcDbEntity
  8
OBJECT
100
AcDbLine
 10
0.0625000000000071
 20
10.9574936525586
 30
0.0
 11
0.0625
 21
0.0000000000000036
 31
0.0
  0
LINE
  5
91
330
2
100
AcDbEntity
  8
OBJECT
100
AcDbLine
 10
0.0
 20
11.09022038567494
 30
0.0
 11
0.0
 21
0.0
 31
0.0
  0
LINE
  5
92
330
2
100
AcDbEntity
  8
OBJECT
100
AcDbLine
 10
0.0
 20
0.0
 30
0.0
 11
0.0625
 21
0.0000000000000036
 31
0.0
  0
LINE
  5
93
330
2
100
AcDbEntity
  8
OBJECT
100
AcDbLine
 10
0.0
 20
8.90977961432508
 30
0.0
 11
-1.323076923076918
 21
11.18461538461538
 31
0.0
  0
ARC
  5
96
330
2
100
AcDbEntity
  8
OBJECT
100
AcDbCircle
 10
0.2500000000000036
 20
11.40625
 30
0.0
 40
0.375
100
AcDbArc
 50
180.0
 51
210.5102617969134
  0
LINE
  5
97
330
2
100
AcDbEntity
  8
OBJECT
100
AcDbLine
 10
-0.1249999999999965
 20
12.0625
 30
0.0
 11
-0.1249999999999965
 21
11.40625
 31
0.0
  0
LINE
  5
98
330
2
100
AcDbEntity
  8
OBJECT
100
AcDbLine
 10
-1.374999999999996
 20
12.0625
 30
0.0
 11
-1.374999999999996
 21
11.375
 31
0.0
  0
ARC
  5
99
330
2
100
AcDbEntity
  8
OBJECT
100
AcDbCircle
 10
-0.9999999999999965
 20
11.375
 30
0.0
 40
0.375
100
AcDbArc
 50
180.0
 51
210.5102617969134
  0
ARC
  5
9A
330
2
100
AcDbEntity
  8
OBJECT
100
AcDbCircle
 10
-1.374999999999996
 20
12.125
 30
0.0
 40
0.0625
100
AcDbArc
 50
270.0
 51
89.99999999999999
  0
ARC
  5
9B
330
2
100
AcDbEntity
  8
OBJECT
100
AcDbCircle
 10
-0.1249999999999965
 20
12.125
 30
0.0
 40
0.0625
100
AcDbArc
 50
89.99999999999999
 51
270.0
  0
ARC
  5
9C
330
2
100
AcDbEntity
  8
OBJECT
100
AcDbCircle
 10
-0.0311999999999948
 20
10.95749365255859
 30
0.0
 40
0.0937
100
AcDbArc
 50
0.0
 51
30.18289319701726
  0
LINE
  5
9D
330
2
100
AcDbEntity
  8
OBJECT
100
AcDbLine
 10
-0.0730769230769184
 20
11.21586538461538
 30
0.0
 11
0.049796617825578
 21
11.0046024404948
 31
0.0
  0
CIRCLE
  5
9E
330
2
100
AcDbEntity
  8
OBJECT
100
AcDbCircle
 10
-0.9999999999999965
 20
18.6875
 30
0.0
 40
0.078125
  0
CIRCLE
  5
9F
330
2
100
AcDbEntity
  8
OBJECT
100
AcDbCircle
 10
-0.3749999999999965
 20
13.3125
 30
0.0
 40
0.078125
  0
CIRCLE
  5
A0
330
2
100
AcDbEntity
  8
OBJECT
100
AcDbCircle
 10
-0.9999999999999965
 20
12.6875
 30
0.0
 40
0.078125
  0
CIRCLE
  5
A1
330
2
100
AcDbEntity
  8
OBJECT
100
AcDbCircle
 10
-1.124999999999996
 20
13.6875
 30
0.0
 40
0.078125
  0
CIRCLE
  5
A2
330
2
100
AcDbEntity
  8
OBJECT
100
AcDbCircle
 10
-0.9999999999999965
 20
14.6875
 30
0.0
 40
0.078125
  0
CIRCLE
  5
A3
330
2
100
AcDbEntity
  8
OBJECT
100
AcDbCircle
 10
-0.4999999999999965
 20
14.3125
 30
0.0
 40
0.078125
  0
CIRCLE
  5
A4
330
2
100
AcDbEntity
  8
OBJECT
100
AcDbCircle
 10
-0.3749999999999965
 20
15.3125
 30
0.0
 40
0.078125
  0
CIRCLE
  5
A5
330
2
100
AcDbEntity
  8
OBJECT
100
AcDbCircle
 10
-0.4999999999999965
 20
16.3125
 30
0.0
 40
0.078125
  0
CIRCLE
  5
A6
330
2
100
AcDbEntity
  8
OBJECT
100
AcDbCircle
 10
-1.124999999999996
 20
15.6875
 30
0.0
 40
0.078125
  0
CIRCLE
  5
A7
330
2
100
AcDbEntity
  8
OBJECT
100
AcDbCircle
 10
-0.9999999999999965
 20
16.6875
 30
0.0
 40
0.078125
  0
CIRCLE
  5
A8
330
2
100
AcDbEntity
  8
OBJECT
100
AcDbCircle
 10
-1.124999999999996
 20
17.6875
 30
0.0
 40
0.078125
  0
CIRCLE
  5
A9
330
2
100
AcDbEntity
  8
OBJECT
100
AcDbCircle
 10
-0.3749999999999965
 20
17.3125
 30
0.0
 40
0.078125
  0
CIRCLE
  5
AA
330
2
100
AcDbEntity
  8
OBJECT
100
AcDbCircle
 10
-0.4999999999999965
 20
18.3125
 30
0.0
 40
0.078125
  0
CIRCLE
  5
AB
330
2
100
AcDbEntity
  8
OBJECT
100
AcDbCircle
 10
-0.7499999999999929
 20
19.5
 30
0.0
 40
0.1875
  0
CIRCLE
  5
AC
330
2
100
AcDbEntity
  8
OBJECT
100
AcDbCircle
 10
-0.3749999999999929
 20
19.3125
 30
0.0
 40
0.078125
  0
LINE
  5
AD
330
2
100
AcDbEntity
  8
OBJECT
100
AcDbLine
 10
-0.3749999999999929
 20
20.0
 30
0.0
 11
-1.124999999999993
 21
20.0
 31
0.0
  0
LINE
  5
AE
330
2
100
AcDbEntity
  8
OBJECT
100
AcDbLine
 10
-1.374999999999993
 20
19.75
 30
0.0
 11
-1.124999999999993
 21
20.0
 31
0.0
  0
CIRCLE
  5
AF
330
2
100
AcDbEntity
  8
OBJECT
100
AcDbCircle
 10
-1.124999999999993
 20
19.6875
 30
0.0
 40
0.078125
  0
LINE
  5
B0
330
2
100
AcDbEntity
  8
OBJECT
100
AcDbLine
 10
-0.3749999999999929
 20
20.0
 30
0.0
 11
-0.1249999999999929
 21
19.75
 31
0.0
  0
LINE
  5
B1
330
2
100
AcDbEntity
  8
OBJECT
100
AcDbLine
 10
4.412489272468406
 20
20.20336610474395
 30
0.0
 11
4.412489272468406
 21
11.30620660466525
 31
0.0
  0
LINE
  5
B2
330
2
100
AcDbEntity
  8
OBJECT
100
AcDbLine
 10
4.349989272468406
 20
20.20336610474395
 30
0.0
 11
4.349989272468406
 21
9.245872452185346
 31
0.0
  0
LINE
  5
B3
330
2
100
AcDbEntity
  8
OBJECT
100
AcDbLine
 10
5.787489272468406
 20
0.453366104743953
 30
0.0
 11
5.787489272468406
 21
8.828366104743953
 31
0.0
  0
LINE
  5
B4
330
2
100
AcDbEntity
  8
OBJECT
100
AcDbLine
 10
4.537489272468406
 20
0.453366104743953
 30
0.0
 11
4.537489272468406
 21
8.797116104743953
 31
0.0
  0
CIRCLE
  5
B5
330
2
100
AcDbEntity
  8
OBJECT
100
AcDbCircle
 10
5.412489272468399
 20
1.515866104743951
 30
0.0
 40
0.078125
  0
CIRCLE
  5
B6
330
2
100
AcDbEntity
  8
OBJECT
100
AcDbCircle
 10
5.537489272468399
 20
0.5158661047439512
 30
0.0
 40
0.078125
  0
LINE
  5
B7
330
2
100
AcDbEntity
  8
OBJECT
100
AcDbLine
 10
5.787489272468406
 20
0.453366104743953
 30
0.0
 11
5.537489272468406
 21
0.203366104743953
 31
0.0
  0
CIRCLE
  5
B8
330
2
100
AcDbEntity
  8
OBJECT
100
AcDbCircle
 10
5.162489272468399
 20
0.7033661047439512
 30
0.0
 40
0.1875
  0
LINE
  5
B9
330
2
100
AcDbEntity
  8
OBJECT
100
AcDbLine
 10
4.787489272468399
 20
0.2033661047439566
 30
0.0
 11
5.537489272468406
 21
0.203366104743953
 31
0.0
  0
LINE
  5
BA
330
2
100
AcDbEntity
  8
OBJECT
100
AcDbLine
 10
4.787489272468406
 20
0.203366104743953
 30
0.0
 11
4.537489272468406
 21
0.453366104743953
 31
0.0
  0
CIRCLE
  5
BB
330
2
100
AcDbEntity
  8
OBJECT
100
AcDbCircle
 10
4.787489272468399
 20
0.8908661047439512
 30
0.0
 40
0.078125
  0
CIRCLE
  5
BC
330
2
100
AcDbEntity
  8
OBJECT
100
AcDbCircle
 10
5.537489272468399
 20
2.515866104743951
 30
0.0
 40
0.078125
  0
CIRCLE
  5
BD
330
2
100
AcDbEntity
  8
OBJECT
100
AcDbCircle
 10
4.912489272468399
 20
1.890866104743951
 30
0.0
 40
0.078125
  0
CIRCLE
  5
BE
330
2
100
AcDbEntity
  8
OBJECT
100
AcDbCircle
 10
4.787489272468399
 20
2.890866104743951
 30
0.0
 40
0.078125
  0
CIRCLE
  5
BF
330
2
100
AcDbEntity
  8
OBJECT
100
AcDbCircle
 10
5.537489272468399
 20
4.515866104743951
 30
0.0
 40
0.078125
  0
CIRCLE
  5
C0
330
2
100
AcDbEntity
  8
OBJECT
100
AcDbCircle
 10
4.912489272468399
 20
3.890866104743951
 30
0.0
 40
0.078125
  0
CIRCLE
  5
C1
330
2
100
AcDbEntity
  8
OBJECT
100
AcDbCircle
 10
5.412489272468399
 20
3.515866104743951
 30
0.0
 40
0.078125
  0
CIRCLE
  5
C2
330
2
100
AcDbEntity
  8
OBJECT
100
AcDbCircle
 10
5.412489272468399
 20
5.515866104743951
 30
0.0
 40
0.078125
  0
CIRCLE
  5
C3
330
2
100
AcDbEntity
  8
OBJECT
100
AcDbCircle
 10
4.787489272468399
 20
4.890866104743951
 30
0.0
 40
0.078125
  0
CIRCLE
  5
C4
330
2
100
AcDbEntity
  8
OBJECT
100
AcDbCircle
 10
4.912489272468399
 20
5.890866104743951
 30
0.0
 40
0.078125
  0
LINE
  5
C5
330
2
100
AcDbEntity
  8
OBJECT
100
AcDbLine
 10
4.362692654642835
 20
11.37920443559899
 30
0.0
 11
5.735566195545324
 21
9.018750720128569
 31
0.0
  0
CIRCLE
  5
C6
330
2
100
AcDbEntity
  8
OBJECT
100
AcDbCircle
 10
5.537489272468399
 20
6.515866104743949
 30
0.0
 40
0.078125
  0
CIRCLE
  5
C7
330
2
100
AcDbEntity
  8
OBJECT
100
AcDbCircle
 10
4.787489272468399
 20
6.890866104743949
 30
0.0
 40
0.078125
  0
CIRCLE
  5
C8
330
2
100
AcDbEntity
  8
OBJECT
100
AcDbCircle
 10
5.412489272468399
 20
7.515866104743949
 30
0.0
 40
0.078125
  0
ARC
  5
C9
330
2
100
AcDbEntity
  8
OBJECT
100
AcDbCircle
 10
4.162489272468399
 20
8.797116104743949
 30
0.0
 40
0.375
100
AcDbArc
 50
0.0
 51
30.51023740611571
  0
ARC
  5
CA
330
2
100
AcDbEntity
  8
OBJECT
100
AcDbCircle
 10
4.443689272468404
 20
9.245872452185342
 30
0.0
 40
0.0937
100
AcDbArc
 50
180.0
 51
210.1828931970171
  0
LINE
  5
CB
330
2
100
AcDbEntity
  8
OBJECT
100
AcDbLine
 10
4.485566195545324
 20
8.987500720128569
 30
0.0
 11
4.362692654642835
 21
9.198763664249142
 31
0.0
  0
ARC
  5
CC
330
2
100
AcDbEntity
  8
OBJECT
100
AcDbCircle
 10
5.412489272468399
 20
8.828366104743949
 30
0.0
 40
0.375
100
AcDbArc
 50
0.0
 51
30.51023740611571
  0
ARC
  5
CD
330
2
100
AcDbEntity
  8
OBJECT
100
AcDbCircle
 10
4.459289272468411
 20
11.30620660466524
 30
0.0
 40
0.0468
100
AcDbArc
 50
180.0
 51
210.1828931970174
  0
ARC
  5
CE
330
2
100
AcDbEntity
  8
OBJECT
100
AcDbCircle
 10
4.443689272468411
 20
11.42631322353519
 30
0.0
 40
0.0937
100
AcDbArc
 50
180.0
 51
210.1828931970175
  0
LINE
  5
CF
330
2
100
AcDbEntity
  8
OBJECT
100
AcDbLine
 10
4.412489272468406
 20
20.20336610474395
 30
0.0
 11
4.349989272468406
 21
20.20336610474395
 31
0.0
  0
LINE
  5
DF
330
2
100
AcDbEntity
  8
OBJECT
  6
HIDDEN
100
AcDbLine
 10
4.418834184803129
 20
11.28267734879102
 30
0.0
 11
4.42412942509408
 21
9.093132192188856
 31
0.0
  0
LINE
  5
E0
330
2
100
AcDbEntity
  8
OBJECT
100
AcDbLine
 10
-5.912489272468392
 20
20.20336610474395
 30
0.0
 11
-5.912489272468392
 21
11.30620660466525
 31
0.0
  0
LINE
  5
E1
330
2
100
AcDbEntity
  8
OBJECT
100
AcDbLine
 10
-5.849989272468392
 20
20.20336610474395
 30
0.0
 11
-5.849989272468392
 21
9.245872452185346
 31
0.0
  0
LINE
  5
E2
330
2
100
AcDbEntity
  8
OBJECT
100
AcDbLine
 10
-7.287489272468392
 20
0.453366104743953
 30
0.0
 11
-7.287489272468392
 21
8.828366104743953
 31
0.0
  0
LINE
  5
E3
330
2
100
AcDbEntity
  8
OBJECT
100
AcDbLine
 10
-6.037489272468392
 20
0.453366104743953
 30
0.0
 11
-6.037489272468392
 21
8.797116104743953
 31
0.0
  0
CIRCLE
  5
E4
330
2
100
AcDbEntity
  8
OBJECT
100
AcDbCircle
 10
-6.912489272468385
 20
1.515866104743951
 30
0.0
 40
0.078125
  0
CIRCLE
  5
E5
330
2
100
AcDbEntity
  8
OBJECT
100
AcDbCircle
 10
-7.037489272468385
 20
0.5158661047439512
 30
0.0
 40
0.078125
  0
LINE
  5
E6
330
2
100
AcDbEntity
  8
OBJECT
100
AcDbLine
 10
-7.287489272468392
 20
0.453366104743953
 30
0.0
 11
-7.037489272468392
 21
0.203366104743953
 31
0.0
  0
CIRCLE
  5
E7
330
2
100
AcDbEntity
  8
OBJECT
100
AcDbCircle
 10
-6.662489272468385
 20
0.7033661047439512
 30
0.0
 40
0.1875
  0
LINE
  5
E8
330
2
100
AcDbEntity
  8
OBJECT
100
AcDbLine
 10
-6.287489272468385
 20
0.2033661047439566
 30
0.0
 11
-7.037489272468392
 21
0.203366104743953
 31
0.0
  0
LINE
  5
E9
330
2
100
AcDbEntity
  8
OBJECT
100
AcDbLine
 10
-6.287489272468392
 20
0.203366104743953
 30
0.0
 11
-6.037489272468392
 21
0.453366104743953
 31
0.0
  0
CIRCLE
  5
EA
330
2
100
AcDbEntity
  8
OBJECT
100
AcDbCircle
 10
-6.287489272468385
 20
0.8908661047439512
 30
0.0
 40
0.078125
  0
CIRCLE
  5
EB
330
2
100
AcDbEntity
  8
OBJECT
100
AcDbCircle
 10
-7.037489272468385
 20
2.515866104743951
 30
0.0
 40
0.078125
  0
CIRCLE
  5
EC
330
2
100
AcDbEntity
  8
OBJECT
100
AcDbCircle
 10
-6.412489272468385
 20
1.890866104743951
 30
0.0
 40
0.078125
  0
CIRCLE
  5
ED
330
2
100
AcDbEntity
  8
OBJECT
100
AcDbCircle
 10
-6.287489272468385
 20
2.890866104743951
 30
0.0
 40
0.078125
  0
CIRCLE
  5
EE
330
2
100
AcDbEntity
  8
OBJECT
100
AcDbCircle
 10
-7.037489272468385
 20
4.515866104743951
 30
0.0
 40
0.078125
  0
CIRCLE
  5
EF
330
2
100
AcDbEntity
  8
OBJECT
100
AcDbCircle
 10
-6.412489272468385
 20
3.890866104743951
 30
0.0
 40
0.078125
  0
CIRCLE
  5
F0
330
2
100
AcDbEntity
  8
OBJECT
100
AcDbCircle
 10
-6.912489272468385
 20
3.515866104743951
 30
0.0
 40
0.078125
  0
CIRCLE
  5
F1
330
2
100
AcDbEntity
  8
OBJECT
100
AcDbCircle
 10
-6.912489272468385
 20
5.515866104743951
 30
0.0
 40
0.078125
  0
CIRCLE
  5
F2
330
2
100
AcDbEntity
  8
OBJECT
100
AcDbCircle
 10
-6.287489272468385
 20
4.890866104743951
 30
0.0
 40
0.078125
  0
CIRCLE
  5
F3
330
2
100
AcDbEntity
  8
OBJECT
100
AcDbCircle
 10
-6.412489272468385
 20
5.890866104743951
 30
0.0
 40
0.078125
  0
LINE
  5
F4
330
2
100
AcDbEntity
  8
OBJECT
100
AcDbLine
 10
-5.862692654642821
 20
11.37920443559899
 30
0.0
 11
-7.23556619554531
 21
9.018750720128569
 31
0.0
  0
CIRCLE
  5
F5
330
2
100
AcDbEntity
  8
OBJECT
100
AcDbCircle
 10
-7.037489272468385
 20
6.515866104743949
 30
0.0
 40
0.078125
  0
CIRCLE
  5
F6
330
2
100
AcDbEntity
  8
OBJECT
100
AcDbCircle
 10
-6.287489272468385
 20
6.890866104743949
 30
0.0
 40
0.078125
  0
CIRCLE
  5
F7
330
2
100
AcDbEntity
  8
OBJECT
100
AcDbCircle
 10
-6.912489272468385
 20
7.515866104743949
 30
0.0
 40
0.078125
  0
ARC
  5
F8
330
2
100
AcDbEntity
  8
OBJECT
100
AcDbCircle
 10
-5.662489272468385
 20
8.797116104743949
 30
0.0
 40
0.375
100
AcDbArc
 50
149.4897625938843
 51
180.0
  0
ARC
  5
F9
330
2
100
AcDbEntity
  8
OBJECT
100
AcDbCircle
 10
-5.94368927246839
 20
9.245872452185342
 30
0.0
 40
0.0937
100
AcDbArc
 50
329.8171068029829
 51
0.000000000000007
  0
LINE
  5
FA
330
2
100
AcDbEntity
  8
OBJECT
100
AcDbLine
 10
-5.98556619554531
 20
8.987500720128569
 30
0.0
 11
-5.862692654642821
 21
9.198763664249142
 31
0.0
  0
ARC
  5
FB
330
2
100
AcDbEntity
  8
OBJECT
100
AcDbCircle
 10
-6.912489272468385
 20
8.828366104743949
 30
0.0
 40
0.375
100
AcDbArc
 50
149.4897625938843
 51
180.0
  0
ARC
  5
FC
330
2
100
AcDbEntity
  8
OBJECT
100
AcDbCircle
 10
-5.959289272468396
 20
11.30620660466524
 30
0.0
 40
0.0468
100
AcDbArc
 50
329.8171068029826
 51
0.000000000000007
  0
ARC
  5
FD
330
2
100
AcDbEntity
  8
OBJECT
100
AcDbCircle
 10
-5.943689272468397
 20
11.42631322353519
 30
0.0
 40
0.0937
100
AcDbArc
 50
329.8171068029826
 51
0.000000000000007
  0
LINE
  5
FE
330
2
100
AcDbEntity
  8
OBJECT
100
AcDbLine
 10
-5.912489272468392
 20
20.20336610474395
 30
0.0
 11
-5.849989272468392
 21
20.20336610474395
 31
0.0
  0
LINE
  5
FF
330
2
100
AcDbEntity
  8
OBJECT
  6
HIDDEN
100
AcDbLine
 10
-5.918834184803115
 20
11.28267734879102
 30
0.0
 11
-5.924129425094066
 21
9.093132192188856
 31
0.0
  0
ENDSEC
  0
SECTION
  2
OBJECTS
  0
DICTIONARY
  5
9
330
0
100
AcDbDictionary
281
     1
  3
ACAD_COLOR
350
84
  3
ACAD_GROUP
350
23
  3
ACAD_LAYOUT
350
D
  3
ACAD_MATERIAL
350
83
  3
ACAD_MLINESTYLE
350
24
  3
ACAD_PLOTSETTINGS
350
25
  3
ACAD_PLOTSTYLENAME
350
8
  3
ACAD_TABLESTYLE
350
85
  3
ACDBHEADERROUNDTRIPXREC
350
107
  3
AcDbVariableDictionary
350
7F
  0
DICTIONARY
  5
3
330
2
100
AcDbDictionary
280
     1
281
     1
  3
ACAD_SORTENTS
360
8B
  0
DICTIONARY
  5
84
102
{ACAD_REACTORS
330
9
102
}
330
9
100
AcDbDictionary
281
     1
  0
DICTIONARY
  5
23
102
{ACAD_REACTORS
330
9
102
}
330
9
100
AcDbDictionary
281
     1
  0
DICTIONARY
  5
D
102
{ACAD_REACTORS
330
9
102
}
330
9
100
AcDbDictionary
281
     1
  3
Layout1
350
13
  3
Model
350
C
  0
DICTIONARY
  5
83
102
{ACAD_REACTORS
330
9
102
}
330
9
100
AcDbDictionary
281
     1
  0
DICTIONARY
  5
24
102
{ACAD_REACTORS
330
9
102
}
330
9
100
AcDbDictionary
281
     1
  3
STANDARD
350
27
  0
DICTIONARY
  5
25
102
{ACAD_REACTORS
330
9
102
}
330
9
100
AcDbDictionary
281
     1
  0
ACDBDICTIONARYWDFLT
  5
8
102
{ACAD_REACTORS
330
9
102
}
330
9
100
AcDbDictionary
281
     1
  3
Normal
350
7
100
AcDbDictionaryWithDefault
340
7
  0
DICTIONARY
  5
85
102
{ACAD_REACTORS
330
9
102
}
330
9
100
AcDbDictionary
281
     1
  3
Standard
350
86
  0
DICTIONARY
  5
107
102
{ACAD_REACTORS
330
9
102
}
330
9
100
AcDbDictionary
281
     1
  3
COLORDICT
350
108
  3
MATERIALDICT
350
109
  0
DICTIONARY
  5
7F
102
{ACAD_REACTORS
330
9
102
}
330
9
100
AcDbDictionary
281
     1
  3
CTABLESTYLE
350
D7
  3
HIDETEXT
350
106
  0
SORTENTSTABLE
  5
8B
102
{ACAD_REACTORS
330
3
102
}
330
3
100
AcDbSortentsTable
330
2
331
0
  5
B4
331
CC
  5
A9
331
CF
  5
AC
331
AA
  5
C9
331
91
  5
B0
331
B0
  5
CF
331
B8
  5
95
331
AF
  5
CE
331
A4
  5
C3
331
CA
  5
A7
331
AB
  5
CA
331
A2
  5
C1
331
A6
  5
C5
331
B5
  5
92
331
8E
  5
AD
331
9F
  5
BE
331
9C
  5
BB
331
C3
  5
A0
331
A0
  5
BF
331
A3
  5
C2
331
B9
  5
96
331
BA
  5
97
331
92
  5
B1
331
8F
  5
AE
331
BF
  5
9C
331
A5
  5
C4
331
C6
  5
A3
331
C5
  5
A2
331
A1
  5
C0
331
B3
  5
90
331
B4
  5
91
331
AC
  5
CB
331
9E
  5
BD
331
93
  5
B2
331
C8
  5
A5
331
CD
  5
AA
331
96
  5
B5
331
C0
  5
9D
331
AD
  5
CC
331
97
  5
B6
331
A8
  5
C7
331
BD
  5
9A
331
99
  5
B8
331
98
  5
B7
331
B1
  5
8E
331
BC
  5
99
331
A9
  5
C8
331
C4
  5
A1
331
C1
  5
9E
331
C7
  5
A4
331
B6
  5
93
331
CB
  5
A8
331
BB
  5
98
331
C9
  5
A6
331
C2
  5
9F
331
9A
  5
B9
331
B7
  5
94
331
B2
  5
8F
331
A7
  5
C6
331
CE
  5
AB
331
AE
  5
CD
331
BE
  5
9B
331
9D
  5
BC
331
9B
  5
BA
331
90
  5
AF
  0
LAYOUT
  5
13
102
{ACAD_REACTORS
330
D
102
}
102
{ACAD_XDICTIONARY
360
10A
102
}
330
D
100
AcDbPlotSettings
  1

  2
C:\ACAD2000\plotters\HP LaserJet 2100 Series PS.pc3
  4

  6

 40
0.0
 41
0.0
 42
0.0
 43
0.0
 44
0.0
 45
0.0
 46
0.0
 47
0.0
 48
0.0
 49
0.0
140
0.0
141
0.0
142
1.0
143
1.0
 70
   688
 72
     0
 73
     0
 74
     5
  7

 75
    16
147
1.0
148
0.0
149
0.0
100
AcDbLayout
  1
Layout1
 70
     0
 71
     1
 10
0.0
 20
0.0
 11
12.0
 21
9.0
 12
0.0
 22
0.0
 32
0.0
 14
1.000000000000000E+20
 24
1.000000000000000E+20
 34
1.000000000000000E+20
 15
-1.000000000000000E+20
 25
-1.000000000000000E+20
 35
-1.000000000000000E+20
146
0.0
 13
0.0
 23
0.0
 33
0.0
 16
1.0
 26
0.0
 36
0.0
 17
0.0
 27
1.0
 37
0.0
 76
     0
330
E
  0
LAYOUT
  5
C
102
{ACAD_REACTORS
330
D
102
}
102
{ACAD_XDICTIONARY
360
10C
102
}
330
D
100
AcDbPlotSettings
  1

  2
HP LaserJet 2100 Series PS
  4
Letter
  6

 40
5.365749835968018
 41
5.365735054016113
 42
3.175003051757813
 43
3.17498779296875
 44
210.4813232421875
 45
273.9813232421875
 46
0.0
 47
0.0
 48
0.0
 49
0.0
140
0.0
141
0.0
142
1.0
143
3.301713958862595
 70
 28336
 72
     0
 73
     1
 74
     2
  7

 75
     0
147
0.3028729964071417
148
0.0
149
0.0
100
AcDbLayout
  1
Model
 70
     1
 71
     0
 10
0.0
 20
0.0
 11
12.0
 21
9.0
 12
0.0
 22
0.0
 32
0.0
 14
0.0
 24
0.0
 34
0.0
 15
0.0
 25
0.0
 35
0.0
146
0.0
 13
0.0
 23
0.0
 33
0.0
 16
1.0
 26
0.0
 36
0.0
 17
0.0
 27
1.0
 37
0.0
 76
     0
330
2
  0
MLINESTYLE
  5
27
102
{ACAD_REACTORS
330
24
102
}
330
24
100
AcDbMlineStyle
  2
STANDARD
 70
     0
  3

 62
   256
 51
90.0
 52
90.0
 71
     2
 49
0.5
 62
   256
  6
BYLAYER
 49
-0.5
 62
   256
  6
BYLAYER
  0
ACDBPLACEHOLDER
  5
7
102
{ACAD_REACTORS
330
8
102
}
330
8
  0
ACAD_PROXY_OBJECT
  5
86
102
{ACAD_REACTORS
330
85
102
}
330
85
100
AcDbProxyObject
 90
      499
 91
      509
 95
   983063
 70
     0
 93
     1841
310
4214DD185B99185C9928B81E85EB51B8AE3F2E07A17AD46E2B8FC02B5E8DC0F42B1CFD028000000C1008070000C3001FDFF8000000C1003FBFF000000182007F7FE00000030400FEFFC00000060801FDFF8000000C1003FBFF00000018200000000000000681FA0B0000001820100E000186003FBFF000000182007F7FE000
310
00030400FEFFC00000060801FDFF8000000C1003FBFF000000182007F7FE000000304000AD7A3703D0AC73F4160000003040201C00030C007F7FE00000030400FEFFC00000060801FDFF8000000C1003FBFF000000182007F7FE00000030400FEFFC000000608000
340
16
340
16
340
16
 94
        0
  0
XRECORD
  5
108
102
{ACAD_REACTORS
330
107
102
}
330
107
100
AcDbXrecord
340
84
  0
XRECORD
  5
109
102
{ACAD_REACTORS
330
107
102
}
330
107
100
AcDbXrecord
340
83
  0
DICTIONARYVAR
  5
D7
102
{ACAD_REACTORS
330
7F
102
}
330
7F
100
DictionaryVariables
280
     0
  1
STANDARD
  0
DICTIONARYVAR
  5
106
102
{ACAD_REACTORS
330
7F
102
}
330
7F
100
DictionaryVariables
280
     0
  1
0
  0
DICTIONARY
  5
10A
330
13
100
AcDbDictionary
280
     1
281
     1
  3
ACAD_XREC_ROUNDTRIP
360
10B
  0
DICTIONARY
  5
10C
330
C
100
AcDbDictionary
280
     1
281
     1
  3
ACAD_XREC_ROUNDTRIP
360
10D
  0
XRECORD
  5
10B
102
{ACAD_REACTORS
330
10A
102
}
330
10A
100
AcDbXrecord
102
SHADEPLOT
 70
     0
102
SHADEPLOTRESLEVEL
 70
     2
102
SHADEPLOTCUSTOMDPI
 70
   300
  0
XRECORD
  5
10D
102
{ACAD_REACTORS
330
10C
102
}
330
10C
100
AcDbXrecord
102
SHADEPLOT
 70
     0
102
SHADEPLOTRESLEVEL
 70
     2
102
SHADEPLOTCUSTOMDPI
 70
   300
  0
ENDSEC
  0
EOF
