  0
SECTION
  2
HEADER
  9
$ACADVER
  1
AC1015
  9
$ACADMAINTVER
 70
     6
  9
$DWGCODEPAGE
  3
ANSI_1252
  9
$INSBASE
 10
0.0
 20
0.0
 30
0.0
  9
$EXTMIN
 10
-7.200578729358831
 20
-0.0254943923791444
 30
-0.0015258207003583
  9
$EXTMAX
 10
7.6374123455467
 20
13.50001516046547
 30
0.0000000349246037
  9
$LIMMIN
 10
0.0
 20
0.0
  9
$LIMMAX
 10
16.0
 20
21.0
  9
$ORTHOMODE
 70
     1
  9
$REGENMODE
 70
     1
  9
$FILLMODE
 70
     1
  9
$QTEXTMODE
 70
     0
  9
$MIRRTEXT
 70
     0
  9
$LTSCALE
 40
0.5
  9
$ATTMODE
 70
     1
  9
$TEXTSIZE
 40
0.18
  9
$TRACEWID
 40
0.0416
  9
$TEXTSTYLE
  7
STANDARD
  9
$CLAYER
  8
0
  9
$CELTYPE
  6
ByLayer
  9
$CECOLOR
 62
   256
  9
$CELTSCALE
 40
1.0
  9
$DISPSILH
 70
     0
  9
$DIMSCALE
 40
2.0
  9
$DIMASZ
 40
0.125
  9
$DIMEXO
 40
0.125
  9
$DIMDLI
 40
0.38
  9
$DIMRND
 40
0.0
  9
$DIMDLE
 40
0.0
  9
$DIMEXE
 40
0.133
  9
$DIMTP
 40
0.0
  9
$DIMTM
 40
0.0
  9
$DIMTXT
 40
0.09
  9
$DIMCEN
 40
-0.0625
  9
$DIMTSZ
 40
0.0
  9
$DIMTOL
 70
     0
  9
$DIMLIM
 70
     0
  9
$DIMTIH
 70
     1
  9
$DIMTOH
 70
     1
  9
$DIMSE1
 70
     0
  9
$DIMSE2
 70
     0
  9
$DIMTAD
 70
     0
  9
$DIMZIN
 70
     0
  9
$DIMBLK
  1

  9
$DIMASO
 70
     0
  9
$DIMSHO
 70
     0
  9
$DIMPOST
  1

  9
$DIMAPOST
  1

  9
$DIMALT
 70
     0
  9
$DIMALTD
 70
     2
  9
$DIMALTF
 40
25.4
  9
$DIMLFAC
 40
1.0
  9
$DIMTOFL
 70
     0
  9
$DIMTVP
 40
0.0
  9
$DIMTIX
 70
     0
  9
$DIMSOXD
 70
     0
  9
$DIMSAH
 70
     0
  9
$DIMBLK1
  1

  9
$DIMBLK2
  1

  9
$DIMSTYLE
  2
Standard
  9
$DIMCLRD
 70
     0
  9
$DIMCLRE
 70
     0
  9
$DIMCLRT
 70
     0
  9
$DIMTFAC
 40
1.0
  9
$DIMGAP
 40
0.09
  9
$DIMJUST
 70
     0
  9
$DIMSD1
 70
     0
  9
$DIMSD2
 70
     0
  9
$DIMTOLJ
 70
     1
  9
$DIMTZIN
 70
     0
  9
$DIMALTZ
 70
     0
  9
$DIMALTTZ
 70
     0
  9
$DIMUPT
 70
     0
  9
$DIMDEC
 70
     4
  9
$DIMTDEC
 70
     4
  9
$DIMALTU
 70
     2
  9
$DIMALTTD
 70
     2
  9
$DIMTXSTY
  7
STANDARD
  9
$DIMAUNIT
 70
     0
  9
$DIMADEC
 70
     0
  9
$DIMALTRND
 40
0.0
  9
$DIMAZIN
 70
     0
  9
$DIMDSEP
 70
    46
  9
$DIMATFIT
 70
     3
  9
$DIMFRAC
 70
     0
  9
$DIMLDRBLK
  1

  9
$DIMLUNIT
 70
     2
  9
$DIMLWD
 70
    -2
  9
$DIMLWE
 70
    -2
  9
$DIMTMOVE
 70
     2
  9
$LUNITS
 70
     2
  9
$LUPREC
 70
     4
  9
$SKETCHINC
 40
0.1
  9
$FILLETRAD
 40
0.0
  9
$AUNITS
 70
     0
  9
$AUPREC
 70
     0
  9
$MENU
  1
G:\ACADSST\QA
  9
$ELEVATION
 40
0.0
  9
$PELEVATION
 40
0.0
  9
$THICKNESS
 40
0.0
  9
$LIMCHECK
 70
     0
  9
$CHAMFERA
 40
0.0
  9
$CHAMFERB
 40
0.0
  9
$CHAMFERC
 40
0.0
  9
$CHAMFERD
 40
0.0
  9
$SKPOLY
 70
     0
  9
$TDCREATE
 40
2450301.902294792
  9
$TDUCREATE
 40
2450302.235628125
  9
$TDUPDATE
 40
2454168.954337604
  9
$TDUUPDATE
 40
2454169.287670937
  9
$TDINDWG
 40
0.0153829861
  9
$TDUSRTIMER
 40
0.0153829861
  9
$USRTIMER
 70
     1
  9
$ANGBASE
 50
0.0
  9
$ANGDIR
 70
     0
  9
$PDMODE
 70
     0
  9
$PDSIZE
 40
0.0
  9
$PLINEWID
 40
0.0
  9
$SPLFRAME
 70
     0
  9
$SPLINETYPE
 70
     6
  9
$SPLINESEGS
 70
     8
  9
$HANDSEED
  5
244
  9
$SURFTAB1
 70
     6
  9
$SURFTAB2
 70
     6
  9
$SURFTYPE
 70
     6
  9
$SURFU
 70
     6
  9
$SURFV
 70
     6
  9
$UCSBASE
  2

  9
$UCSNAME
  2

  9
$UCSORG
 10
0.0
 20
0.0
 30
0.0
  9
$UCSXDIR
 10
1.0
 20
0.0
 30
0.0
  9
$UCSYDIR
 10
0.0
 20
1.0
 30
0.0
  9
$UCSORTHOREF
  2

  9
$UCSORTHOVIEW
 70
     0
  9
$UCSORGTOP
 10
0.0
 20
0.0
 30
0.0
  9
$UCSORGBOTTOM
 10
0.0
 20
0.0
 30
0.0
  9
$UCSORGLEFT
 10
0.0
 20
0.0
 30
0.0
  9
$UCSORGRIGHT
 10
0.0
 20
0.0
 30
0.0
  9
$UCSORGFRONT
 10
0.0
 20
0.0
 30
0.0
  9
$UCSORGBACK
 10
0.0
 20
0.0
 30
0.0
  9
$PUCSBASE
  2

  9
$PUCSNAME
  2

  9
$PUCSORG
 10
0.0
 20
0.0
 30
0.0
  9
$PUCSXDIR
 10
1.0
 20
0.0
 30
0.0
  9
$PUCSYDIR
 10
0.0
 20
1.0
 30
0.0
  9
$PUCSORTHOREF
  2

  9
$PUCSORTHOVIEW
 70
     0
  9
$PUCSORGTOP
 10
0.0
 20
0.0
 30
0.0
  9
$PUCSORGBOTTOM
 10
0.0
 20
0.0
 30
0.0
  9
$PUCSORGLEFT
 10
0.0
 20
0.0
 30
0.0
  9
$PUCSORGRIGHT
 10
0.0
 20
0.0
 30
0.0
  9
$PUCSORGFRONT
 10
0.0
 20
0.0
 30
0.0
  9
$PUCSORGBACK
 10
0.0
 20
0.0
 30
0.0
  9
$USERI1
 70
     0
  9
$USERI2
 70
     0
  9
$USERI3
 70
     0
  9
$USERI4
 70
     0
  9
$USERI5
 70
     0
  9
$USERR1
 40
0.0
  9
$USERR2
 40
0.0
  9
$USERR3
 40
0.0
  9
$USERR4
 40
0.0
  9
$USERR5
 40
0.0
  9
$WORLDVIEW
 70
     1
  9
$SHADEDGE
 70
     3
  9
$SHADEDIF
 70
    70
  9
$TILEMODE
 70
     1
  9
$MAXACTVP
 70
    16
  9
$PINSBASE
 10
0.0
 20
0.0
 30
0.0
  9
$PLIMCHECK
 70
     0
  9
$PEXTMIN
 10
1.000000000000000E+20
 20
1.000000000000000E+20
 30
1.000000000000000E+20
  9
$PEXTMAX
 10
-1.000000000000000E+20
 20
-1.000000000000000E+20
 30
-1.000000000000000E+20
  9
$PLIMMIN
 10
0.0
 20
0.0
  9
$PLIMMAX
 10
12.0
 20
9.0
  9
$UNITMODE
 70
     0
  9
$VISRETAIN
 70
     0
  9
$PLINEGEN
 70
     0
  9
$PSLTSCALE
 70
     0
  9
$TREEDEPTH
 70
  3020
  9
$CMLSTYLE
  2
Standard
  9
$CMLJUST
 70
     0
  9
$CMLSCALE
 40
1.0
  9
$PROXYGRAPHICS
 70
     1
  9
$MEASUREMENT
 70
     0
  9
$CELWEIGHT
370
    -1
  9
$ENDCAPS
280
     0
  9
$JOINSTYLE
280
     0
  9
$LWDISPLAY
290
     0
  9
$INSUNITS
 70
     0
  9
$HYPERLINKBASE
  1

  9
$STYLESHEET
  1

  9
$XEDIT
290
     1
  9
$CEPSNTYPE
380
     0
  9
$PSTYLEMODE
290
     1
  9
$FINGERPRINTGUID
  2
{5D21C3B0-81CD-4E63-A0BA-57C67E2B8EBD}
  9
$VERSIONGUID
  2
{20DDF13F-A905-4DD7-8C84-08070123CE00}
  9
$EXTNAMES
290
     1
  9
$PSVPSCALE
 40
0.0
  9
$OLESTARTUP
290
     0
  0
ENDSEC
  0
SECTION
  2
CLASSES
  0
CLASS
  1
ACDBDICTIONARYWDFLT
  2
AcDbDictionaryWithDefault
  3
AutoCAD 2000
 90
        0
280
     0
281
     0
  0
CLASS
  1
ACDBPLACEHOLDER
  2
AcDbPlaceHolder
  3
ObjectDBX Classes
 90
        0
280
     0
281
     0
  0
CLASS
  1
LAYOUT
  2
AcDbLayout
  3
ObjectDBX Classes
 90
        0
280
     0
281
     0
  0
CLASS
  1
LONG_TRANSACTION
  2
AcDbLongTransaction
  3
ObjectDBX Classes
 90
   -65536
280
     1
281
     0
  0
CLASS
  1
LWPOLYLINE
  2
AcDbPolyline
  3
AutoCAD 2000
 90
        0
280
     0
281
     1
  0
CLASS
  1
HATCH
  2
AcDbHatch
  3
AutoCAD 2000
 90
        0
280
     0
281
     1
  0
CLASS
  1
XRECORD
  2
AcDbXrecord
  3
AutoCAD 2000
 90
        0
280
     0
281
     0
  0
CLASS
  1
LONG_TRANSACTION
  2
AcDbLongTransaction
  3
ObjectDBX Classes
 90
   -65536
280
     1
281
     0
  0
CLASS
  1
LWPOLYLINE
  2
AcDbPolyline
  3
AutoCAD 2000
 90
        0
280
     0
281
     1
  0
CLASS
  1
HATCH
  2
AcDbHatch
  3
AutoCAD 2000
 90
        0
280
     0
281
     1
  0
CLASS
  1
XRECORD
  2
AcDbXrecord
  3
AutoCAD 2000
 90
        0
280
     0
281
     0
  0
CLASS
  1
DICTIONARYVAR
  2
AcDbDictionaryVar
  3
AutoCAD 2000
 90
        0
280
     0
281
     0
  0
CLASS
  1
TABLESTYLE
  2
AcDbTableStyle
  3
ObjectDBX Classes
 90
     2047
280
     1
281
     0
  0
ENDSEC
  0
SECTION
  2
TABLES
  0
TABLE
  2
VPORT
  5
1D
330
0
100
AcDbSymbolTable
 70
     2
  0
VPORT
  5
236
330
1D
100
AcDbSymbolTableRecord
100
AcDbViewportTableRecord
  2
*Active
 70
     0
 10
0.0
 20
0.0
 11
1.0
 21
1.0
 12
4.399710635320585
 22
10.48725280381043
 13
0.0
 23
0.0
 14
0.0625
 24
0.0625
 15
0.25
 25
0.25
 16
0.0
 26
0.0
 36
1.0
 17
0.0
 27
0.0
 37
0.0
 40
21.28776667170196
 41
1.814583333333333
 42
50.0
 43
0.0
 44
0.0
 50
0.0
 51
0.0
 71
     0
 72
   100
 73
     1
 74
     0
 75
     0
 76
     0
 77
     0
 78
     2
281
     0
 65
     1
110
0.0
120
0.0
130
0.0
111
1.0
121
0.0
131
0.0
112
0.0
122
1.0
132
0.0
 79
     0
146
0.0
  0
ENDTAB
  0
TABLE
  2
LTYPE
  5
18
330
0
100
AcDbSymbolTable
 70
     2
  0
LTYPE
  5
19
330
18
100
AcDbSymbolTableRecord
100
AcDbLinetypeTableRecord
  2
ByBlock
 70
     0
  3

 72
    65
 73
     0
 40
0.0
  0
LTYPE
  5
1A
330
18
100
AcDbSymbolTableRecord
100
AcDbLinetypeTableRecord
  2
ByLayer
 70
     0
  3

 72
    65
 73
     0
 40
0.0
  0
LTYPE
  5
A
330
18
100
AcDbSymbolTableRecord
100
AcDbLinetypeTableRecord
  2
CONTINUOUS
 70
     0
  3
Solid line
 72
    65
 73
     0
 40
0.0
  0
LTYPE
  5
86
330
18
100
AcDbSymbolTableRecord
100
AcDbLinetypeTableRecord
  2
DASHED
 70
     0
  3
__ __ __ __ __ __ __ __ __ __ __ __ __ __ __
 72
    65
 73
     2
 40
0.75
 49
0.5
 74
     0
 49
-0.25
 74
     0
  0
ENDTAB
  0
TABLE
  2
LAYER
  5
14
330
0
100
AcDbSymbolTable
 70
     1
  0
LAYER
  5
6
330
14
100
AcDbSymbolTableRecord
100
AcDbLayerTableRecord
  2
0
 70
     0
 62
     7
  6
CONTINUOUS
370
    -3
390
7
  0
ENDTAB
  0
TABLE
  2
STYLE
  5
15
330
0
100
AcDbSymbolTable
 70
     1
  0
STYLE
  5
16
330
15
100
AcDbSymbolTableRecord
100
AcDbTextStyleTableRecord
  2
STANDARD
 70
     0
 40
0.0
 41
1.0
 50
0.0
 71
     0
 42
0.18
  3
TXT
  4

  0
ENDTAB
  0
TABLE
  2
VIEW
  5
1B
330
0
100
AcDbSymbolTable
 70
     0
  0
ENDTAB
  0
TABLE
  2
UCS
  5
1C
330
0
100
AcDbSymbolTable
 70
     0
  0
ENDTAB
  0
TABLE
  2
APPID
  5
1F
330
0
100
AcDbSymbolTable
 70
     1
  0
APPID
  5
20
330
1F
100
AcDbSymbolTableRecord
100
AcDbRegAppTableRecord
  2
ACAD
 70
     0
  0
ENDTAB
  0
TABLE
  2
DIMSTYLE
  5
21
330
0
100
AcDbSymbolTable
 70
     1
100
AcDbDimStyleTable
  0
DIMSTYLE
105
28
330
21
100
AcDbSymbolTableRecord
100
AcDbDimStyleTableRecord
  2
Standard
 70
     0
  3

  4

340
16
  0
ENDTAB
  0
TABLE
  2
BLOCK_RECORD
  5
1
330
0
100
AcDbSymbolTable
 70
     0
  0
BLOCK_RECORD
  5
2
330
1
100
AcDbSymbolTableRecord
100
AcDbBlockTableRecord
  2
*Model_Space
340
C
  0
BLOCK_RECORD
  5
E
330
1
100
AcDbSymbolTableRecord
100
AcDbBlockTableRecord
  2
*Paper_Space
340
13
  0
ENDTAB
  0
ENDSEC
  0
SECTION
  2
BLOCKS
  0
BLOCK
  5
5
330
2
100
AcDbEntity
  8
0
100
AcDbBlockBegin
  2
*Model_Space
 70
     0
 10
0.0
 20
0.0
 30
0.0
  3
*Model_Space
  1

  4

  0
ENDBLK
  5
B
330
2
100
AcDbEntity
  8
0
100
AcDbBlockEnd
  0
BLOCK
  5
11
330
E
100
AcDbEntity
 67
     1
  8
0
100
AcDbBlockBegin
  2
*Paper_Space
 70
     0
 10
0.0
 20
0.0
 30
0.0
  3
*Paper_Space
  1

  4

  0
ENDBLK
  5
12
330
E
100
AcDbEntity
 67
     1
  8
0
100
AcDbBlockEnd
  0
ENDSEC
  0
SECTION
  2
ENTITIES
  0
LINE
  5
113
330
2
100
AcDbEntity
  8
0
100
AcDbLine
 10
1.0625
 20
11.62887237323607
 30
0.0
 11
1.0625
 21
12.97462737323607
 31
0.0
  0
LINE
  5
114
330
2
100
AcDbEntity
  8
0
100
AcDbLine
 10
-0.5625
 20
11.62887237323607
 30
0.0
 11
-0.5625
 21
12.93033837323607
 31
0.0
  0
LINE
  5
115
330
2
100
AcDbEntity
  8
0
100
AcDbLine
 10
1.0
 20
11.62887237323607
 30
0.0
 11
1.0
 21
12.93069437323607
 31
0.0
  0
LINE
  5
116
330
2
100
AcDbEntity
  8
0
100
AcDbLine
 10
-0.625
 20
11.62887237323607
 30
0.0
 11
-0.625
 21
12.97462737323607
 31
0.0
  0
ARC
  5
117
330
2
100
AcDbEntity
  8
0
100
AcDbCircle
 10
1.120000000000001
 20
13.35462737323607
 30
0.0
 40
0.12
100
AcDbArc
 50
90.00000000000003
 51
180.0
  0
LINE
  5
119
330
2
100
AcDbEntity
  8
0
100
AcDbLine
 10
-0.6875
 20
13.47462737323607
 30
0.0
 11
-1.5
 21
13.47462737323607
 31
0.0
  0
LINE
  5
11A
330
2
100
AcDbEntity
  8
0
100
AcDbLine
 10
-1.5
 20
13.41212737323607
 30
0.0
 11
-0.6875
 21
13.41212737323607
 31
0.0
  0
LINE
  5
11C
330
2
100
AcDbEntity
  8
0
100
AcDbLine
 10
-1.5
 20
13.47462737323607
 30
0.0
 11
-1.5
 21
13.41212737323607
 31
0.0
  0
LINE
  5
11D
330
2
100
AcDbEntity
  8
0
100
AcDbLine
 10
-0.4828840000000003
 20
12.97462737323607
 30
0.0
 11
0.21875
 21
12.97462737323607
 31
0.0
  0
ARC
  5
11E
330
2
100
AcDbEntity
  8
0
100
AcDbCircle
 10
-0.6850000000000005
 20
13.35212737323607
 30
0.0
 40
0.06
100
AcDbArc
 50
0.0
 51
90.00000000000003
  0
ARC
  5
11F
330
2
100
AcDbEntity
  8
0
100
AcDbCircle
 10
-0.682500000000001
 20
13.35462737323607
 30
0.0
 40
0.12
100
AcDbArc
 50
0.0
 51
90.00000000000003
  0
ARC
  5
120
330
2
100
AcDbEntity
  8
0
100
AcDbCircle
 10
-0.5609889999999993
 20
13.02131837323607
 30
0.0
 40
0.090997
100
AcDbArc
 50
271.106445
 51
329.128966
  0
LINE
  5
121
330
2
100
AcDbEntity
  8
0
100
AcDbLine
 10
-0.5625
 20
12.93033837323607
 30
0.0
 11
-0.5625
 21
13.35462737323607
 31
0.0
  0
LINE
  5
122
330
2
100
AcDbEntity
  8
0
100
AcDbLine
 10
-0.625
 20
13.35212737323607
 30
0.0
 11
-0.625
 21
12.97462737323607
 31
0.0
  0
LINE
  5
124
330
2
100
AcDbEntity
  8
0
100
AcDbLine
 10
0.9208420000000004
 20
12.97412737323607
 30
0.0
 11
0.21875
 21
12.97462737323607
 31
0.0
  0
ARC
  5
125
330
2
100
AcDbEntity
  8
0
100
AcDbCircle
 10
0.9993449999999999
 20
13.02283137323607
 30
0.0
 40
0.092384
100
AcDbArc
 50
211.815754
 51
265.813835
  0
LINE
  5
126
330
2
100
AcDbEntity
  8
0
100
AcDbLine
 10
1.0
 20
12.93069437323607
 30
0.0
 11
1.0
 21
13.35462737323607
 31
0.0
  0
ARC
  5
127
330
2
100
AcDbEntity
  8
0
100
AcDbCircle
 10
1.122499999999999
 20
13.35212737323607
 30
0.0
 40
0.06
100
AcDbArc
 50
90.00000000000003
 51
180.0
  0
LINE
  5
129
330
2
100
AcDbEntity
  8
0
100
AcDbLine
 10
1.9375
 20
13.41212737323607
 30
0.0
 11
1.125
 21
13.41212737323607
 31
0.0
  0
LINE
  5
12A
330
2
100
AcDbEntity
  8
0
100
AcDbLine
 10
1.125
 20
13.47462737323607
 30
0.0
 11
1.9375
 21
13.47462737323607
 31
0.0
  0
LINE
  5
12B
330
2
100
AcDbEntity
  8
0
100
AcDbLine
 10
1.9375
 20
13.47462737323607
 30
0.0
 11
1.9375
 21
13.41212737323607
 31
0.0
  0
LINE
  5
12C
330
2
100
AcDbEntity
  8
0
100
AcDbLine
 10
1.0625
 20
13.35212737323607
 30
0.0
 11
1.0625
 21
12.97462737323607
 31
0.0
  0
LINE
  5
12D
330
2
100
AcDbEntity
  8
0
100
AcDbLine
 10
0.9970579999999991
 20
11.62887237323607
 30
0.0
 11
1.0625
 21
11.62887237323607
 31
0.0
  0
LINE
  5
12E
330
2
100
AcDbEntity
  8
0
100
AcDbLine
 10
0.21875
 20
11.47462737323607
 30
0.0
 11
-0.4722369999999998
 21
11.47462737323607
 31
0.0
  0
LINE
  5
12F
330
2
100
AcDbEntity
  8
0
100
AcDbLine
 10
-0.5590569999999993
 20
11.62887237323607
 30
0.0
 11
-0.625
 21
11.62887237323607
 31
0.0
  0
LINE
  5
130
330
2
100
AcDbEntity
  8
0
100
AcDbLine
 10
-0.507104
 20
11.59993237323607
 30
0.0
 11
-0.5591249999999999
 21
11.62936437323607
 31
0.0
  0
ARC
  5
131
330
2
100
AcDbEntity
  8
0
100
AcDbCircle
 10
-0.5524310000000003
 20
11.51981637323607
 30
0.0
 40
0.09205
100
AcDbArc
 50
330.599245
 51
60.50036399999998
  0
LINE
  5
132
330
2
100
AcDbEntity
  8
0
100
AcDbLine
 10
0.21875
 20
11.47462737323607
 30
0.0
 11
0.9102379999999997
 21
11.47462737323607
 31
0.0
  0
LINE
  5
133
330
2
100
AcDbEntity
  8
0
100
AcDbLine
 10
0.9451059999999991
 20
11.59993237323607
 30
0.0
 11
0.997126999999999
 21
11.62936437323607
 31
0.0
  0
ARC
  5
134
330
2
100
AcDbEntity
  8
0
100
AcDbCircle
 10
0.9904329999999995
 20
11.51981637323607
 30
0.0
 40
0.09205
100
AcDbArc
 50
119.499636
 51
209.400755
  0
ARC
  5
135
330
2
100
AcDbEntity
  8
0
100
AcDbCircle
 10
0.942499999999999
 20
0.1199999999999992
 30
0.0
 40
0.12
100
AcDbArc
 50
270.0
 51
0.0
  0
LINE
  5
136
330
2
100
AcDbEntity
  8
0
100
AcDbLine
 10
1.0
 20
7.875
 30
0.0
 11
1.9375
 21
7.875
 31
0.0
  0
LINE
  5
137
330
2
100
AcDbEntity
  8
0
100
AcDbLine
 10
1.0
 20
7.875
 30
0.0
 11
1.0
 21
0.1225000000000005
 31
0.0
  0
ARC
  5
138
330
2
100
AcDbEntity
  8
0
100
AcDbCircle
 10
-1.441355999999999
 20
5.40625
 30
0.0
 40
0.3125
100
AcDbArc
 50
0.0
 51
66.037511
  0
LINE
  5
139
330
2
100
AcDbEntity
  8
0
100
AcDbLine
 10
-0.625
 20
0.125
 30
0.0
 11
-0.625
 21
7.875
 31
0.0
  0
LINE
  5
13A
330
2
100
AcDbEntity
  8
0
100
AcDbLine
 10
-0.5625
 20
7.875
 30
0.0
 11
-0.5625
 21
0.1225000000000005
 31
0.0
  0
ARC
  5
13B
330
2
100
AcDbEntity
  8
0
100
AcDbCircle
 10
-1.0
 20
2.09375
 30
0.0
 40
0.308957
100
AcDbArc
 50
135.0
 51
210.122842
  0
LINE
  5
13C
330
2
100
AcDbEntity
  8
0
100
AcDbLine
 10
-1.267233000000001
 20
1.938698000000002
 30
0.0
 11
-0.625
 21
0.8263190000000016
 31
0.0
  0
CIRCLE
  5
13D
330
2
100
AcDbEntity
  8
0
100
AcDbCircle
 10
-1.0
 20
2.031500000000001
 30
0.0
 40
0.078
  0
LINE
  5
13E
330
2
100
AcDbEntity
  8
0
100
AcDbLine
 10
0.9400000000000013
 20
0.0625
 30
0.0
 11
0.0
 21
0.0625
 31
0.0
  0
LINE
  5
13F
330
2
100
AcDbEntity
  8
0
100
AcDbLine
 10
0.0
 20
0.0
 30
0.0
 11
0.942499999999999
 21
0.0
 31
0.0
  0
LINE
  5
140
330
2
100
AcDbEntity
  8
0
100
AcDbLine
 10
0.4375
 20
0.0
 30
0.0
 11
-0.504999999999999
 21
0.0
 31
0.0
  0
LINE
  5
141
330
2
100
AcDbEntity
  8
0
100
AcDbLine
 10
-0.5024999999999995
 20
0.0625
 30
0.0
 11
0.4375
 21
0.0625
 31
0.0
  0
ARC
  5
142
330
2
100
AcDbEntity
  8
0
100
AcDbCircle
 10
-0.504999999999999
 20
0.1199999999999992
 30
0.0
 40
0.12
100
AcDbArc
 50
180.0
 51
270.0
  0
ARC
  5
143
330
2
100
AcDbEntity
  8
0
100
AcDbCircle
 10
-0.5024999999999995
 20
0.1225000000000005
 30
0.0
 40
0.06
100
AcDbArc
 50
180.0
 51
270.0
  0
ARC
  5
144
330
2
100
AcDbEntity
  8
0
100
AcDbCircle
 10
0.9400000000000013
 20
0.1225000000000005
 30
0.0
 40
0.06
100
AcDbArc
 50
270.0
 51
0.0
  0
ARC
  5
145
330
2
100
AcDbEntity
  8
0
100
AcDbCircle
 10
-1.441355999999999
 20
3.65625
 30
0.0
 40
0.3125
100
AcDbArc
 50
0.0
 51
66.037511
  0
CIRCLE
  5
146
330
2
100
AcDbEntity
  8
0
100
AcDbCircle
 10
-1.25
 20
3.094000000000001
 30
0.0
 40
0.078
  0
ARC
  5
147
330
2
100
AcDbEntity
  8
0
100
AcDbCircle
 10
-1.187519
 20
3.102382000000002
 30
0.0
 40
0.3125
100
AcDbArc
 50
180.0
 51
246.037511
  0
ARC
  5
148
330
2
100
AcDbEntity
  8
0
100
AcDbCircle
 10
-1.441355999999999
 20
2.53125
 30
0.0
 40
0.3125
100
AcDbArc
 50
0.0
 51
66.037511
  0
ARC
  5
149
330
2
100
AcDbEntity
  8
0
100
AcDbCircle
 10
-1.441355999999999
 20
2.53125
 30
0.0
 40
0.3125
100
AcDbArc
 50
315.499871
 51
0.0
  0
ARC
  5
14A
330
2
100
AcDbEntity
  8
0
100
AcDbCircle
 10
-1.441355999999999
 20
3.65625
 30
0.0
 40
0.3125
100
AcDbArc
 50
293.962489
 51
0.0
  0
ARC
  5
14B
330
2
100
AcDbEntity
  8
0
100
AcDbCircle
 10
-1.187519
 20
3.085118000000001
 30
0.0
 40
0.3125
100
AcDbArc
 50
113.962489
 51
180.0
  0
LINE
  5
14C
330
2
100
AcDbEntity
  8
0
100
AcDbLine
 10
-1.5
 20
4.838571000000002
 30
0.0
 11
-1.5
 21
4.223929000000002
 31
0.0
  0
CIRCLE
  5
14D
330
2
100
AcDbEntity
  8
0
100
AcDbCircle
 10
-1.25
 20
4.5
 30
0.0
 40
0.078
  0
ARC
  5
14E
330
2
100
AcDbEntity
  8
0
100
AcDbCircle
 10
-1.187519
 20
4.227382000000002
 30
0.0
 40
0.3125
100
AcDbArc
 50
180.0
 51
246.037511
  0
ARC
  5
14F
330
2
100
AcDbEntity
  8
0
100
AcDbCircle
 10
-1.441355999999999
 20
5.40625
 30
0.0
 40
0.3125
100
AcDbArc
 50
293.962489
 51
0.0
  0
ARC
  5
150
330
2
100
AcDbEntity
  8
0
100
AcDbCircle
 10
-1.187519
 20
4.835118000000001
 30
0.0
 40
0.3125
100
AcDbArc
 50
113.962489
 51
180.0
  0
ARC
  5
151
330
2
100
AcDbEntity
  8
0
100
AcDbCircle
 10
-0.625
 20
3.156500000000001
 30
0.0
 40
0.156
100
AcDbArc
 50
90.0
 51
270.0
  0
LINE
  5
153
330
2
100
AcDbEntity
  8
0
100
AcDbLine
 10
-0.5625
 20
7.875
 30
0.0
 11
-1.5
 21
7.875
 31
0.0
  0
LINE
  5
154
330
2
100
AcDbEntity
  8
0
100
AcDbLine
 10
-1.5
 20
7.875
 30
0.0
 11
-1.5
 21
5.973929000000002
 31
0.0
  0
CIRCLE
  5
155
330
2
100
AcDbEntity
  8
0
100
AcDbCircle
 10
-1.25
 20
6.125
 30
0.0
 40
0.078
  0
ARC
  5
156
330
2
100
AcDbEntity
  8
0
100
AcDbCircle
 10
-1.187519
 20
5.977382000000002
 30
0.0
 40
0.3125
100
AcDbArc
 50
180.0
 51
246.037511
  0
CIRCLE
  5
157
330
2
100
AcDbEntity
  8
0
100
AcDbCircle
 10
-1.25
 20
7.531199999999998
 30
0.0
 40
0.078
  0
LINE
  5
158
330
2
100
AcDbEntity
  8
0
100
AcDbLine
 10
1.0625
 20
0.1199999999999992
 30
0.0
 11
1.0625
 21
7.875
 31
0.0
  0
ARC
  5
159
330
2
100
AcDbEntity
  8
0
100
AcDbCircle
 10
1.878856
 20
5.59375
 30
0.0
 40
0.3125
100
AcDbArc
 50
180.0
 51
246.037511
  0
ARC
  5
15A
330
2
100
AcDbEntity
  8
0
100
AcDbCircle
 10
1.490252
 20
2.174502
 30
0.0
 40
0.331025
100
AcDbArc
 50
326.232438
 51
53.13010200000002
  0
CIRCLE
  5
15B
330
2
100
AcDbEntity
  8
0
100
AcDbCircle
 10
1.567199
 20
2.180081000000001
 30
0.0
 40
0.078
  0
LINE
  5
15C
330
2
100
AcDbEntity
  8
0
100
AcDbLine
 10
1.765432
 20
1.99051
 30
0.0
 11
1.0625
 21
0.7830870000000019
 31
0.0
  0
ARC
  5
15D
330
2
100
AcDbEntity
  8
0
100
AcDbCircle
 10
1.878856
 20
3.84375
 30
0.0
 40
0.3125
100
AcDbArc
 50
113.962489
 51
180.0
  0
ARC
  5
15E
330
2
100
AcDbEntity
  8
0
100
AcDbCircle
 10
1.625019
 20
3.272618000000001
 30
0.0
 40
0.3125
100
AcDbArc
 50
0.0
 51
66.037511
  0
ARC
  5
15F
330
2
100
AcDbEntity
  8
0
100
AcDbCircle
 10
1.625019
 20
3.289882000000002
 30
0.0
 40
0.3125
100
AcDbArc
 50
293.962489
 51
0.0
  0
ARC
  5
160
330
2
100
AcDbEntity
  8
0
100
AcDbCircle
 10
1.0625
 20
3.156500000000001
 30
0.0
 40
0.156
100
AcDbArc
 50
270.0
 51
90.0
  0
ARC
  5
161
330
2
100
AcDbEntity
  8
0
100
AcDbCircle
 10
1.875
 20
2.6875
 30
0.0
 40
0.310222
100
AcDbArc
 50
174.21855
 51
233.130102
  0
ARC
  5
162
330
2
100
AcDbEntity
  8
0
100
AcDbCircle
 10
1.878856
 20
2.71875
 30
0.0
 40
0.3125
100
AcDbArc
 50
113.962489
 51
180.0
  0
CIRCLE
  5
163
330
2
100
AcDbEntity
  8
0
100
AcDbCircle
 10
1.6875
 20
3.282
 30
0.0
 40
0.078
  0
ARC
  5
164
330
2
100
AcDbEntity
  8
0
100
AcDbCircle
 10
1.878856
 20
3.84375
 30
0.0
 40
0.3125
100
AcDbArc
 50
180.0
 51
246.037511
  0
ARC
  5
165
330
2
100
AcDbEntity
  8
0
100
AcDbCircle
 10
1.625019
 20
5.022618000000001
 30
0.0
 40
0.3125
100
AcDbArc
 50
0.0
 51
66.037511
  0
ARC
  5
166
330
2
100
AcDbEntity
  8
0
100
AcDbCircle
 10
1.625019
 20
4.414881999999999
 30
0.0
 40
0.3125
100
AcDbArc
 50
293.962489
 51
0.0
  0
LINE
  5
167
330
2
100
AcDbEntity
  8
0
100
AcDbLine
 10
1.9375
 20
5.026071000000002
 30
0.0
 11
1.9375
 21
4.411428999999998
 31
0.0
  0
CIRCLE
  5
168
330
2
100
AcDbEntity
  8
0
100
AcDbCircle
 10
1.6875
 20
4.5
 30
0.0
 40
0.078
  0
LINE
  5
16A
330
2
100
AcDbEntity
  8
0
100
AcDbLine
 10
1.9375
 20
7.875
 30
0.0
 11
1.9375
 21
6.161429000000002
 31
0.0
  0
ARC
  5
16B
330
2
100
AcDbEntity
  8
0
100
AcDbCircle
 10
1.625019
 20
6.164882000000002
 30
0.0
 40
0.3125
100
AcDbArc
 50
293.962489
 51
0.0
  0
ARC
  5
16C
330
2
100
AcDbEntity
  8
0
100
AcDbCircle
 10
1.878856
 20
5.59375
 30
0.0
 40
0.3125
100
AcDbArc
 50
113.962489
 51
180.0
  0
CIRCLE
  5
16D
330
2
100
AcDbEntity
  8
0
100
AcDbCircle
 10
1.6875
 20
6.125
 30
0.0
 40
0.078
  0
CIRCLE
  5
16E
330
2
100
AcDbEntity
  8
0
100
AcDbCircle
 10
1.6875
 20
7.531199999999998
 30
0.0
 40
0.078
  0
CIRCLE
  5
16F
330
2
100
AcDbEntity
  8
0
100
AcDbCircle
 10
6.828726779505409
 20
5.432413443975548
 30
0.0
 40
0.078
  0
ARC
  5
170
330
2
100
AcDbEntity
  8
0
100
AcDbCircle
 10
6.891226779505409
 20
5.432413443975548
 30
0.0
 40
0.3125
100
AcDbArc
 50
113.9741339013483
 51
180.0
  0
LINE
  5
171
330
2
100
AcDbEntity
  8
0
100
AcDbLine
 10
7.63737077950541
 20
7.900663443975546
 30
0.0
 11
7.63737077950541
 21
1.141688443975546
 31
0.0
  0
LINE
  5
172
330
2
100
AcDbEntity
  8
0
100
AcDbLine
 10
7.57487077950541
 20
7.900663443975546
 30
0.0
 11
7.57487077950541
 21
1.033435443975545
 31
0.0
  0
ARC
  5
173
330
2
100
AcDbEntity
  8
0
100
AcDbCircle
 10
6.44987077950541
 20
2.119913443975547
 30
0.0
 40
0.308957
100
AcDbArc
 50
349.690938
 51
45.0
  0
LINE
  5
174
330
2
100
AcDbEntity
  8
0
100
AcDbLine
 10
6.753839779505412
 20
2.064623443975547
 30
0.0
 11
6.53512177950541
 21
1.614575443975545
 31
0.0
  0
LINE
  5
175
330
2
100
AcDbEntity
  8
0
  6
DASHED
100
AcDbLine
 10
5.778800204390787
 20
0.1194134439755459
 30
0.0
 11
7.056796933403568
 21
0.1194134439755459
 31
0.0
  0
LINE
  5
176
330
2
100
AcDbEntity
  8
0
100
AcDbLine
 10
7.13737077950541
 20
0.0569134439755459
 30
0.0
 11
5.63737077950541
 21
0.0569134439755459
 31
0.0
  0
LINE
  5
177
330
2
100
AcDbEntity
  8
0
100
AcDbLine
 10
6.568140570083102
 20
1.667670963805518
 30
0.0
 11
5.75752877950541
 21
0.2636414439755477
 31
0.0
  0
LINE
  5
178
330
2
100
AcDbEntity
  8
0
100
AcDbLine
 10
5.63737077950541
 20
0.1194134439755459
 30
0.0
 11
5.77880020439083
 21
0.1194134439755459
 31
0.0
  0
LINE
  5
179
330
2
100
AcDbEntity
  8
0
100
AcDbLine
 10
5.63737077950541
 20
0.1194134439755459
 30
0.0
 11
5.63737077950541
 21
0.0569134439755459
 31
0.0
  0
ARC
  5
17A
330
2
100
AcDbEntity
  8
0
100
AcDbCircle
 10
5.711028779505412
 20
0.1831004439755475
 30
0.0
 40
0.093
100
AcDbArc
 50
316.7796124333269
 51
59.99999999999994
  0
LINE
  5
17B
330
2
100
AcDbEntity
  8
0
100
AcDbLine
 10
5.76237077950541
 20
0.0569134439755459
 30
0.0
 11
5.76237077950541
 21
0.1194134439755459
 31
0.0
  0
LINE
  5
17C
330
2
100
AcDbEntity
  8
0
100
AcDbLine
 10
5.75752877950541
 20
0.2636414439755477
 30
0.0
 11
5.75687877950541
 21
0.2640164439755459
 31
0.0
  0
LINE
  5
17D
330
2
100
AcDbEntity
  8
0
100
AcDbLine
 10
7.63737077950541
 20
1.141688443975546
 30
0.0
 11
7.22797177950541
 21
0.2476094439755467
 31
0.0
  0
LINE
  5
17E
330
2
100
AcDbEntity
  8
0
100
AcDbLine
 10
7.056796933403568
 20
0.1194134439755459
 30
0.0
 11
7.13737077950541
 21
0.1194134439755459
 31
0.0
  0
ARC
  5
17F
330
2
100
AcDbEntity
  8
0
100
AcDbCircle
 10
7.181471779505408
 20
0.1670684439755483
 30
0.0
 40
0.093
100
AcDbArc
 50
59.99999999999994
 51
150.0
  0
LINE
  5
180
330
2
100
AcDbEntity
  8
0
100
AcDbLine
 10
7.068930779505411
 20
0.1581434439755469
 30
0.0
 11
7.100930779505411
 21
0.2135684439755465
 31
0.0
  0
LINE
  5
181
330
2
100
AcDbEntity
  8
0
100
AcDbLine
 10
7.056727779505412
 20
0.1185424439755458
 30
0.0
 11
7.056727779505412
 21
0.0569134439755459
 31
0.0
  0
ARC
  5
182
330
2
100
AcDbEntity
  8
0
100
AcDbCircle
 10
7.149471779505412
 20
0.1116434439755469
 30
0.0
 40
0.093
100
AcDbArc
 50
150.0
 51
175.745885
  0
LINE
  5
183
330
2
100
AcDbEntity
  8
0
100
AcDbLine
 10
7.13737077950541
 20
0.0569134439755459
 30
0.0
 11
7.13737077950541
 21
0.1194134439755459
 31
0.0
  0
ARC
  5
184
330
2
100
AcDbEntity
  8
0
100
AcDbCircle
 10
6.891226779505409
 20
5.432413443975548
 30
0.0
 40
0.3125
100
AcDbArc
 50
180.0
 51
246.037511
  0
ARC
  5
185
330
2
100
AcDbEntity
  8
0
100
AcDbCircle
 10
6.891226779505409
 20
3.682413443975547
 30
0.0
 40
0.3125
100
AcDbArc
 50
180.0
 51
246.037511
  0
ARC
  5
186
330
2
100
AcDbEntity
  8
0
100
AcDbCircle
 10
6.891226779505409
 20
3.682413443975547
 30
0.0
 40
0.3125
100
AcDbArc
 50
113.9509371278899
 51
154.146326
  0
ARC
  5
189
330
2
100
AcDbEntity
  8
0
100
AcDbCircle
 10
6.891226779505409
 20
2.557413443975547
 30
0.0
 40
0.3125
100
AcDbArc
 50
113.9741339013483
 51
180.0
  0
ARC
  5
18A
330
2
100
AcDbEntity
  8
0
100
AcDbCircle
 10
6.891226779505409
 20
2.557413443975547
 30
0.0
 40
0.3125
100
AcDbArc
 50
180.0
 51
224.500129
  0
LINE
  5
18C
330
2
100
AcDbEntity
  8
0
100
AcDbLine
 10
6.593042273493648
 20
3.775913445978331
 30
0.0
 11
6.610004699151141
 21
3.818686667762231
 31
0.0
  0
ARC
  5
18D
330
2
100
AcDbEntity
  8
0
100
AcDbCircle
 10
6.891226779505409
 20
3.682413443975547
 30
0.0
 40
0.3125
100
AcDbArc
 50
162.59044
 51
180.0
  0
ARC
  5
191
330
2
100
AcDbEntity
  8
0
100
AcDbCircle
 10
6.637389779505412
 20
3.128545443975547
 30
0.0
 40
0.3125
100
AcDbArc
 50
293.95093712789
 51
0.0
  0
CIRCLE
  5
192
330
2
100
AcDbEntity
  8
0
100
AcDbCircle
 10
6.828726779505409
 20
2.557413443975547
 30
0.0
 40
0.078
  0
ARC
  5
198
330
2
100
AcDbEntity
  8
0
100
AcDbCircle
 10
6.637389779505412
 20
3.128545443975547
 30
0.0
 40
0.3125
100
AcDbArc
 50
293.962489
 51
295.038755
  0
ARC
  5
19A
330
2
100
AcDbEntity
  8
0
100
AcDbCircle
 10
6.637389779505412
 20
3.111281443975544
 30
0.0
 40
0.3125
100
AcDbArc
 50
19.48411099999998
 51
66.03751100000001
  0
ARC
  5
19B
330
2
100
AcDbEntity
  8
0
100
AcDbCircle
 10
6.606208916706362
 20
3.103151834011345
 30
0.0
 40
0.3446177170159907
100
AcDbArc
 50
4.225744877877061
 51
19.02919270612005
  0
CIRCLE
  5
19C
330
2
100
AcDbEntity
  8
0
100
AcDbCircle
 10
6.828726779505409
 20
3.682413443975547
 30
0.0
 40
0.078
  0
ARC
  5
19D
330
2
100
AcDbEntity
  8
0
100
AcDbCircle
 10
7.57487077950541
 20
3.239655443975545
 30
0.0
 40
0.156
100
AcDbArc
 50
90.0
 51
270.0
  0
LINE
  5
19E
330
2
100
AcDbEntity
  8
0
100
AcDbLine
 10
6.951158779505413
 20
4.861281443975543
 30
0.0
 11
6.951158779505413
 21
4.453969443975545
 31
0.0
  0
LINE
  5
19F
330
2
100
AcDbEntity
  8
0
100
AcDbLine
 10
6.94987077950541
 20
4.426175157200895
 30
0.0
 11
6.94987077950541
 21
4.250092443975545
 31
0.0
  0
ARC
  5
1A2
330
2
100
AcDbEntity
  8
0
100
AcDbCircle
 10
6.637389779505412
 20
4.253545443975547
 30
0.0
 40
0.3125
100
AcDbArc
 50
293.9741339013484
 51
0.0
  0
ARC
  5
1A3
330
2
100
AcDbEntity
  8
0
100
AcDbCircle
 10
6.637389779505412
 20
4.861281443975543
 30
0.0
 40
0.3125
100
AcDbArc
 50
0.0
 51
66.03751100000001
  0
LINE
  5
1A5
330
2
100
AcDbEntity
  8
0
100
AcDbLine
 10
6.951158779505413
 20
7.900663443975546
 30
0.0
 11
6.951158779505413
 21
5.987955573332691
 31
0.0
  0
ARC
  5
1A7
330
2
100
AcDbEntity
  8
0
100
AcDbCircle
 10
6.637389779505412
 20
6.003545443975547
 30
0.0
 40
0.3125
100
AcDbArc
 50
293.95093712789
 51
0.0
  0
LINE
  5
1AB
330
2
100
AcDbEntity
  8
0
100
AcDbLine
 10
7.57487077950541
 20
7.900663443975546
 30
0.0
 11
7.63737077950541
 21
7.900663443975546
 31
0.0
  0
LINE
  5
1AC
330
2
100
AcDbEntity
  8
0
100
AcDbLine
 10
6.94987077950541
 20
7.900663443975546
 30
0.0
 11
7.57487077950541
 21
7.900663443975546
 31
0.0
  0
LINE
  5
1AE
330
2
100
AcDbEntity
  8
0
100
AcDbLine
 10
-0.9747249999999998
 20
7.538577
 30
0.0
 11
-0.8409529999999998
 21
7.538577
 31
0.0
  0
ARC
  5
1AF
330
2
100
AcDbEntity
  8
0
100
AcDbCircle
 10
-0.9081629999999996
 20
7.129524
 30
0.0
 40
0.114071
100
AcDbArc
 50
54.808812
 51
127.538262
  0
ARC
  5
1B0
330
2
100
AcDbEntity
  8
0
100
AcDbCircle
 10
-0.9081629999999996
 20
7.282724999999999
 30
0.0
 40
0.114071
100
AcDbArc
 50
232.461738
 51
305.191188
  0
POINT
  5
1B1
330
2
100
AcDbEntity
  8
0
100
AcDbPoint
 10
-0.907
 20
6.957173000000001
 30
0.0
  0
LINE
  5
1B2
330
2
100
AcDbEntity
  8
0
100
AcDbLine
 10
-0.9077500000000001
 20
6.957173000000001
 30
0.0
 11
-1.00075
 21
7.050173000000001
 31
0.0
  0
LINE
  5
1B3
330
2
100
AcDbEntity
  8
0
100
AcDbLine
 10
-0.907
 20
6.957173000000001
 30
0.0
 11
-0.81325
 21
7.050923000000001
 31
0.0
  0
LINE
  5
1B4
330
2
100
AcDbEntity
  8
0
100
AcDbLine
 10
-0.9077500000000001
 20
6.957173000000001
 30
0.0
 11
-0.907
 21
6.957173000000001
 31
0.0
  0
LINE
  5
1B5
330
2
100
AcDbEntity
  8
0
100
AcDbLine
 10
-0.9077500000000001
 20
6.78125
 30
0.0
 11
-0.907
 21
6.78125
 31
0.0
  0
LINE
  5
1B6
330
2
100
AcDbEntity
  8
0
100
AcDbLine
 10
-1.00075
 20
7.53125
 30
0.0
 11
-1.00075
 21
6.87425
 31
0.0
  0
LINE
  5
1B7
330
2
100
AcDbEntity
  8
0
100
AcDbLine
 10
-0.81325
 20
6.875
 30
0.0
 11
-0.81325
 21
7.53125
 31
0.0
  0
LINE
  5
1B8
330
2
100
AcDbEntity
  8
0
100
AcDbLine
 10
-0.907
 20
6.78125
 30
0.0
 11
-0.81325
 21
6.875
 31
0.0
  0
LINE
  5
1B9
330
2
100
AcDbEntity
  8
0
100
AcDbLine
 10
-0.9077500000000001
 20
6.78125
 30
0.0
 11
-1.00075
 21
6.87425
 31
0.0
  0
POINT
  5
1BA
330
2
100
AcDbEntity
  8
0
100
AcDbPoint
 10
-0.907
 20
6.78125
 30
0.0
  0
LINE
  5
1BB
330
2
100
AcDbEntity
  8
0
100
AcDbLine
 10
-0.9180220000000006
 20
13.03304237323607
 30
0.0
 11
-0.9880220000000008
 21
13.05304237323607
 31
0.0
  0
LINE
  5
1BC
330
2
100
AcDbEntity
  8
0
100
AcDbLine
 10
-0.9880220000000008
 20
13.05304237323607
 30
0.0
 11
-0.9880220000000008
 21
13.40804237323607
 31
0.0
  0
LINE
  5
1BD
330
2
100
AcDbEntity
  8
0
100
AcDbLine
 10
-0.8705220000000011
 20
13.03304237323607
 30
0.0
 11
-0.9180220000000006
 21
13.03304237323607
 31
0.0
  0
LINE
  5
1BE
330
2
100
AcDbEntity
  8
0
100
AcDbLine
 10
-0.8705220000000011
 20
13.03304237323607
 30
0.0
 11
-0.8005220000000008
 21
13.05304237323607
 31
0.0
  0
LINE
  5
1BF
330
2
100
AcDbEntity
  8
0
100
AcDbLine
 10
-0.8005220000000008
 20
13.40804237323607
 30
0.0
 11
-0.8005220000000008
 21
13.05304237323607
 31
0.0
  0
LINE
  5
1C0
330
2
100
AcDbEntity
  8
0
100
AcDbLine
 10
1.412224999999999
 20
7.538577
 30
0.0
 11
1.278453
 21
7.538577
 31
0.0
  0
ARC
  5
1C1
330
2
100
AcDbEntity
  8
0
100
AcDbCircle
 10
1.345663
 20
7.129524
 30
0.0
 40
0.114071
100
AcDbArc
 50
52.46173799999995
 51
125.191188
  0
ARC
  5
1C2
330
2
100
AcDbEntity
  8
0
100
AcDbCircle
 10
1.345663
 20
7.282724999999999
 30
0.0
 40
0.114071
100
AcDbArc
 50
234.808812
 51
307.538262
  0
POINT
  5
1C3
330
2
100
AcDbEntity
  8
0
100
AcDbPoint
 10
1.3445
 20
6.957173000000001
 30
0.0
 50
180.0
  0
LINE
  5
1C4
330
2
100
AcDbEntity
  8
0
100
AcDbLine
 10
1.34525
 20
6.957173000000001
 30
0.0
 11
1.43825
 21
7.050173000000001
 31
0.0
  0
LINE
  5
1C5
330
2
100
AcDbEntity
  8
0
100
AcDbLine
 10
1.3445
 20
6.957173000000001
 30
0.0
 11
1.25075
 21
7.050923000000001
 31
0.0
  0
LINE
  5
1C6
330
2
100
AcDbEntity
  8
0
100
AcDbLine
 10
1.34525
 20
6.957173000000001
 30
0.0
 11
1.3445
 21
6.957173000000001
 31
0.0
  0
LINE
  5
1C7
330
2
100
AcDbEntity
  8
0
100
AcDbLine
 10
1.34525
 20
6.78125
 30
0.0
 11
1.3445
 21
6.78125
 31
0.0
  0
LINE
  5
1C8
330
2
100
AcDbEntity
  8
0
100
AcDbLine
 10
1.43825
 20
7.53125
 30
0.0
 11
1.43825
 21
6.87425
 31
0.0
  0
LINE
  5
1C9
330
2
100
AcDbEntity
  8
0
100
AcDbLine
 10
1.25075
 20
6.875
 30
0.0
 11
1.25075
 21
7.53125
 31
0.0
  0
LINE
  5
1CA
330
2
100
AcDbEntity
  8
0
100
AcDbLine
 10
1.3445
 20
6.78125
 30
0.0
 11
1.25075
 21
6.875
 31
0.0
  0
LINE
  5
1CB
330
2
100
AcDbEntity
  8
0
100
AcDbLine
 10
1.34525
 20
6.78125
 30
0.0
 11
1.43825
 21
6.87425
 31
0.0
  0
POINT
  5
1CC
330
2
100
AcDbEntity
  8
0
100
AcDbPoint
 10
1.3445
 20
6.78125
 30
0.0
 50
180.0
  0
LINE
  5
1CD
330
2
100
AcDbEntity
  8
0
100
AcDbLine
 10
1.355522000000001
 20
13.03304237323607
 30
0.0
 11
1.425522000000001
 21
13.05304237323607
 31
0.0
  0
LINE
  5
1CE
330
2
100
AcDbEntity
  8
0
100
AcDbLine
 10
1.425522000000001
 20
13.05304237323607
 30
0.0
 11
1.425522000000001
 21
13.40804237323607
 31
0.0
  0
LINE
  5
1CF
330
2
100
AcDbEntity
  8
0
100
AcDbLine
 10
1.308022000000001
 20
13.03304237323607
 30
0.0
 11
1.355522000000001
 21
13.03304237323607
 31
0.0
  0
LINE
  5
1D0
330
2
100
AcDbEntity
  8
0
100
AcDbLine
 10
1.308022000000001
 20
13.03304237323607
 30
0.0
 11
1.238022000000001
 21
13.05304237323607
 31
0.0
  0
LINE
  5
1D1
330
2
100
AcDbEntity
  8
0
100
AcDbLine
 10
1.238022000000001
 20
13.40804237323607
 30
0.0
 11
1.238022000000001
 21
13.05304237323607
 31
0.0
  0
LINE
  5
1D2
330
2
100
AcDbEntity
  8
0
100
AcDbLine
 10
7.57355077950541
 20
7.248415443975546
 30
0.0
 11
7.301450779505412
 21
7.330405443975543
 31
0.0
  0
LINE
  5
1D3
330
2
100
AcDbEntity
  8
0
100
AcDbLine
 10
7.304425779505412
 20
7.368884443975546
 30
0.0
 11
7.57515777950541
 21
7.524732443975545
 31
0.0
  0
ARC
  5
1D4
330
2
100
AcDbEntity
  8
0
100
AcDbCircle
 10
7.306491779505411
 20
7.348986443975548
 30
0.0
 40
0.019337
100
AcDbArc
 50
113.110122
 51
272.9435379999999
  0
LINE
  5
1D5
330
2
100
AcDbEntity
  8
0
100
AcDbLine
 10
7.250191779505411
 20
7.248166443975546
 30
0.0
 11
7.57487077950541
 21
7.150663443975546
 31
0.0
  0
LINE
  5
1D6
330
2
100
AcDbEntity
  8
0
100
AcDbLine
 10
7.264553779505413
 20
7.410965443975549
 30
0.0
 11
7.57355077950541
 21
7.587585443975549
 31
0.0
  0
ARC
  5
1D7
330
2
100
AcDbEntity
  8
0
100
AcDbCircle
 10
7.277471779505412
 20
7.325858443975548
 30
0.0
 40
0.083053
100
AcDbArc
 50
100.9394620000001
 51
265.0416969999999
  0
ARC
  5
1DC
330
2
100
AcDbEntity
  8
0
100
AcDbCircle
 10
-6.839971779505412
 20
7.325858443975548
 30
0.0
 40
0.083053
100
AcDbArc
 50
274.958303
 51
79.06053799999992
  0
LINE
  5
1DD
330
2
100
AcDbEntity
  8
0
100
AcDbLine
 10
-6.51237077950541
 20
7.900663443975546
 30
0.0
 11
-7.13737077950541
 21
7.900663443975546
 31
0.0
  0
LINE
  5
1DE
330
2
100
AcDbEntity
  8
0
100
AcDbLine
 10
-7.19987077950541
 20
1.141688443975546
 30
0.0
 11
-6.79047177950541
 21
0.2476094439755467
 31
0.0
  0
ARC
  5
1E2
330
2
100
AcDbEntity
  8
0
100
AcDbCircle
 10
-6.453726779505409
 20
3.869413443975546
 30
0.0
 40
0.3125
100
AcDbArc
 50
25.853674
 51
66.04906287211007
  0
LINE
  5
1E3
330
2
100
AcDbEntity
  8
0
100
AcDbLine
 10
-6.130640570083102
 20
1.667670963805518
 30
0.0
 11
-5.32002877950541
 21
0.2636414439755477
 31
0.0
  0
LINE
  5
1E4
330
2
100
AcDbEntity
  8
0
100
AcDbLine
 10
-6.69987077950541
 20
0.0569134439755459
 30
0.0
 11
-5.19987077950541
 21
0.0569134439755459
 31
0.0
  0
LINE
  5
1E5
330
2
100
AcDbEntity
  8
0
  6
DASHED
100
AcDbLine
 10
-5.341300204390787
 20
0.1194134439755459
 30
0.0
 11
-6.619296933403568
 21
0.1194134439755459
 31
0.0
  0
ARC
  5
1E6
330
2
100
AcDbEntity
  8
0
100
AcDbCircle
 10
-5.273528779505412
 20
0.1831004439755475
 30
0.0
 40
0.093
100
AcDbArc
 50
120.0000000000001
 51
223.2203875666732
  0
LINE
  5
1E7
330
2
100
AcDbEntity
  8
0
100
AcDbLine
 10
-5.19987077950541
 20
0.1194134439755459
 30
0.0
 11
-5.34130020439083
 21
0.1194134439755459
 31
0.0
  0
LINE
  5
1E8
330
2
100
AcDbEntity
  8
0
100
AcDbLine
 10
-5.19987077950541
 20
0.1194134439755459
 30
0.0
 11
-5.19987077950541
 21
0.0569134439755459
 31
0.0
  0
LINE
  5
1E9
330
2
100
AcDbEntity
  8
0
100
AcDbLine
 10
-5.32487077950541
 20
0.0569134439755459
 30
0.0
 11
-5.32487077950541
 21
0.1194134439755459
 31
0.0
  0
LINE
  5
1EA
330
2
100
AcDbEntity
  8
0
100
AcDbLine
 10
-5.32002877950541
 20
0.2636414439755477
 30
0.0
 11
-5.31937877950541
 21
0.2640164439755459
 31
0.0
  0
ARC
  5
1EB
330
2
100
AcDbEntity
  8
0
100
AcDbCircle
 10
-6.743971779505408
 20
0.1670684439755483
 30
0.0
 40
0.093
100
AcDbArc
 50
30.00000000000003
 51
120.0000000000001
  0
ARC
  5
1EC
330
2
100
AcDbEntity
  8
0
100
AcDbCircle
 10
-6.711971779505412
 20
0.1116434439755469
 30
0.0
 40
0.093
100
AcDbArc
 50
4.254115000000009
 51
30.00000000000003
  0
LINE
  5
1ED
330
2
100
AcDbEntity
  8
0
100
AcDbLine
 10
-6.619296933403568
 20
0.1194134439755459
 30
0.0
 11
-6.69987077950541
 21
0.1194134439755459
 31
0.0
  0
LINE
  5
1EE
330
2
100
AcDbEntity
  8
0
100
AcDbLine
 10
-6.619227779505412
 20
0.1185424439755458
 30
0.0
 11
-6.619227779505412
 21
0.0569134439755459
 31
0.0
  0
LINE
  5
1EF
330
2
100
AcDbEntity
  8
0
100
AcDbLine
 10
-6.69987077950541
 20
0.0569134439755459
 30
0.0
 11
-6.69987077950541
 21
0.1194134439755459
 31
0.0
  0
LINE
  5
1F0
330
2
100
AcDbEntity
  8
0
100
AcDbLine
 10
-6.631430779505411
 20
0.1581434439755469
 30
0.0
 11
-6.663430779505411
 21
0.2135684439755465
 31
0.0
  0
ARC
  5
1F1
330
2
100
AcDbEntity
  8
0
100
AcDbCircle
 10
-6.01237077950541
 20
2.306913443975546
 30
0.0
 40
0.308957
100
AcDbArc
 50
135.0
 51
190.309062
  0
LINE
  5
1F2
330
2
100
AcDbEntity
  8
0
100
AcDbLine
 10
-6.316339779505412
 20
2.251623443975547
 30
0.0
 11
-6.130640570083102
 21
1.667670963805518
 31
0.0
  0
ARC
  5
1F3
330
2
100
AcDbEntity
  8
0
100
AcDbCircle
 10
-6.453726779505409
 20
2.744413443975546
 30
0.0
 40
0.3125
100
AcDbArc
 50
0.000000000000007
 51
66.02586609865172
  0
ARC
  5
1F5
330
2
100
AcDbEntity
  8
0
100
AcDbCircle
 10
-6.453726779505409
 20
3.869413443975546
 30
0.0
 40
0.3125
100
AcDbArc
 50
293.962489
 51
0.000000000000007
  0
ARC
  5
1F6
330
2
100
AcDbEntity
  8
0
100
AcDbCircle
 10
-6.199889779505412
 20
3.315545443975546
 30
0.0
 40
0.3125
100
AcDbArc
 50
180.0
 51
246.04906287211
  0
CIRCLE
  5
1FA
330
2
100
AcDbEntity
  8
0
100
AcDbCircle
 10
-6.391226779505409
 20
2.744413443975546
 30
0.0
 40
0.078
  0
ARC
  5
1FD
330
2
100
AcDbEntity
  8
0
100
AcDbCircle
 10
-6.453726779505409
 20
2.744413443975546
 30
0.0
 40
0.3125
100
AcDbArc
 50
315.499871
 51
0.000000000000007
  0
CIRCLE
  5
203
330
2
100
AcDbEntity
  8
0
100
AcDbCircle
 10
-6.391226779505409
 20
3.869413443975546
 30
0.0
 40
0.078
  0
ARC
  5
204
330
2
100
AcDbEntity
  8
0
100
AcDbCircle
 10
-6.199889779505413
 20
3.298281443975545
 30
0.0
 40
0.3124999999999985
100
AcDbArc
 50
113.962489
 51
167.3595370000002
  0
ARC
  5
205
330
2
100
AcDbEntity
  8
0
100
AcDbCircle
 10
-6.453726779505409
 20
3.869413443975546
 30
0.0
 40
0.3125
100
AcDbArc
 50
0.000000000000007
 51
17.40956000000001
  0
LINE
  5
206
330
2
100
AcDbEntity
  8
0
100
AcDbLine
 10
-6.155542273493648
 20
3.96291344597833
 30
0.0
 11
-6.172504699151141
 21
4.00568666776223
 31
0.0
  0
ARC
  5
207
330
2
100
AcDbEntity
  8
0
100
AcDbCircle
 10
-6.199889779505412
 20
3.298281443975544
 30
0.0
 40
0.3125
100
AcDbArc
 50
167.359537
 51
180.0
  0
LINE
  5
208
330
2
100
AcDbEntity
  8
0
100
AcDbLine
 10
-6.513658779505413
 20
7.900663443975546
 30
0.0
 11
-6.512389779505412
 21
6.190545443975546
 31
0.0
  0
ARC
  5
20C
330
2
100
AcDbEntity
  8
0
100
AcDbCircle
 10
-6.453726779505409
 20
5.619413443975548
 30
0.0
 40
0.3125
100
AcDbArc
 50
0.000000000000007
 51
66.02586609865172
  0
ARC
  5
20D
330
2
100
AcDbEntity
  8
0
100
AcDbCircle
 10
-6.453726779505409
 20
5.619413443975548
 30
0.0
 40
0.3125
100
AcDbArc
 50
293.962489
 51
0.000000000000007
  0
LINE
  5
20E
330
2
100
AcDbEntity
  8
0
100
AcDbLine
 10
-6.513658779505413
 20
5.048281443975542
 30
0.0
 11
-6.512389779505412
 21
4.440545443975546
 31
0.0
  0
ARC
  5
20F
330
2
100
AcDbEntity
  8
0
100
AcDbCircle
 10
-6.199889779505412
 20
4.440545443975546
 30
0.0
 40
0.3125
100
AcDbArc
 50
180.0
 51
246.0258660986517
  0
ARC
  5
212
330
2
100
AcDbEntity
  8
0
100
AcDbCircle
 10
-6.199889779505412
 20
5.048281443975542
 30
0.0
 40
0.3125
100
AcDbArc
 50
113.962489
 51
180.0
  0
CIRCLE
  5
213
330
2
100
AcDbEntity
  8
0
100
AcDbCircle
 10
-6.391226779505409
 20
5.619413443975548
 30
0.0
 40
0.078
  0
ARC
  5
215
330
2
100
AcDbEntity
  8
0
100
AcDbCircle
 10
-6.199889779505412
 20
6.190545443975546
 30
0.0
 40
0.3125
100
AcDbArc
 50
180.0
 51
246.04906287211
  0
LINE
  5
217
330
2
100
AcDbEntity
  8
0
100
AcDbLine
 10
-7.13737077950541
 20
7.900663443975546
 30
0.0
 11
-7.13737077950541
 21
1.033435443975545
 31
0.0
  0
LINE
  5
218
330
2
100
AcDbEntity
  8
0
100
AcDbLine
 10
-7.19987077950541
 20
7.900663443975546
 30
0.0
 11
-7.19987077950541
 21
1.141688443975546
 31
0.0
  0
ARC
  5
219
330
2
100
AcDbEntity
  8
0
100
AcDbCircle
 10
-7.13737077950541
 20
3.239655443975545
 30
0.0
 40
0.156
100
AcDbArc
 50
270.0
 51
90.0
  0
LINE
  5
21A
330
2
100
AcDbEntity
  8
0
100
AcDbLine
 10
-6.812691779505411
 20
7.248166443975546
 30
0.0
 11
-7.13737077950541
 21
7.150663443975546
 31
0.0
  0
LINE
  5
21B
330
2
100
AcDbEntity
  8
0
100
AcDbLine
 10
-6.827053779505413
 20
7.410965443975549
 30
0.0
 11
-7.13605077950541
 21
7.587585443975549
 31
0.0
  0
LINE
  5
21C
330
2
100
AcDbEntity
  8
0
100
AcDbLine
 10
-6.866925779505412
 20
7.368884443975546
 30
0.0
 11
-7.13765777950541
 21
7.524732443975545
 31
0.0
  0
LINE
  5
21D
330
2
100
AcDbEntity
  8
0
100
AcDbLine
 10
-7.13605077950541
 20
7.248415443975546
 30
0.0
 11
-6.863950779505412
 21
7.330405443975543
 31
0.0
  0
ARC
  5
21E
330
2
100
AcDbEntity
  8
0
100
AcDbCircle
 10
-6.868991779505411
 20
7.348986443975548
 30
0.0
 40
0.019337
100
AcDbArc
 50
267.0564620000001
 51
66.88987799999998
  0
LINE
  5
21F
330
2
100
AcDbEntity
  8
0
100
AcDbLine
 10
-7.13737077950541
 20
7.900663443975546
 30
0.0
 11
-7.19987077950541
 21
7.900663443975546
 31
0.0
  0
ENDSEC
  0
SECTION
  2
OBJECTS
  0
DICTIONARY
  5
9
330
0
100
AcDbDictionary
281
     1
  3
ACAD_COLOR
350
226
  3
ACAD_GROUP
350
23
  3
ACAD_LAYOUT
350
D
  3
ACAD_MATERIAL
350
225
  3
ACAD_MLINESTYLE
350
24
  3
ACAD_PLOTSETTINGS
350
25
  3
ACAD_PLOTSTYLENAME
350
8
  3
ACAD_TABLESTYLE
350
227
  3
ACDBHEADERROUNDTRIPXREC
350
23D
  3
AcDbVariableDictionary
350
107
  0
DICTIONARY
  5
226
102
{ACAD_REACTORS
330
9
102
}
330
9
100
AcDbDictionary
281
     1
  0
DICTIONARY
  5
23
102
{ACAD_REACTORS
330
9
102
}
330
9
100
AcDbDictionary
281
     1
  0
DICTIONARY
  5
D
102
{ACAD_REACTORS
330
9
102
}
330
9
100
AcDbDictionary
281
     1
  3
Layout1
350
13
  3
Model
350
C
  0
DICTIONARY
  5
225
102
{ACAD_REACTORS
330
9
102
}
330
9
100
AcDbDictionary
281
     1
  0
DICTIONARY
  5
24
102
{ACAD_REACTORS
330
9
102
}
330
9
100
AcDbDictionary
281
     1
  3
Standard
350
27
  0
DICTIONARY
  5
25
102
{ACAD_REACTORS
330
9
102
}
330
9
100
AcDbDictionary
281
     1
  0
ACDBDICTIONARYWDFLT
  5
8
102
{ACAD_REACTORS
330
9
102
}
330
9
100
AcDbDictionary
281
     1
  3
Normal
350
7
100
AcDbDictionaryWithDefault
340
7
  0
DICTIONARY
  5
227
102
{ACAD_REACTORS
330
9
102
}
330
9
100
AcDbDictionary
281
     1
  3
Standard
350
228
  0
DICTIONARY
  5
23D
102
{ACAD_REACTORS
330
9
102
}
330
9
100
AcDbDictionary
281
     1
  3
COLORDICT
350
23E
  3
MATERIALDICT
350
23F
  0
DICTIONARY
  5
107
102
{ACAD_REACTORS
330
9
102
}
330
9
100
AcDbDictionary
281
     1
  3
CTABLESTYLE
350
231
  3
HIDETEXT
350
23C
  0
LAYOUT
  5
13
102
{ACAD_REACTORS
330
D
102
}
102
{ACAD_XDICTIONARY
360
240
102
}
330
D
100
AcDbPlotSettings
  1

  2
C:\ACAD2000\plotters\HP LaserJet 2100 Series PS.pc3
  4

  6

 40
0.0
 41
0.0
 42
0.0
 43
0.0
 44
0.0
 45
0.0
 46
0.0
 47
0.0
 48
0.0
 49
0.0
140
0.0
141
0.0
142
1.0
143
1.0
 70
   688
 72
     0
 73
     0
 74
     5
  7

 75
    16
147
1.0
148
0.0
149
0.0
100
AcDbLayout
  1
Layout1
 70
     0
 71
     1
 10
0.0
 20
0.0
 11
12.0
 21
9.0
 12
0.0
 22
0.0
 32
0.0
 14
1.000000000000000E+20
 24
1.000000000000000E+20
 34
1.000000000000000E+20
 15
-1.000000000000000E+20
 25
-1.000000000000000E+20
 35
-1.000000000000000E+20
146
0.0
 13
0.0
 23
0.0
 33
0.0
 16
1.0
 26
0.0
 36
0.0
 17
0.0
 27
1.0
 37
0.0
 76
     0
330
E
  0
LAYOUT
  5
C
102
{ACAD_REACTORS
330
D
102
}
102
{ACAD_XDICTIONARY
360
242
102
}
330
D
100
AcDbPlotSettings
  1

  2
HP LaserJet 2100 Series PS
  4
Letter
  6

 40
5.365749835968018
 41
5.408073902130127
 42
5.132904052734375
 43
5.090576171875
 44
215.8999938964844
 45
279.3999938964844
 46
0.0
 47
0.0
 48
0.0
 49
0.0
140
0.0
141
0.0
142
1.0
143
1.983627126654061
 70
 28336
 72
     0
 73
     0
 74
     2
  7

 75
     0
147
0.5041270037916745
148
0.0
149
0.0
100
AcDbLayout
  1
Model
 70
     1
 71
     0
 10
0.0
 20
0.0
 11
12.0
 21
9.0
 12
0.0
 22
0.0
 32
0.0
 14
0.0
 24
0.0
 34
0.0
 15
0.0
 25
0.0
 35
0.0
146
0.0
 13
0.0
 23
0.0
 33
0.0
 16
1.0
 26
0.0
 36
0.0
 17
0.0
 27
1.0
 37
0.0
 76
     0
330
2
  0
MLINESTYLE
  5
27
102
{ACAD_REACTORS
330
24
102
}
330
24
100
AcDbMlineStyle
  2
STANDARD
 70
     0
  3

 62
   256
 51
90.0
 52
90.0
 71
     2
 49
0.5
 62
   256
  6
BYLAYER
 49
-0.5
 62
   256
  6
BYLAYER
  0
ACDBPLACEHOLDER
  5
7
102
{ACAD_REACTORS
330
8
102
}
330
8
  0
ACAD_PROXY_OBJECT
  5
228
102
{ACAD_REACTORS
330
227
102
}
330
227
100
AcDbProxyObject
 90
      499
 91
      512
 95
   983063
 70
     0
 93
     1841
310
4214DD185B99185C9928B81E85EB51B8AE3F2E07A17AD46E2B8FC02B5E8DC0F42B1CFD028000000C1008070000C3001FDFF8000000C1003FBFF000000182007F7FE00000030400FEFFC00000060801FDFF8000000C1003FBFF00000018200000000000000681FA0B0000001820100E000186003FBFF000000182007F7FE000
310
00030400FEFFC00000060801FDFF8000000C1003FBFF000000182007F7FE000000304000AD7A3703D0AC73F4160000003040201C00030C007F7FE00000030400FEFFC00000060801FDFF8000000C1003FBFF000000182007F7FE00000030400FEFFC000000608000
340
16
340
16
340
16
 94
        0
  0
XRECORD
  5
23E
102
{ACAD_REACTORS
330
23D
102
}
330
23D
100
AcDbXrecord
340
226
  0
XRECORD
  5
23F
102
{ACAD_REACTORS
330
23D
102
}
330
23D
100
AcDbXrecord
340
225
  0
DICTIONARYVAR
  5
231
102
{ACAD_REACTORS
330
107
102
}
330
107
100
DictionaryVariables
280
     0
  1
STANDARD
  0
DICTIONARYVAR
  5
23C
102
{ACAD_REACTORS
330
107
102
}
330
107
100
DictionaryVariables
280
     0
  1
0
  0
DICTIONARY
  5
240
330
13
100
AcDbDictionary
280
     1
281
     1
  3
ACAD_XREC_ROUNDTRIP
360
241
  0
DICTIONARY
  5
242
330
C
100
AcDbDictionary
280
     1
281
     1
  3
ACAD_XREC_ROUNDTRIP
360
243
  0
XRECORD
  5
241
102
{ACAD_REACTORS
330
240
102
}
330
240
100
AcDbXrecord
102
SHADEPLOT
 70
     0
102
SHADEPLOTRESLEVEL
 70
     2
102
SHADEPLOTCUSTOMDPI
 70
   300
  0
XRECORD
  5
243
102
{ACAD_REACTORS
330
242
102
}
330
242
100
AcDbXrecord
102
SHADEPLOT
 70
     0
102
SHADEPLOTRESLEVEL
 70
     2
102
SHADEPLOTCUSTOMDPI
 70
   300
  0
ENDSEC
  0
EOF
