  0
SECTION
  2
HEADER
  9
$ACADVER
  1
AC1015
  9
$ACADMAINTVER
 70
     6
  9
$DWGCODEPAGE
  3
ANSI_1252
  9
$INSBASE
 10
0.0
 20
0.0
 30
0.0
  9
$EXTMIN
 10
-5.797933404705255
 20
-0.0258883476483184
 30
0.0
  9
$EXTMAX
 10
5.797933404705255
 20
7.586499124827212
 30
0.0
  9
$LIMMIN
 10
0.0
 20
0.0
  9
$LIMMAX
 10
13.3328
 20
17.4993
  9
$ORTHOMODE
 70
     1
  9
$REGENMODE
 70
     1
  9
$FILLMODE
 70
     1
  9
$QTEXTMODE
 70
     0
  9
$MIRRTEXT
 70
     1
  9
$LTSCALE
 40
0.5
  9
$ATTMODE
 70
     1
  9
$TEXTSIZE
 40
0.149994
  9
$TRACEWID
 40
0.0416
  9
$TEXTSTYLE
  7
STANDARD
  9
$CLAYER
  8
0
  9
$CELTYPE
  6
ByLayer
  9
$CECOLOR
 62
   256
  9
$CELTSCALE
 40
1.0
  9
$DISPSILH
 70
     0
  9
$DIMSCALE
 40
1.6666
  9
$DIMASZ
 40
0.208
  9
$DIMEXO
 40
0.125
  9
$DIMDLI
 40
0.38
  9
$DIMRND
 40
0.0
  9
$DIMDLE
 40
0.0
  9
$DIMEXE
 40
0.133
  9
$DIMTP
 40
0.0
  9
$DIMTM
 40
0.0
  9
$DIMTXT
 40
0.15
  9
$DIMCEN
 40
-0.1
  9
$DIMTSZ
 40
0.0
  9
$DIMTOL
 70
     0
  9
$DIMLIM
 70
     0
  9
$DIMTIH
 70
     1
  9
$DIMTOH
 70
     1
  9
$DIMSE1
 70
     0
  9
$DIMSE2
 70
     0
  9
$DIMTAD
 70
     0
  9
$DIMZIN
 70
     0
  9
$DIMBLK
  1

  9
$DIMASO
 70
     0
  9
$DIMSHO
 70
     0
  9
$DIMPOST
  1

  9
$DIMAPOST
  1

  9
$DIMALT
 70
     0
  9
$DIMALTD
 70
     2
  9
$DIMALTF
 40
25.4
  9
$DIMLFAC
 40
1.0
  9
$DIMTOFL
 70
     0
  9
$DIMTVP
 40
0.0
  9
$DIMTIX
 70
     0
  9
$DIMSOXD
 70
     0
  9
$DIMSAH
 70
     0
  9
$DIMBLK1
  1

  9
$DIMBLK2
  1

  9
$DIMSTYLE
  2
Standard
  9
$DIMCLRD
 70
     0
  9
$DIMCLRE
 70
     0
  9
$DIMCLRT
 70
     0
  9
$DIMTFAC
 40
1.0
  9
$DIMGAP
 40
0.09
  9
$DIMJUST
 70
     0
  9
$DIMSD1
 70
     0
  9
$DIMSD2
 70
     0
  9
$DIMTOLJ
 70
     1
  9
$DIMTZIN
 70
     0
  9
$DIMALTZ
 70
     0
  9
$DIMALTTZ
 70
     0
  9
$DIMUPT
 70
     0
  9
$DIMDEC
 70
     4
  9
$DIMTDEC
 70
     4
  9
$DIMALTU
 70
     2
  9
$DIMALTTD
 70
     2
  9
$DIMTXSTY
  7
STANDARD
  9
$DIMAUNIT
 70
     0
  9
$DIMADEC
 70
     0
  9
$DIMALTRND
 40
0.0
  9
$DIMAZIN
 70
     0
  9
$DIMDSEP
 70
    46
  9
$DIMATFIT
 70
     3
  9
$DIMFRAC
 70
     0
  9
$DIMLDRBLK
  1

  9
$DIMLUNIT
 70
     2
  9
$DIMLWD
 70
    -2
  9
$DIMLWE
 70
    -2
  9
$DIMTMOVE
 70
     2
  9
$LUNITS
 70
     2
  9
$LUPREC
 70
     4
  9
$SKETCHINC
 40
0.1
  9
$FILLETRAD
 40
0.125
  9
$AUNITS
 70
     0
  9
$AUPREC
 70
     0
  9
$MENU
  1
ACAD
  9
$ELEVATION
 40
0.0
  9
$PELEVATION
 40
0.0
  9
$THICKNESS
 40
0.0
  9
$LIMCHECK
 70
     0
  9
$CHAMFERA
 40
0.0
  9
$CHAMFERB
 40
0.0
  9
$CHAMFERC
 40
0.0
  9
$CHAMFERD
 40
0.0
  9
$SKPOLY
 70
     0
  9
$TDCREATE
 40
2448867.786284491
  9
$TDUCREATE
 40
2448868.119617824
  9
$TDUPDATE
 40
2454168.956373032
  9
$TDUUPDATE
 40
2454169.289706366
  9
$TDINDWG
 40
0.0392678704
  9
$TDUSRTIMER
 40
0.0392678704
  9
$USRTIMER
 70
     1
  9
$ANGBASE
 50
0.0
  9
$ANGDIR
 70
     0
  9
$PDMODE
 70
     0
  9
$PDSIZE
 40
0.0
  9
$PLINEWID
 40
0.0
  9
$SPLFRAME
 70
     0
  9
$SPLINETYPE
 70
     6
  9
$SPLINESEGS
 70
     8
  9
$HANDSEED
  5
193
  9
$SURFTAB1
 70
     6
  9
$SURFTAB2
 70
     6
  9
$SURFTYPE
 70
     6
  9
$SURFU
 70
     6
  9
$SURFV
 70
     6
  9
$UCSBASE
  2

  9
$UCSNAME
  2

  9
$UCSORG
 10
0.0
 20
0.0
 30
0.0
  9
$UCSXDIR
 10
1.0
 20
0.0
 30
0.0
  9
$UCSYDIR
 10
0.0
 20
1.0
 30
0.0
  9
$UCSORTHOREF
  2

  9
$UCSORTHOVIEW
 70
     0
  9
$UCSORGTOP
 10
0.0
 20
0.0
 30
0.0
  9
$UCSORGBOTTOM
 10
0.0
 20
0.0
 30
0.0
  9
$UCSORGLEFT
 10
0.0
 20
0.0
 30
0.0
  9
$UCSORGRIGHT
 10
0.0
 20
0.0
 30
0.0
  9
$UCSORGFRONT
 10
0.0
 20
0.0
 30
0.0
  9
$UCSORGBACK
 10
0.0
 20
0.0
 30
0.0
  9
$PUCSBASE
  2

  9
$PUCSNAME
  2

  9
$PUCSORG
 10
0.0
 20
0.0
 30
0.0
  9
$PUCSXDIR
 10
1.0
 20
0.0
 30
0.0
  9
$PUCSYDIR
 10
0.0
 20
1.0
 30
0.0
  9
$PUCSORTHOREF
  2

  9
$PUCSORTHOVIEW
 70
     0
  9
$PUCSORGTOP
 10
0.0
 20
0.0
 30
0.0
  9
$PUCSORGBOTTOM
 10
0.0
 20
0.0
 30
0.0
  9
$PUCSORGLEFT
 10
0.0
 20
0.0
 30
0.0
  9
$PUCSORGRIGHT
 10
0.0
 20
0.0
 30
0.0
  9
$PUCSORGFRONT
 10
0.0
 20
0.0
 30
0.0
  9
$PUCSORGBACK
 10
0.0
 20
0.0
 30
0.0
  9
$USERI1
 70
     0
  9
$USERI2
 70
     0
  9
$USERI3
 70
     0
  9
$USERI4
 70
     0
  9
$USERI5
 70
     0
  9
$USERR1
 40
0.0
  9
$USERR2
 40
0.0
  9
$USERR3
 40
0.0
  9
$USERR4
 40
0.0
  9
$USERR5
 40
0.0
  9
$WORLDVIEW
 70
     1
  9
$SHADEDGE
 70
     3
  9
$SHADEDIF
 70
    70
  9
$TILEMODE
 70
     1
  9
$MAXACTVP
 70
    16
  9
$PINSBASE
 10
0.0
 20
0.0
 30
0.0
  9
$PLIMCHECK
 70
     0
  9
$PEXTMIN
 10
1.000000000000000E+20
 20
1.000000000000000E+20
 30
1.000000000000000E+20
  9
$PEXTMAX
 10
-1.000000000000000E+20
 20
-1.000000000000000E+20
 30
-1.000000000000000E+20
  9
$PLIMMIN
 10
0.0
 20
0.0
  9
$PLIMMAX
 10
12.0
 20
9.0
  9
$UNITMODE
 70
     0
  9
$VISRETAIN
 70
     0
  9
$PLINEGEN
 70
     0
  9
$PSLTSCALE
 70
     0
  9
$TREEDEPTH
 70
  3020
  9
$CMLSTYLE
  2
Standard
  9
$CMLJUST
 70
     0
  9
$CMLSCALE
 40
1.0
  9
$PROXYGRAPHICS
 70
     1
  9
$MEASUREMENT
 70
     0
  9
$CELWEIGHT
370
    -1
  9
$ENDCAPS
280
     0
  9
$JOINSTYLE
280
     0
  9
$LWDISPLAY
290
     0
  9
$INSUNITS
 70
     0
  9
$HYPERLINKBASE
  1

  9
$STYLESHEET
  1

  9
$XEDIT
290
     1
  9
$CEPSNTYPE
380
     0
  9
$PSTYLEMODE
290
     1
  9
$FINGERPRINTGUID
  2
{2339E980-A5E5-11D6-BE3F-00508B5FCD51}
  9
$VERSIONGUID
  2
{EACD75DB-186B-4B55-A539-30D21419211C}
  9
$EXTNAMES
290
     1
  9
$PSVPSCALE
 40
0.0
  9
$OLESTARTUP
290
     0
  0
ENDSEC
  0
SECTION
  2
CLASSES
  0
CLASS
  1
ACDBDICTIONARYWDFLT
  2
AcDbDictionaryWithDefault
  3
AutoCAD 2000
 90
        0
280
     0
281
     0
  0
CLASS
  1
ACDBPLACEHOLDER
  2
AcDbPlaceHolder
  3
ObjectDBX Classes
 90
        0
280
     0
281
     0
  0
CLASS
  1
LAYOUT
  2
AcDbLayout
  3
ObjectDBX Classes
 90
        0
280
     0
281
     0
  0
CLASS
  1
LONG_TRANSACTION
  2
AcDbLongTransaction
  3
ObjectDBX Classes
 90
   -65536
280
     1
281
     0
  0
CLASS
  1
LWPOLYLINE
  2
AcDbPolyline
  3
AutoCAD 2000
 90
        0
280
     0
281
     1
  0
CLASS
  1
HATCH
  2
AcDbHatch
  3
AutoCAD 2000
 90
        0
280
     0
281
     1
  0
CLASS
  1
XRECORD
  2
AcDbXrecord
  3
AutoCAD 2000
 90
        0
280
     0
281
     0
  0
CLASS
  1
LONG_TRANSACTION
  2
AcDbLongTransaction
  3
ObjectDBX Classes
 90
   -65536
280
     1
281
     0
  0
CLASS
  1
LWPOLYLINE
  2
AcDbPolyline
  3
AutoCAD 2000
 90
        0
280
     0
281
     1
  0
CLASS
  1
HATCH
  2
AcDbHatch
  3
AutoCAD 2000
 90
        0
280
     0
281
     1
  0
CLASS
  1
XRECORD
  2
AcDbXrecord
  3
AutoCAD 2000
 90
        0
280
     0
281
     0
  0
CLASS
  1
LONG_TRANSACTION
  2
AcDbLongTransaction
  3
ObjectDBX Classes
 90
   -65536
280
     1
281
     0
  0
CLASS
  1
LWPOLYLINE
  2
AcDbPolyline
  3
AutoCAD 2000
 90
        0
280
     0
281
     1
  0
CLASS
  1
HATCH
  2
AcDbHatch
  3
AutoCAD 2000
 90
        0
280
     0
281
     1
  0
CLASS
  1
XRECORD
  2
AcDbXrecord
  3
AutoCAD 2000
 90
        0
280
     0
281
     0
  0
CLASS
  1
LONG_TRANSACTION
  2
AcDbLongTransaction
  3
ObjectDBX Classes
 90
   -65536
280
     1
281
     0
  0
CLASS
  1
LWPOLYLINE
  2
AcDbPolyline
  3
AutoCAD 2000
 90
        0
280
     0
281
     1
  0
CLASS
  1
HATCH
  2
AcDbHatch
  3
AutoCAD 2000
 90
        0
280
     0
281
     1
  0
CLASS
  1
XRECORD
  2
AcDbXrecord
  3
AutoCAD 2000
 90
        0
280
     0
281
     0
  0
CLASS
  1
DICTIONARYVAR
  2
AcDbDictionaryVar
  3
AutoCAD 2000
 90
        0
280
     0
281
     0
  0
CLASS
  1
TABLESTYLE
  2
AcDbTableStyle
  3
ObjectDBX Classes
 90
     2047
280
     1
281
     0
  0
CLASS
  1
SORTENTSTABLE
  2
AcDbSortentsTable
  3
AutoCAD 2000
 90
        0
280
     0
281
     0
  0
ENDSEC
  0
SECTION
  2
TABLES
  0
TABLE
  2
VPORT
  5
1D
330
0
100
AcDbSymbolTable
 70
     2
  0
VPORT
  5
185
330
1D
100
AcDbSymbolTableRecord
100
AcDbViewportTableRecord
  2
*Active
 70
     0
 10
0.0
 20
0.0
 11
1.0
 21
1.0
 12
3.158359918309092
 22
5.868012591478726
 13
0.0
 23
0.0
 14
0.0625
 24
0.0625
 15
0.25
 25
0.25
 16
0.0
 26
0.0
 36
1.0
 17
0.0
 27
0.0
 37
0.0
 40
18.0723590252583
 41
1.814583333333333
 42
50.0
 43
0.0
 44
0.0
 50
0.0
 51
0.0
 71
     0
 72
   100
 73
     1
 74
     1
 75
     0
 76
     0
 77
     0
 78
     1
281
     0
 65
     1
110
0.0
120
0.0
130
0.0
111
1.0
121
0.0
131
0.0
112
0.0
122
1.0
132
0.0
 79
     0
146
0.0
  0
ENDTAB
  0
TABLE
  2
LTYPE
  5
18
330
0
100
AcDbSymbolTable
 70
     2
  0
LTYPE
  5
19
330
18
100
AcDbSymbolTableRecord
100
AcDbLinetypeTableRecord
  2
ByBlock
 70
     0
  3

 72
    65
 73
     0
 40
0.0
  0
LTYPE
  5
1A
330
18
100
AcDbSymbolTableRecord
100
AcDbLinetypeTableRecord
  2
ByLayer
 70
     0
  3

 72
    65
 73
     0
 40
0.0
  0
LTYPE
  5
A
330
18
100
AcDbSymbolTableRecord
100
AcDbLinetypeTableRecord
  2
CONTINUOUS
 70
     0
  3
Solid line
 72
    65
 73
     0
 40
0.0
  0
LTYPE
  5
11C
330
18
100
AcDbSymbolTableRecord
100
AcDbLinetypeTableRecord
  2
HIDDEN
 70
     0
  3
Hidden __ __ __ __ __ __ __ __ __ __ __ __ __ _
 72
    65
 73
     2
 40
0.375
 49
0.25
 74
     0
 49
-0.125
 74
     0
  0
ENDTAB
  0
TABLE
  2
LAYER
  5
14
330
0
100
AcDbSymbolTable
 70
     2
  0
LAYER
  5
6
330
14
100
AcDbSymbolTableRecord
100
AcDbLayerTableRecord
  2
0
 70
     0
 62
     7
  6
CONTINUOUS
370
    -3
390
7
  0
ENDTAB
  0
TABLE
  2
STYLE
  5
15
330
0
100
AcDbSymbolTable
 70
     1
  0
STYLE
  5
16
330
15
100
AcDbSymbolTableRecord
100
AcDbTextStyleTableRecord
  2
STANDARD
 70
     0
 40
0.0
 41
1.0
 50
0.0
 71
     0
 42
0.149994
  3
TXT
  4

  0
ENDTAB
  0
TABLE
  2
VIEW
  5
1B
330
0
100
AcDbSymbolTable
 70
     0
  0
ENDTAB
  0
TABLE
  2
UCS
  5
1C
330
0
100
AcDbSymbolTable
 70
     0
  0
ENDTAB
  0
TABLE
  2
APPID
  5
1F
330
0
100
AcDbSymbolTable
 70
     1
  0
APPID
  5
20
330
1F
100
AcDbSymbolTableRecord
100
AcDbRegAppTableRecord
  2
ACAD
 70
     0
  0
ENDTAB
  0
TABLE
  2
DIMSTYLE
  5
21
330
0
100
AcDbSymbolTable
 70
     1
100
AcDbDimStyleTable
  0
DIMSTYLE
105
28
330
21
100
AcDbSymbolTableRecord
100
AcDbDimStyleTableRecord
  2
Standard
 70
     0
  3

  4

340
16
  0
ENDTAB
  0
TABLE
  2
BLOCK_RECORD
  5
1
330
0
100
AcDbSymbolTable
 70
     1
  0
BLOCK_RECORD
  5
2
102
{ACAD_XDICTIONARY
360
3
102
}
330
1
100
AcDbSymbolTableRecord
100
AcDbBlockTableRecord
  2
*Model_Space
340
C
  0
BLOCK_RECORD
  5
E
330
1
100
AcDbSymbolTableRecord
100
AcDbBlockTableRecord
  2
*Paper_Space
340
13
  0
ENDTAB
  0
ENDSEC
  0
SECTION
  2
BLOCKS
  0
BLOCK
  5
5
330
2
100
AcDbEntity
  8
0
100
AcDbBlockBegin
  2
*Model_Space
 70
     0
 10
0.0
 20
0.0
 30
0.0
  3
*Model_Space
  1

  4

  0
ENDBLK
  5
B
330
2
100
AcDbEntity
  8
0
100
AcDbBlockEnd
  0
BLOCK
  5
11
330
E
100
AcDbEntity
 67
     1
  8
0
100
AcDbBlockBegin
  2
*Paper_Space
 70
     0
 10
0.0
 20
0.0
 30
0.0
  3
*Paper_Space
  1

  4

  0
ENDBLK
  5
12
330
E
100
AcDbEntity
 67
     1
  8
0
100
AcDbBlockEnd
  0
ENDSEC
  0
SECTION
  2
ENTITIES
  0
LINE
  5
B9
330
2
100
AcDbEntity
  8
0
100
AcDbLine
 10
0.8750000000000004
 20
7.436110777178893
 30
0.0
 11
0.8750000000000002
 21
5.807026777178891
 31
0.0
  0
LINE
  5
BA
330
2
100
AcDbEntity
  8
0
100
AcDbLine
 10
1.750000000000001
 20
7.560610777178892
 30
0.0
 11
0.9375000000000004
 21
7.560610777178892
 31
0.0
  0
LINE
  5
BB
330
2
100
AcDbEntity
  8
0
100
AcDbLine
 10
1.750000000000001
 20
7.498110777178892
 30
0.0
 11
0.9370000000000003
 21
7.498110777178892
 31
0.0
  0
LINE
  5
BC
330
2
100
AcDbEntity
  8
0
100
AcDbLine
 10
1.750000000000001
 20
7.560610777178892
 30
0.0
 11
1.750000000000001
 21
7.498110777178892
 31
0.0
  0
LINE
  5
BD
330
2
100
AcDbEntity
  8
0
100
AcDbLine
 10
-0.8480527175248449
 20
7.248110290910971
 30
0.0
 11
0.7543030000000002
 21
7.248110777178894
 31
0.0
  0
ARC
  5
C1
330
2
100
AcDbEntity
  8
0
100
AcDbCircle
 10
0.9370000000000003
 20
7.436110777178893
 30
0.0
 40
0.062
100
AcDbArc
 50
90.0
 51
180.0
  0
ARC
  5
C2
330
2
100
AcDbEntity
  8
0
100
AcDbCircle
 10
0.9375000000000004
 20
7.435610777178894
 30
0.0
 40
0.125
100
AcDbArc
 50
90.0
 51
180.0
  0
LINE
  5
C3
330
2
100
AcDbEntity
  8
0
100
AcDbLine
 10
0.7550230000000002
 20
5.748110777178894
 30
0.0
 11
-0.8487730000000002
 21
5.748110777178894
 31
0.0
  0
LINE
  5
C4
330
2
100
AcDbEntity
  8
0
100
AcDbLine
 10
0.7550230000000002
 20
5.748110777178894
 30
0.0
 11
0.8750000000000002
 21
5.807026777178891
 31
0.0
  0
LINE
  5
C5
330
2
100
AcDbEntity
  8
0
100
AcDbLine
 10
-0.9687499999999996
 20
7.436110777178893
 30
0.0
 11
-0.9687499999999998
 21
5.807026777178891
 31
0.0
  0
LINE
  5
C6
330
2
100
AcDbEntity
  8
0
100
AcDbLine
 10
-1.84375
 20
7.498110777178892
 30
0.0
 11
-1.03075
 21
7.498110777178892
 31
0.0
  0
LINE
  5
C7
330
2
100
AcDbEntity
  8
0
100
AcDbLine
 10
-1.84375
 20
7.560610777178892
 30
0.0
 11
-1.03125
 21
7.560610777178892
 31
0.0
  0
ARC
  5
C8
330
2
100
AcDbEntity
  8
0
100
AcDbCircle
 10
-1.03075
 20
7.436110777178893
 30
0.0
 40
0.062
100
AcDbArc
 50
0.0
 51
90.0
  0
ARC
  5
C9
330
2
100
AcDbEntity
  8
0
100
AcDbCircle
 10
-1.03125
 20
7.435610777178894
 30
0.0
 40
0.125
100
AcDbArc
 50
0.0
 51
90.0
  0
ARC
  5
CA
330
2
100
AcDbEntity
  8
0
100
AcDbCircle
 10
-0.9899079999999993
 20
7.369954777178894
 30
0.0
 40
0.187
100
AcDbArc
 50
296.5750055810105
 51
319.33956
  0
LINE
  5
CB
330
2
100
AcDbEntity
  8
0
100
AcDbLine
 10
-0.9062499999999996
 20
7.435610777178894
 30
0.0
 11
-0.9062499999999993
 21
5.776335478013218
 31
0.0
  0
LINE
  5
CD
330
2
100
AcDbEntity
  8
0
100
AcDbLine
 10
-1.84375
 20
7.560610777178892
 30
0.0
 11
-1.84375
 21
7.498110777178892
 31
0.0
  0
LINE
  5
CE
330
2
100
AcDbEntity
  8
0
100
AcDbLine
 10
-0.8487730000000002
 20
5.748110777178894
 30
0.0
 11
-0.9687499999999998
 21
5.807026777178891
 31
0.0
  0
LINE
  5
CF
330
2
100
AcDbEntity
  8
0
100
AcDbLine
 10
0.7212500000000004
 20
0.0625
 30
0.0
 11
-0.72125
 21
0.0624999999999987
 31
0.0
  0
LINE
  5
D0
330
2
100
AcDbEntity
  8
0
100
AcDbLine
 10
-0.71875
 20
0.0
 30
0.0
 11
0.71875
 21
0.0
 31
0.0
  0
LINE
  5
D3
330
2
100
AcDbEntity
  8
0
100
AcDbLine
 10
-0.8454259999999998
 20
0.2413699999999999
 30
0.0
 11
-1.089399
 21
0.715800999999999
 31
0.0
  0
LINE
  5
D4
330
2
100
AcDbEntity
  8
0
100
AcDbLine
 10
-0.84375
 20
0.1237499999999994
 30
0.0
 11
-0.84375
 21
3.125
 31
0.0
  0
LINE
  5
D5
330
2
100
AcDbEntity
  8
0
100
AcDbLine
 10
-0.78125
 20
3.125
 30
0.0
 11
-0.78125
 21
0.1237499999999994
 31
0.0
  0
ARC
  5
D6
330
2
100
AcDbEntity
  8
0
100
AcDbCircle
 10
-0.71875
 20
0.125
 30
0.0
 40
0.125
100
AcDbArc
 50
180.0
 51
270.0
  0
ARC
  5
D7
330
2
100
AcDbEntity
  8
0
100
AcDbCircle
 10
-0.72125
 20
0.1224999999999987
 30
0.0
 40
0.06
100
AcDbArc
 50
180.0
 51
270.0
  0
ARC
  5
D8
330
2
100
AcDbEntity
  8
0
100
AcDbCircle
 10
-0.84375
 20
1.25
 30
0.0
 40
0.625
100
AcDbArc
 50
160.0
 51
209.744881
  0
ARC
  5
D9
330
2
100
AcDbEntity
  8
0
100
AcDbCircle
 10
-1.635868
 20
1.619592999999998
 30
0.0
 40
0.257352
100
AcDbArc
 50
322.734013
 51
61.44081400000001
  0
CIRCLE
  5
DA
330
2
100
AcDbEntity
  8
0
100
AcDbCircle
 10
-1.46875
 20
2.8125
 30
0.0
 40
0.0855
  0
LINE
  5
DB
330
2
100
AcDbEntity
  8
0
100
AcDbLine
 10
-0.78125
 20
3.125
 30
0.0
 11
-1.71875
 21
3.125
 31
0.0
  0
ARC
  5
DC
330
2
100
AcDbEntity
  8
0
100
AcDbCircle
 10
-1.21875
 20
2.25
 30
0.0
 40
0.5
100
AcDbArc
 50
180.0
 51
233.972627
  0
LINE
  5
DD
330
2
100
AcDbEntity
  8
0
100
AcDbLine
 10
-1.71875
 20
3.125
 30
0.0
 11
-1.71875
 21
2.25
 31
0.0
  0
CIRCLE
  5
DE
330
2
100
AcDbEntity
  8
0
100
AcDbCircle
 10
-1.15625
 20
1.25
 30
0.0
 40
0.0855
  0
ARC
  5
DF
330
2
100
AcDbEntity
  8
0
100
AcDbCircle
 10
-1.254585
 20
0.628150999999999
 30
0.0
 40
0.187
100
AcDbArc
 50
27.950969
 51
108.420869
  0
LINE
  5
E0
330
2
100
AcDbEntity
  8
0
100
AcDbLine
 10
-1.386402
 20
0.9399130000000007
 30
0.0
 11
-1.313676
 21
0.8055699999999995
 31
0.0
  0
LINE
  5
E4
330
2
100
AcDbEntity
  8
0
100
AcDbLine
 10
0.78125
 20
3.125
 30
0.0
 11
0.78125
 21
0.1237499999999994
 31
0.0
  0
LINE
  5
E5
330
2
100
AcDbEntity
  8
0
100
AcDbLine
 10
0.84375
 20
0.1237499999999994
 30
0.0
 11
0.84375
 21
3.125
 31
0.0
  0
LINE
  5
E6
330
2
100
AcDbEntity
  8
0
100
AcDbLine
 10
0.8454249999999997
 20
0.2413699999999999
 30
0.0
 11
1.089398
 21
0.715800999999999
 31
0.0
  0
ARC
  5
E7
330
2
100
AcDbEntity
  8
0
100
AcDbCircle
 10
0.71875
 20
0.125
 30
0.0
 40
0.125
100
AcDbArc
 50
270.0
 51
0.0
  0
ARC
  5
E8
330
2
100
AcDbEntity
  8
0
100
AcDbCircle
 10
0.7212500000000004
 20
0.1224999999999987
 30
0.0
 40
0.06
100
AcDbArc
 50
270.0
 51
0.0
  0
LINE
  5
E9
330
2
100
AcDbEntity
  8
0
100
AcDbLine
 10
0.78125
 20
3.125
 30
0.0
 11
1.71875
 21
3.125
 31
0.0
  0
ARC
  5
EA
330
2
100
AcDbEntity
  8
0
100
AcDbCircle
 10
1.21875
 20
2.25
 30
0.0
 40
0.5
100
AcDbArc
 50
306.027373
 51
0.0
  0
CIRCLE
  5
EB
330
2
100
AcDbEntity
  8
0
100
AcDbCircle
 10
1.15625
 20
1.25
 30
0.0
 40
0.0855
  0
ARC
  5
EC
330
2
100
AcDbEntity
  8
0
100
AcDbCircle
 10
0.84375
 20
1.25
 30
0.0
 40
0.625
100
AcDbArc
 50
330.255119
 51
20.0
  0
ARC
  5
ED
330
2
100
AcDbEntity
  8
0
100
AcDbCircle
 10
1.254584
 20
0.628150999999999
 30
0.0
 40
0.187
100
AcDbArc
 50
71.579131
 51
152.049031
  0
LINE
  5
EE
330
2
100
AcDbEntity
  8
0
100
AcDbLine
 10
1.386402
 20
0.9399130000000007
 30
0.0
 11
1.313675
 21
0.8055699999999995
 31
0.0
  0
ARC
  5
F0
330
2
100
AcDbEntity
  8
0
100
AcDbCircle
 10
1.635867
 20
1.619592999999998
 30
0.0
 40
0.257352
100
AcDbArc
 50
118.559186
 51
217.265987
  0
LINE
  5
F2
330
2
100
AcDbEntity
  8
0
100
AcDbLine
 10
1.223975
 20
2.694826999999998
 30
0.0
 11
1.090202
 21
2.694826999999998
 31
0.0
  0
CIRCLE
  5
F3
330
2
100
AcDbEntity
  8
0
100
AcDbCircle
 10
1.46875
 20
2.8125
 30
0.0
 40
0.0855
  0
LINE
  5
F4
330
2
100
AcDbEntity
  8
0
100
AcDbLine
 10
1.71875
 20
3.125
 30
0.0
 11
1.71875
 21
2.25
 31
0.0
  0
LINE
  5
F5
330
2
100
AcDbEntity
  8
0
100
AcDbLine
 10
4.480380404705254
 20
0.6412500000000012
 30
0.0
 11
4.013735404705255
 21
0.0613210000000013
 31
0.0
  0
LINE
  5
F6
330
2
100
AcDbEntity
  8
0
100
AcDbLine
 10
5.797933404705255
 20
0.7607910000000011
 30
0.0
 11
5.369867404705255
 21
0.0613209999999995
 31
0.0
  0
LINE
  5
F7
330
2
100
AcDbEntity
  8
0
100
AcDbLine
 10
5.350653404705255
 20
0.0
 30
0.0
 11
3.985433404705255
 21
0.0
 31
0.0
  0
LINE
  5
F8
330
2
100
AcDbEntity
  8
0
100
AcDbLine
 10
3.985433404705255
 20
0.0625
 30
0.0
 11
4.014684097484887
 21
0.0625
 31
0.0
  0
LINE
  5
F9
330
2
100
AcDbEntity
  8
0
100
AcDbLine
 10
3.985433404705255
 20
0.0
 30
0.0
 11
3.985433404705255
 21
0.0625
 31
0.0
  0
LINE
  5
FA
330
2
100
AcDbEntity
  8
0
100
AcDbLine
 10
5.349599404705256
 20
0.0006050000000002
 30
0.0
 11
5.349599404705256
 21
0.0621250000000018
 31
0.0
  0
LINE
  5
FB
330
2
100
AcDbEntity
  8
0
100
AcDbLine
 10
4.875389404705256
 20
1.132154
 30
0.0
 11
4.474623404705254
 21
0.6786390000000004
 31
0.0
  0
LINE
  5
FC
330
2
100
AcDbEntity
  8
0
100
AcDbLine
 10
4.474623404705254
 20
0.6786390000000004
 30
0.0
 11
4.480380404705254
 21
0.6412500000000012
 31
0.0
  0
LINE
  5
FD
330
2
100
AcDbEntity
  8
0
100
AcDbLine
 10
5.797933404705255
 20
3.21875
 30
0.0
 11
5.797933404705255
 21
0.7607910000000011
 31
0.0
  0
ARC
  5
FF
330
2
100
AcDbEntity
  8
0
100
AcDbCircle
 10
4.672933404705255
 20
2.281250000000002
 30
0.0
 40
0.5
100
AcDbArc
 50
306.027373
 51
0.0
  0
LINE
  5
100
330
2
100
AcDbEntity
  8
0
100
AcDbLine
 10
5.735433404705255
 20
0.6621349999999993
 30
0.0
 11
5.735433404705255
 21
3.21875
 31
0.0
  0
ARC
  5
101
330
2
100
AcDbEntity
  8
0
100
AcDbCircle
 10
4.550577953020053
 20
1.319564034027403
 30
0.0
 40
0.375
100
AcDbArc
 50
330.015871
 51
27.66600199999996
  0
CIRCLE
  5
102
330
2
100
AcDbEntity
  8
0
100
AcDbCircle
 10
5.047933404705255
 20
1.656250000000002
 30
0.0
 40
0.0855
  0
ARC
  5
103
330
2
100
AcDbEntity
  8
0
100
AcDbCircle
 10
5.090050404705252
 20
1.650843000000002
 30
0.0
 40
0.2573519999999994
100
AcDbArc
 50
118.5591859999995
 51
217.2659870000003
  0
LINE
  5
107
330
2
100
AcDbEntity
  8
0
100
AcDbLine
 10
5.797933404705255
 20
3.21875
 30
0.0
 11
5.172933404705255
 21
3.21875
 31
0.0
  0
LINE
  5
108
330
2
100
AcDbEntity
  8
0
100
AcDbLine
 10
5.172933404705255
 20
3.21875
 30
0.0
 11
5.172933404705255
 21
2.28125
 31
0.0
  0
LINE
  5
10A
330
2
100
AcDbEntity
  8
0
100
AcDbLine
 10
-1.304999999999999
 20
7.123110777178894
 30
0.0
 11
-1.375
 21
7.14311077717889
 31
0.0
  0
LINE
  5
10B
330
2
100
AcDbEntity
  8
0
100
AcDbLine
 10
-1.375
 20
7.14311077717889
 30
0.0
 11
-1.375
 21
7.498110777178892
 31
0.0
  0
LINE
  5
10C
330
2
100
AcDbEntity
  8
0
100
AcDbLine
 10
-1.2575
 20
7.123110777178894
 30
0.0
 11
-1.304999999999999
 21
7.123110777178894
 31
0.0
  0
LINE
  5
10D
330
2
100
AcDbEntity
  8
0
100
AcDbLine
 10
-1.2575
 20
7.123110777178894
 30
0.0
 11
-1.1875
 21
7.14311077717889
 31
0.0
  0
LINE
  5
10E
330
2
100
AcDbEntity
  8
0
100
AcDbLine
 10
-1.1875
 20
7.498110777178892
 30
0.0
 11
-1.1875
 21
7.14311077717889
 31
0.0
  0
LINE
  5
10F
330
2
100
AcDbEntity
  8
0
100
AcDbLine
 10
5.734113404705255
 20
2.566502000000002
 30
0.0
 11
5.462013404705257
 21
2.648492000000001
 31
0.0
  0
LINE
  5
110
330
2
100
AcDbEntity
  8
0
100
AcDbLine
 10
5.464988404705256
 20
2.686971000000002
 30
0.0
 11
5.735720404705255
 21
2.842819000000002
 31
0.0
  0
ARC
  5
111
330
2
100
AcDbEntity
  8
0
100
AcDbCircle
 10
5.467054404705255
 20
2.667073000000002
 30
0.0
 40
0.019337
100
AcDbArc
 50
113.110122
 51
272.943538
  0
LINE
  5
112
330
2
100
AcDbEntity
  8
0
100
AcDbLine
 10
5.410754404705255
 20
2.566253000000001
 30
0.0
 11
5.735433404705255
 21
2.468750000000002
 31
0.0
  0
LINE
  5
113
330
2
100
AcDbEntity
  8
0
100
AcDbLine
 10
5.425116404705257
 20
2.729052000000003
 30
0.0
 11
5.734113404705255
 21
2.905672000000003
 31
0.0
  0
ARC
  5
114
330
2
100
AcDbEntity
  8
0
100
AcDbCircle
 10
5.438034404705256
 20
2.643945000000002
 30
0.0
 40
0.083053
100
AcDbArc
 50
100.939462
 51
265.0416969999999
  0
LINE
  5
119
330
2
100
AcDbEntity
  8
0
  6
HIDDEN
100
AcDbLine
 10
4.013735404705255
 20
0.0613210000000013
 30
0.0
 11
5.369867404705255
 21
0.0613209999999995
 31
0.0
  0
LINE
  5
130
330
2
100
AcDbEntity
  8
0
100
AcDbLine
 10
1.0624995
 20
2.031249999999998
 30
0.0
 11
1.0624995
 21
2.687499999999998
 31
0.0
  0
LINE
  5
131
330
2
100
AcDbEntity
  8
0
100
AcDbLine
 10
1.2499995
 20
2.687499999999998
 30
0.0
 11
1.2499995
 21
2.030499999999998
 31
0.0
  0
LINE
  5
132
330
2
100
AcDbEntity
  8
0
100
AcDbLine
 10
1.1569995
 20
1.937499999999998
 30
0.0
 11
1.2499995
 21
2.030499999999998
 31
0.0
  0
LINE
  5
133
330
2
100
AcDbEntity
  8
0
100
AcDbLine
 10
1.1562495
 20
1.937499999999998
 30
0.0
 11
1.0624995
 21
2.031249999999998
 31
0.0
  0
POINT
  5
134
330
2
100
AcDbEntity
  8
0
100
AcDbPoint
 10
1.1562495
 20
1.937499999999998
 30
0.0
 50
180.0
  0
LINE
  5
135
330
2
100
AcDbEntity
  8
0
100
AcDbLine
 10
1.1569995
 20
1.937499999999998
 30
0.0
 11
1.1562495
 21
1.937499999999998
 31
0.0
  0
LINE
  5
136
330
2
100
AcDbEntity
  8
0
100
AcDbLine
 10
1.1569995
 20
2.113422999999999
 30
0.0
 11
1.1562495
 21
2.113422999999999
 31
0.0
  0
LINE
  5
137
330
2
100
AcDbEntity
  8
0
100
AcDbLine
 10
1.1562495
 20
2.113422999999999
 30
0.0
 11
1.0624995
 21
2.207172999999999
 31
0.0
  0
LINE
  5
138
330
2
100
AcDbEntity
  8
0
100
AcDbLine
 10
1.1569995
 20
2.113422999999999
 30
0.0
 11
1.2499995
 21
2.206422999999999
 31
0.0
  0
POINT
  5
139
330
2
100
AcDbEntity
  8
0
100
AcDbPoint
 10
1.1562495
 20
2.113422999999999
 30
0.0
 50
180.0
  0
ARC
  5
13A
330
2
100
AcDbEntity
  8
0
100
AcDbCircle
 10
1.1574125
 20
2.438974999999998
 30
0.0
 40
0.114071
100
AcDbArc
 50
234.808812
 51
307.538262
  0
ARC
  5
13C
330
2
100
AcDbEntity
  8
0
100
AcDbCircle
 10
1.1574125
 20
2.285773999999998
 30
0.0
 40
0.114071
100
AcDbArc
 50
52.46173799999998
 51
125.191188
  0
LINE
  5
13F
330
2
100
AcDbEntity
  8
0
100
AcDbLine
 10
-1.0624995
 20
2.031249999999998
 30
0.0
 11
-1.0624995
 21
2.687499999999998
 31
0.0
  0
LINE
  5
140
330
2
100
AcDbEntity
  8
0
100
AcDbLine
 10
-1.2499995
 20
2.687499999999998
 30
0.0
 11
-1.2499995
 21
2.030499999999998
 31
0.0
  0
LINE
  5
141
330
2
100
AcDbEntity
  8
0
100
AcDbLine
 10
-1.1569995
 20
2.113422999999999
 30
0.0
 11
-1.2499995
 21
2.206422999999999
 31
0.0
  0
LINE
  5
142
330
2
100
AcDbEntity
  8
0
100
AcDbLine
 10
-1.1569995
 20
1.937499999999998
 30
0.0
 11
-1.2499995
 21
2.030499999999998
 31
0.0
  0
LINE
  5
143
330
2
100
AcDbEntity
  8
0
100
AcDbLine
 10
-1.1569995
 20
2.113422999999999
 30
0.0
 11
-1.1562495
 21
2.113422999999999
 31
0.0
  0
POINT
  5
144
330
2
100
AcDbEntity
  8
0
100
AcDbPoint
 10
-1.1562495
 20
2.113422999999999
 30
0.0
 50
180.0
  0
LINE
  5
145
330
2
100
AcDbEntity
  8
0
100
AcDbLine
 10
-1.1562495
 20
2.113422999999999
 30
0.0
 11
-1.0624995
 21
2.207172999999999
 31
0.0
  0
POINT
  5
146
330
2
100
AcDbEntity
  8
0
100
AcDbPoint
 10
-1.1562495
 20
1.937499999999998
 30
0.0
 50
180.0
  0
LINE
  5
147
330
2
100
AcDbEntity
  8
0
100
AcDbLine
 10
-1.1569995
 20
1.937499999999998
 30
0.0
 11
-1.1562495
 21
1.937499999999998
 31
0.0
  0
LINE
  5
148
330
2
100
AcDbEntity
  8
0
100
AcDbLine
 10
-1.1562495
 20
1.937499999999998
 30
0.0
 11
-1.0624995
 21
2.031249999999998
 31
0.0
  0
ARC
  5
149
330
2
100
AcDbEntity
  8
0
100
AcDbCircle
 10
-1.1574125
 20
2.438974999999998
 30
0.0
 40
0.114071
100
AcDbArc
 50
232.461738
 51
305.191188
  0
ARC
  5
14A
330
2
100
AcDbEntity
  8
0
100
AcDbCircle
 10
-1.1574125
 20
2.285773999999998
 30
0.0
 40
0.114071
100
AcDbArc
 50
54.80881200000004
 51
127.538262
  0
LINE
  5
14B
330
2
100
AcDbEntity
  8
0
100
AcDbLine
 10
-1.223975
 20
2.694826999999998
 30
0.0
 11
-1.090201999999999
 21
2.694826999999998
 31
0.0
  0
LINE
  5
14C
330
2
100
AcDbEntity
  8
0
100
AcDbLine
 10
-5.797933404705255
 20
0.7607910000000011
 30
0.0
 11
-5.369867404705255
 21
0.0613209999999995
 31
0.0
  0
LINE
  5
14D
330
2
100
AcDbEntity
  8
0
100
AcDbLine
 10
-4.480380404705254
 20
0.6412500000000012
 30
0.0
 11
-4.013735404705255
 21
0.0613210000000013
 31
0.0
  0
LINE
  5
14E
330
2
100
AcDbEntity
  8
0
  6
HIDDEN
100
AcDbLine
 10
-4.013735404705255
 20
0.0613210000000013
 30
0.0
 11
-5.369867404705255
 21
0.0613209999999995
 31
0.0
  0
LINE
  5
14F
330
2
100
AcDbEntity
  8
0
100
AcDbLine
 10
-5.350653404705255
 20
0.0
 30
0.0
 11
-3.985433404705255
 21
0.0
 31
0.0
  0
LINE
  5
150
330
2
100
AcDbEntity
  8
0
100
AcDbLine
 10
-3.985433404705255
 20
0.0625
 30
0.0
 11
-4.014684097484887
 21
0.0625
 31
0.0
  0
LINE
  5
151
330
2
100
AcDbEntity
  8
0
100
AcDbLine
 10
-3.985433404705255
 20
0.0
 30
0.0
 11
-3.985433404705255
 21
0.0625
 31
0.0
  0
LINE
  5
152
330
2
100
AcDbEntity
  8
0
100
AcDbLine
 10
-5.349599404705256
 20
0.0006050000000002
 30
0.0
 11
-5.349599404705256
 21
0.0621250000000018
 31
0.0
  0
LINE
  5
153
330
2
100
AcDbEntity
  8
0
100
AcDbLine
 10
-4.875389404705255
 20
1.387930460748196
 30
0.0
 11
-4.474623404705254
 21
0.6786390000000004
 31
0.0
  0
LINE
  5
154
330
2
100
AcDbEntity
  8
0
100
AcDbLine
 10
-4.474623404705254
 20
0.6786390000000004
 30
0.0
 11
-4.480380404705254
 21
0.6412500000000012
 31
0.0
  0
ARC
  5
155
330
2
100
AcDbEntity
  8
0
100
AcDbCircle
 10
-5.090050404705252
 20
1.906619460748196
 30
0.0
 40
0.2573519999999994
100
AcDbArc
 50
322.7340129999997
 51
61.44081400000047
  0
LINE
  5
156
330
2
100
AcDbEntity
  8
0
100
AcDbLine
 10
-5.735433404705255
 20
0.6621349999999993
 30
0.0
 11
-5.735433404705255
 21
3.21875
 31
0.0
  0
ARC
  5
157
330
2
100
AcDbEntity
  8
0
100
AcDbCircle
 10
-4.672933404705255
 20
2.537026460748196
 30
0.0
 40
0.5
100
AcDbArc
 50
180.0
 51
233.972627
  0
LINE
  5
159
330
2
100
AcDbEntity
  8
0
100
AcDbLine
 10
-5.797933404705255
 20
3.21875
 30
0.0
 11
-5.797933404705255
 21
0.7607910000000011
 31
0.0
  0
ARC
  5
15A
330
2
100
AcDbEntity
  8
0
100
AcDbCircle
 10
-4.550577953020053
 20
1.575340494775597
 30
0.0
 40
0.375
100
AcDbArc
 50
152.333998
 51
209.984129
  0
CIRCLE
  5
15B
330
2
100
AcDbEntity
  8
0
100
AcDbCircle
 10
-5.047933404705255
 20
1.912026460748196
 30
0.0
 40
0.0855
  0
LINE
  5
15C
330
2
100
AcDbEntity
  8
0
100
AcDbLine
 10
-5.797933404705255
 20
3.21875
 30
0.0
 11
-5.172933404705255
 21
3.21875
 31
0.0
  0
LINE
  5
15D
330
2
100
AcDbEntity
  8
0
100
AcDbLine
 10
-5.172933404705255
 20
3.21875
 30
0.0
 11
-5.172933404705255
 21
2.537026460748196
 31
0.0
  0
ARC
  5
15F
330
2
100
AcDbEntity
  8
0
100
AcDbCircle
 10
-5.438034404705256
 20
2.643945000000002
 30
0.0
 40
0.083053
100
AcDbArc
 50
274.958303
 51
79.06053800000001
  0
LINE
  5
160
330
2
100
AcDbEntity
  8
0
100
AcDbLine
 10
-5.734113404705255
 20
2.566502000000002
 30
0.0
 11
-5.462013404705257
 21
2.648492000000001
 31
0.0
  0
LINE
  5
161
330
2
100
AcDbEntity
  8
0
100
AcDbLine
 10
-5.410754404705255
 20
2.566253000000001
 30
0.0
 11
-5.735433404705255
 21
2.468750000000002
 31
0.0
  0
LINE
  5
162
330
2
100
AcDbEntity
  8
0
100
AcDbLine
 10
-5.425116404705257
 20
2.729052000000003
 30
0.0
 11
-5.734113404705255
 21
2.905672000000003
 31
0.0
  0
LINE
  5
163
330
2
100
AcDbEntity
  8
0
100
AcDbLine
 10
-5.464988404705256
 20
2.686971000000002
 30
0.0
 11
-5.735720404705255
 21
2.842819000000002
 31
0.0
  0
ARC
  5
164
330
2
100
AcDbEntity
  8
0
100
AcDbCircle
 10
-5.467054404705255
 20
2.667073000000002
 30
0.0
 40
0.019337
100
AcDbArc
 50
267.056462
 51
66.88987799999998
  0
ARC
  5
166
330
2
100
AcDbEntity
  8
0
100
AcDbCircle
 10
0.8961580000000002
 20
7.369954777178894
 30
0.0
 40
0.187
100
AcDbArc
 50
220.66044
 51
243.4249944189895
  0
LINE
  5
167
330
2
100
AcDbEntity
  8
0
100
AcDbLine
 10
0.8125000000000004
 20
7.435610777178894
 30
0.0
 11
0.8125000000000002
 21
5.776335478013218
 31
0.0
  0
LINE
  5
17F
330
2
100
AcDbEntity
  8
0
100
AcDbLine
 10
1.211250000000001
 20
7.123110777178892
 30
0.0
 11
1.281250000000001
 21
7.143110777178891
 31
0.0
  0
LINE
  5
180
330
2
100
AcDbEntity
  8
0
100
AcDbLine
 10
1.281250000000001
 20
7.143110777178891
 30
0.0
 11
1.281250000000001
 21
7.498110777178892
 31
0.0
  0
LINE
  5
181
330
2
100
AcDbEntity
  8
0
100
AcDbLine
 10
1.163750000000001
 20
7.123110777178892
 30
0.0
 11
1.211250000000001
 21
7.123110777178892
 31
0.0
  0
LINE
  5
182
330
2
100
AcDbEntity
  8
0
100
AcDbLine
 10
1.163750000000001
 20
7.123110777178892
 30
0.0
 11
1.093750000000001
 21
7.143110777178891
 31
0.0
  0
LINE
  5
183
330
2
100
AcDbEntity
  8
0
100
AcDbLine
 10
1.093750000000001
 20
7.498110777178892
 30
0.0
 11
1.093750000000001
 21
7.143110777178891
 31
0.0
  0
ENDSEC
  0
SECTION
  2
OBJECTS
  0
DICTIONARY
  5
9
330
0
100
AcDbDictionary
281
     1
  3
ACAD_COLOR
350
16D
  3
ACAD_GROUP
350
23
  3
ACAD_LAYOUT
350
D
  3
ACAD_MATERIAL
350
16C
  3
ACAD_MLINESTYLE
350
24
  3
ACAD_PLOTSETTINGS
350
25
  3
ACAD_PLOTSTYLENAME
350
8
  3
ACAD_TABLESTYLE
350
16E
  3
ACDBHEADERROUNDTRIPXREC
350
18C
  3
AcDbVariableDictionary
350
AB
  0
DICTIONARY
  5
3
330
2
100
AcDbDictionary
280
     1
281
     1
  3
ACAD_SORTENTS
360
184
  0
DICTIONARY
  5
16D
102
{ACAD_REACTORS
330
9
102
}
330
9
100
AcDbDictionary
281
     1
  0
DICTIONARY
  5
23
102
{ACAD_REACTORS
330
9
102
}
330
9
100
AcDbDictionary
281
     1
  0
DICTIONARY
  5
D
102
{ACAD_REACTORS
330
9
102
}
330
9
100
AcDbDictionary
281
     1
  3
Layout1
350
13
  3
Model
350
C
  0
DICTIONARY
  5
16C
102
{ACAD_REACTORS
330
9
102
}
330
9
100
AcDbDictionary
281
     1
  0
DICTIONARY
  5
24
102
{ACAD_REACTORS
330
9
102
}
330
9
100
AcDbDictionary
281
     1
  3
Standard
350
27
  0
DICTIONARY
  5
25
102
{ACAD_REACTORS
330
9
102
}
330
9
100
AcDbDictionary
281
     1
  0
ACDBDICTIONARYWDFLT
  5
8
102
{ACAD_REACTORS
330
9
102
}
330
9
100
AcDbDictionary
281
     1
  3
Normal
350
7
100
AcDbDictionaryWithDefault
340
7
  0
DICTIONARY
  5
16E
102
{ACAD_REACTORS
330
9
102
}
330
9
100
AcDbDictionary
281
     1
  3
Standard
350
16F
  0
DICTIONARY
  5
18C
102
{ACAD_REACTORS
330
9
102
}
330
9
100
AcDbDictionary
281
     1
  3
COLORDICT
350
18D
  3
MATERIALDICT
350
18E
  0
DICTIONARY
  5
AB
102
{ACAD_REACTORS
330
9
102
}
330
9
100
AcDbDictionary
281
     1
  3
CTABLESTYLE
350
17A
  3
HIDETEXT
350
18B
  0
SORTENTSTABLE
  5
184
102
{ACAD_REACTORS
330
3
102
}
330
3
100
AcDbSortentsTable
330
2
331
141
  5
141
331
10A
  5
10A
331
108
  5
108
331
147
  5
147
331
DB
  5
DB
331
EA
  5
EA
331
C4
  5
C4
331
EC
  5
EC
331
10B
  5
10B
331
145
  5
145
331
151
  5
151
331
F6
  5
F6
331
D6
  5
D6
331
136
  5
136
331
D5
  5
D5
331
139
  5
139
331
180
  5
180
331
15A
  5
15A
331
F0
  5
F0
331
137
  5
137
331
CD
  5
CD
331
156
  5
156
331
15F
  5
15F
331
149
  5
149
331
153
  5
153
331
FF
  5
FF
331
FB
  5
FB
331
F3
  5
F3
331
114
  5
114
331
166
  5
166
331
F5
  5
F5
331
119
  5
119
331
146
  5
146
331
113
  5
113
331
110
  5
110
331
100
  5
100
331
D9
  5
D9
331
134
  5
134
331
C5
  5
C5
331
CB
  5
CB
331
144
  5
144
331
159
  5
159
331
BB
  5
BB
331
17F
  5
17F
331
103
  5
103
331
14C
  5
14C
331
C1
  5
C1
331
C9
  5
C9
331
163
  5
163
331
DD
  5
DD
331
111
  5
111
331
155
  5
155
331
D4
  5
D4
331
14F
  5
14F
331
135
  5
135
331
181
  5
181
331
10C
  5
10C
331
132
  5
132
331
15B
  5
15B
331
C7
  5
C7
331
FC
  5
FC
331
112
  5
112
331
14D
  5
14D
331
161
  5
161
331
133
  5
133
331
E8
  5
E8
331
BC
  5
BC
331
131
  5
131
331
DC
  5
DC
331
13C
  5
13C
331
101
  5
101
331
CA
  5
CA
331
E4
  5
E4
331
F4
  5
F4
331
164
  5
164
331
EE
  5
EE
331
E6
  5
E6
331
DF
  5
DF
331
15D
  5
15D
331
130
  5
130
331
FA
  5
FA
331
13A
  5
13A
331
107
  5
107
331
D7
  5
D7
331
160
  5
160
331
143
  5
143
331
15C
  5
15C
331
D0
  5
D0
331
F9
  5
F9
331
14A
  5
14A
331
F2
  5
F2
331
140
  5
140
331
167
  5
167
331
10D
  5
10D
331
10E
  5
10E
331
E7
  5
E7
331
DA
  5
DA
331
C3
  5
C3
331
C6
  5
C6
331
ED
  5
ED
331
F7
  5
F7
331
150
  5
150
331
D3
  5
D3
331
162
  5
162
331
C2
  5
C2
331
F8
  5
F8
331
CE
  5
CE
331
BA
  5
BA
331
C8
  5
C8
331
138
  5
138
331
EB
  5
EB
331
BD
  5
BD
331
152
  5
152
331
B9
  5
B9
331
FD
  5
FD
331
D8
  5
D8
331
E0
  5
E0
331
13F
  5
13F
331
14E
  5
14E
331
182
  5
182
331
148
  5
148
331
183
  5
183
331
14B
  5
14B
331
E5
  5
E5
331
10F
  5
10F
331
142
  5
142
331
157
  5
157
331
154
  5
154
331
CF
  5
CF
331
102
  5
102
331
DE
  5
DE
331
E9
  5
E9
  0
LAYOUT
  5
13
102
{ACAD_REACTORS
330
D
102
}
102
{ACAD_XDICTIONARY
360
18F
102
}
330
D
100
AcDbPlotSettings
  1

  2
HP LaserJet 2100 Series PS
  4

  6

 40
0.0
 41
0.0
 42
0.0
 43
0.0
 44
0.0
 45
0.0
 46
0.0
 47
0.0
 48
0.0
 49
0.0
140
0.0
141
0.0
142
1.0
143
1.0
 70
   688
 72
     0
 73
     0
 74
     5
  7

 75
    16
147
1.0
148
0.0
149
0.0
100
AcDbLayout
  1
Layout1
 70
     0
 71
     1
 10
0.0
 20
0.0
 11
12.0
 21
9.0
 12
0.0
 22
0.0
 32
0.0
 14
1.000000000000000E+20
 24
1.000000000000000E+20
 34
1.000000000000000E+20
 15
-1.000000000000000E+20
 25
-1.000000000000000E+20
 35
-1.000000000000000E+20
146
0.0
 13
0.0
 23
0.0
 33
0.0
 16
1.0
 26
0.0
 36
0.0
 17
0.0
 27
1.0
 37
0.0
 76
     0
330
E
  0
LAYOUT
  5
C
102
{ACAD_REACTORS
330
D
102
}
102
{ACAD_XDICTIONARY
360
191
102
}
330
D
100
AcDbPlotSettings
  1

  2
HP LaserJet 2100 Series PS
  4
Letter
  6

 40
5.365749835968018
 41
5.408084392547607
 42
5.4080810546875
 43
5.365753173828125
 44
215.8999938964844
 45
279.3999938964844
 46
0.0
 47
0.0
 48
0.0
 49
0.0
140
0.0
141
0.0
142
1.0
143
1.654649815462445
 70
 28336
 72
     0
 73
     1
 74
     2
  7

 75
     0
147
0.6043574843783596
148
0.0
149
0.0
100
AcDbLayout
  1
Model
 70
     1
 71
     0
 10
0.0
 20
0.0
 11
12.0
 21
9.0
 12
0.0
 22
0.0
 32
0.0
 14
0.0
 24
0.0
 34
0.0
 15
0.0
 25
0.0
 35
0.0
146
0.0
 13
0.0
 23
0.0
 33
0.0
 16
1.0
 26
0.0
 36
0.0
 17
0.0
 27
1.0
 37
0.0
 76
     0
330
2
  0
MLINESTYLE
  5
27
102
{ACAD_REACTORS
330
24
102
}
330
24
100
AcDbMlineStyle
  2
STANDARD
 70
     0
  3

 62
   256
 51
90.0
 52
90.0
 71
     2
 49
0.5
 62
   256
  6
BYLAYER
 49
-0.5
 62
   256
  6
BYLAYER
  0
ACDBPLACEHOLDER
  5
7
102
{ACAD_REACTORS
330
8
102
}
330
8
  0
ACAD_PROXY_OBJECT
  5
16F
102
{ACAD_REACTORS
330
16E
102
}
330
16E
100
AcDbProxyObject
 90
      499
 91
      520
 95
   983063
 70
     0
 93
     1841
310
4214DD185B99185C9928B81E85EB51B8AE3F2E07A17AD46E2B8FC02B5E8DC0F42B1CFD028000000C1008070000C3001FDFF8000000C1003FBFF000000182007F7FE00000030400FEFFC00000060801FDFF8000000C1003FBFF00000018200000000000000681FA0B0000001820100E000186003FBFF000000182007F7FE000
310
00030400FEFFC00000060801FDFF8000000C1003FBFF000000182007F7FE000000304000AD7A3703D0AC73F4160000003040201C00030C007F7FE00000030400FEFFC00000060801FDFF8000000C1003FBFF000000182007F7FE00000030400FEFFC000000608000
340
16
340
16
340
16
 94
        0
  0
XRECORD
  5
18D
102
{ACAD_REACTORS
330
18C
102
}
330
18C
100
AcDbXrecord
340
16D
  0
XRECORD
  5
18E
102
{ACAD_REACTORS
330
18C
102
}
330
18C
100
AcDbXrecord
340
16C
  0
DICTIONARYVAR
  5
17A
102
{ACAD_REACTORS
330
AB
102
}
330
AB
100
DictionaryVariables
280
     0
  1
STANDARD
  0
DICTIONARYVAR
  5
18B
102
{ACAD_REACTORS
330
AB
102
}
330
AB
100
DictionaryVariables
280
     0
  1
0
  0
DICTIONARY
  5
18F
330
13
100
AcDbDictionary
280
     1
281
     1
  3
ACAD_XREC_ROUNDTRIP
360
190
  0
DICTIONARY
  5
191
330
C
100
AcDbDictionary
280
     1
281
     1
  3
ACAD_XREC_ROUNDTRIP
360
192
  0
XRECORD
  5
190
102
{ACAD_REACTORS
330
18F
102
}
330
18F
100
AcDbXrecord
102
SHADEPLOT
 70
     0
102
SHADEPLOTRESLEVEL
 70
     2
102
SHADEPLOTCUSTOMDPI
 70
   300
  0
XRECORD
  5
192
102
{ACAD_REACTORS
330
191
102
}
330
191
100
AcDbXrecord
102
SHADEPLOT
 70
     0
102
SHADEPLOTRESLEVEL
 70
     2
102
SHADEPLOTCUSTOMDPI
 70
   300
  0
ENDSEC
  0
EOF
