  0
SECTION
  2
HEADER
  9
$ACADVER
  1
AC1015
  9
$ACADMAINTVER
 70
     6
  9
$DWGCODEPAGE
  3
ANSI_1252
  9
$INSBASE
 10
0.0
 20
0.0
 30
0.0
  9
$EXTMIN
 10
-7.137144386994994
 20
-0.0248528137423861
 30
-0.0000000000112498
  9
$EXTMAX
 10
11.42369159259548
 20
14.16133211566952
 30
0.0000000000002956
  9
$LIMMIN
 10
0.0
 20
0.0
  9
$LIMMAX
 10
13.3328
 20
17.4993
  9
$ORTHOMODE
 70
     1
  9
$REGENMODE
 70
     0
  9
$FILLMODE
 70
     1
  9
$QTEXTMODE
 70
     0
  9
$MIRRTEXT
 70
     1
  9
$LTSCALE
 40
0.5
  9
$ATTMODE
 70
     1
  9
$TEXTSIZE
 40
0.149994
  9
$TRACEWID
 40
0.0416
  9
$TEXTSTYLE
  7
STANDARD
  9
$CLAYER
  8
0
  9
$CELTYPE
  6
ByLayer
  9
$CECOLOR
 62
   256
  9
$CELTSCALE
 40
1.0
  9
$DISPSILH
 70
     0
  9
$DIMSCALE
 40
1.0
  9
$DIMASZ
 40
0.208
  9
$DIMEXO
 40
0.125
  9
$DIMDLI
 40
0.38
  9
$DIMRND
 40
0.0
  9
$DIMDLE
 40
0.0
  9
$DIMEXE
 40
0.133
  9
$DIMTP
 40
0.0
  9
$DIMTM
 40
0.0
  9
$DIMTXT
 40
0.15
  9
$DIMCEN
 40
-0.1
  9
$DIMTSZ
 40
0.0
  9
$DIMTOL
 70
     0
  9
$DIMLIM
 70
     0
  9
$DIMTIH
 70
     1
  9
$DIMTOH
 70
     1
  9
$DIMSE1
 70
     0
  9
$DIMSE2
 70
     0
  9
$DIMTAD
 70
     0
  9
$DIMZIN
 70
     0
  9
$DIMBLK
  1

  9
$DIMASO
 70
     0
  9
$DIMSHO
 70
     0
  9
$DIMPOST
  1

  9
$DIMAPOST
  1

  9
$DIMALT
 70
     0
  9
$DIMALTD
 70
     2
  9
$DIMALTF
 40
25.4
  9
$DIMLFAC
 40
1.0
  9
$DIMTOFL
 70
     0
  9
$DIMTVP
 40
0.0
  9
$DIMTIX
 70
     0
  9
$DIMSOXD
 70
     0
  9
$DIMSAH
 70
     0
  9
$DIMBLK1
  1

  9
$DIMBLK2
  1

  9
$DIMSTYLE
  2
Standard
  9
$DIMCLRD
 70
     0
  9
$DIMCLRE
 70
     0
  9
$DIMCLRT
 70
     0
  9
$DIMTFAC
 40
1.0
  9
$DIMGAP
 40
0.09
  9
$DIMJUST
 70
     0
  9
$DIMSD1
 70
     0
  9
$DIMSD2
 70
     0
  9
$DIMTOLJ
 70
     1
  9
$DIMTZIN
 70
     0
  9
$DIMALTZ
 70
     0
  9
$DIMALTTZ
 70
     0
  9
$DIMUPT
 70
     0
  9
$DIMDEC
 70
     4
  9
$DIMTDEC
 70
     4
  9
$DIMALTU
 70
     2
  9
$DIMALTTD
 70
     2
  9
$DIMTXSTY
  7
STANDARD
  9
$DIMAUNIT
 70
     0
  9
$DIMADEC
 70
     0
  9
$DIMALTRND
 40
0.0
  9
$DIMAZIN
 70
     0
  9
$DIMDSEP
 70
    46
  9
$DIMATFIT
 70
     3
  9
$DIMFRAC
 70
     0
  9
$DIMLDRBLK
  1

  9
$DIMLUNIT
 70
     2
  9
$DIMLWD
 70
    -2
  9
$DIMLWE
 70
    -2
  9
$DIMTMOVE
 70
     2
  9
$LUNITS
 70
     2
  9
$LUPREC
 70
     4
  9
$SKETCHINC
 40
0.1
  9
$FILLETRAD
 40
0.0
  9
$AUNITS
 70
     0
  9
$AUPREC
 70
     0
  9
$MENU
  1
ACAD
  9
$ELEVATION
 40
0.0
  9
$PELEVATION
 40
0.0
  9
$THICKNESS
 40
0.0
  9
$LIMCHECK
 70
     0
  9
$CHAMFERA
 40
0.0
  9
$CHAMFERB
 40
0.0
  9
$CHAMFERC
 40
0.0
  9
$CHAMFERD
 40
0.0
  9
$SKPOLY
 70
     0
  9
$TDCREATE
 40
2449198.93739375
  9
$TDUCREATE
 40
2449199.270727084
  9
$TDUPDATE
 40
2454168.957885625
  9
$TDUUPDATE
 40
2454169.291218958
  9
$TDINDWG
 40
0.0716651736
  9
$TDUSRTIMER
 40
0.0716651736
  9
$USRTIMER
 70
     1
  9
$ANGBASE
 50
0.0
  9
$ANGDIR
 70
     0
  9
$PDMODE
 70
     0
  9
$PDSIZE
 40
0.0
  9
$PLINEWID
 40
0.0
  9
$SPLFRAME
 70
     0
  9
$SPLINETYPE
 70
     6
  9
$SPLINESEGS
 70
     8
  9
$HANDSEED
  5
20E
  9
$SURFTAB1
 70
     6
  9
$SURFTAB2
 70
     6
  9
$SURFTYPE
 70
     6
  9
$SURFU
 70
     6
  9
$SURFV
 70
     6
  9
$UCSBASE
  2

  9
$UCSNAME
  2

  9
$UCSORG
 10
0.0
 20
0.0
 30
0.0
  9
$UCSXDIR
 10
1.0
 20
0.0
 30
0.0
  9
$UCSYDIR
 10
0.0
 20
1.0
 30
0.0
  9
$UCSORTHOREF
  2

  9
$UCSORTHOVIEW
 70
     0
  9
$UCSORGTOP
 10
0.0
 20
0.0
 30
0.0
  9
$UCSORGBOTTOM
 10
0.0
 20
0.0
 30
0.0
  9
$UCSORGLEFT
 10
0.0
 20
0.0
 30
0.0
  9
$UCSORGRIGHT
 10
0.0
 20
0.0
 30
0.0
  9
$UCSORGFRONT
 10
0.0
 20
0.0
 30
0.0
  9
$UCSORGBACK
 10
0.0
 20
0.0
 30
0.0
  9
$PUCSBASE
  2

  9
$PUCSNAME
  2

  9
$PUCSORG
 10
0.0
 20
0.0
 30
0.0
  9
$PUCSXDIR
 10
1.0
 20
0.0
 30
0.0
  9
$PUCSYDIR
 10
0.0
 20
1.0
 30
0.0
  9
$PUCSORTHOREF
  2

  9
$PUCSORTHOVIEW
 70
     0
  9
$PUCSORGTOP
 10
0.0
 20
0.0
 30
0.0
  9
$PUCSORGBOTTOM
 10
0.0
 20
0.0
 30
0.0
  9
$PUCSORGLEFT
 10
0.0
 20
0.0
 30
0.0
  9
$PUCSORGRIGHT
 10
0.0
 20
0.0
 30
0.0
  9
$PUCSORGFRONT
 10
0.0
 20
0.0
 30
0.0
  9
$PUCSORGBACK
 10
0.0
 20
0.0
 30
0.0
  9
$USERI1
 70
     0
  9
$USERI2
 70
     0
  9
$USERI3
 70
     0
  9
$USERI4
 70
     0
  9
$USERI5
 70
     0
  9
$USERR1
 40
0.0
  9
$USERR2
 40
0.0
  9
$USERR3
 40
0.0
  9
$USERR4
 40
0.0
  9
$USERR5
 40
0.0
  9
$WORLDVIEW
 70
     1
  9
$SHADEDGE
 70
     3
  9
$SHADEDIF
 70
    70
  9
$TILEMODE
 70
     1
  9
$MAXACTVP
 70
    16
  9
$PINSBASE
 10
0.0
 20
0.0
 30
0.0
  9
$PLIMCHECK
 70
     0
  9
$PEXTMIN
 10
1.000000000000000E+20
 20
1.000000000000000E+20
 30
1.000000000000000E+20
  9
$PEXTMAX
 10
-1.000000000000000E+20
 20
-1.000000000000000E+20
 30
-1.000000000000000E+20
  9
$PLIMMIN
 10
0.0
 20
0.0
  9
$PLIMMAX
 10
12.0
 20
9.0
  9
$UNITMODE
 70
     0
  9
$VISRETAIN
 70
     0
  9
$PLINEGEN
 70
     0
  9
$PSLTSCALE
 70
     0
  9
$TREEDEPTH
 70
  3020
  9
$CMLSTYLE
  2
Standard
  9
$CMLJUST
 70
     0
  9
$CMLSCALE
 40
1.0
  9
$PROXYGRAPHICS
 70
     1
  9
$MEASUREMENT
 70
     0
  9
$CELWEIGHT
370
    -1
  9
$ENDCAPS
280
     0
  9
$JOINSTYLE
280
     0
  9
$LWDISPLAY
290
     0
  9
$INSUNITS
 70
     0
  9
$HYPERLINKBASE
  1

  9
$STYLESHEET
  1

  9
$XEDIT
290
     1
  9
$CEPSNTYPE
380
     0
  9
$PSTYLEMODE
290
     1
  9
$FINGERPRINTGUID
  2
{789E9B20-732D-47D3-805A-75DAF8372A7E}
  9
$VERSIONGUID
  2
{73C1A32B-0A4E-4D93-95A3-349E78D822A5}
  9
$EXTNAMES
290
     1
  9
$PSVPSCALE
 40
0.0
  9
$OLESTARTUP
290
     0
  0
ENDSEC
  0
SECTION
  2
CLASSES
  0
CLASS
  1
ACDBDICTIONARYWDFLT
  2
AcDbDictionaryWithDefault
  3
AutoCAD 2000
 90
        0
280
     0
281
     0
  0
CLASS
  1
ACDBPLACEHOLDER
  2
AcDbPlaceHolder
  3
ObjectDBX Classes
 90
        0
280
     0
281
     0
  0
CLASS
  1
LAYOUT
  2
AcDbLayout
  3
ObjectDBX Classes
 90
        0
280
     0
281
     0
  0
CLASS
  1
LONG_TRANSACTION
  2
AcDbLongTransaction
  3
ObjectDBX Classes
 90
   -65536
280
     1
281
     0
  0
CLASS
  1
LWPOLYLINE
  2
AcDbPolyline
  3
AutoCAD 2000
 90
        0
280
     0
281
     1
  0
CLASS
  1
HATCH
  2
AcDbHatch
  3
AutoCAD 2000
 90
        0
280
     0
281
     1
  0
CLASS
  1
XRECORD
  2
AcDbXrecord
  3
AutoCAD 2000
 90
        0
280
     0
281
     0
  0
CLASS
  1
DICTIONARYVAR
  2
AcDbDictionaryVar
  3
AutoCAD 2000
 90
        0
280
     0
281
     0
  0
CLASS
  1
TABLESTYLE
  2
AcDbTableStyle
  3
ObjectDBX Classes
 90
     2047
280
     1
281
     0
  0
CLASS
  1
SORTENTSTABLE
  2
AcDbSortentsTable
  3
AutoCAD 2000
 90
        0
280
     0
281
     0
  0
ENDSEC
  0
SECTION
  2
TABLES
  0
TABLE
  2
VPORT
  5
1D
330
0
100
AcDbSymbolTable
 70
     3
  0
VPORT
  5
1FE
330
1D
100
AcDbSymbolTableRecord
100
AcDbViewportTableRecord
  2
*Active
 70
     0
 10
0.0
 20
0.0
 11
1.0
 21
1.0
 12
3.095878060844555
 22
6.756280275483228
 13
0.0
 23
0.0
 14
0.0625
 24
0.0625
 15
0.25
 25
0.25
 16
0.0
 26
0.0
 36
1.0
 17
0.0
 27
0.0
 37
0.0
 40
17.71781944996833
 41
1.814583333333333
 42
50.0
 43
0.0
 44
0.0
 50
0.0
 51
0.0
 71
     0
 72
   100
 73
     1
 74
     1
 75
     0
 76
     0
 77
     0
 78
     1
281
     0
 65
     1
110
0.0
120
0.0
130
0.0
111
1.0
121
0.0
131
0.0
112
0.0
122
1.0
132
0.0
 79
     0
146
0.0
  0
ENDTAB
  0
TABLE
  2
LTYPE
  5
18
330
0
100
AcDbSymbolTable
 70
     2
  0
LTYPE
  5
19
330
18
100
AcDbSymbolTableRecord
100
AcDbLinetypeTableRecord
  2
ByBlock
 70
     0
  3

 72
    65
 73
     0
 40
0.0
  0
LTYPE
  5
1A
330
18
100
AcDbSymbolTableRecord
100
AcDbLinetypeTableRecord
  2
ByLayer
 70
     0
  3

 72
    65
 73
     0
 40
0.0
  0
LTYPE
  5
A
330
18
100
AcDbSymbolTableRecord
100
AcDbLinetypeTableRecord
  2
CONTINUOUS
 70
     0
  3
Solid line
 72
    65
 73
     0
 40
0.0
  0
LTYPE
  5
6C
330
18
100
AcDbSymbolTableRecord
100
AcDbLinetypeTableRecord
  2
DASHED
 70
     0
  3
__ __ __ __ __ __ __ __ __ __ __ __ __ __ __
 72
    65
 73
     2
 40
0.75
 49
0.5
 74
     0
 49
-0.25
 74
     0
  0
ENDTAB
  0
TABLE
  2
LAYER
  5
14
330
0
100
AcDbSymbolTable
 70
     4
  0
LAYER
  5
6
330
14
100
AcDbSymbolTableRecord
100
AcDbLayerTableRecord
  2
0
 70
     0
 62
     7
  6
CONTINUOUS
370
    -3
390
7
  0
ENDTAB
  0
TABLE
  2
STYLE
  5
15
330
0
100
AcDbSymbolTable
 70
     1
  0
STYLE
  5
16
330
15
100
AcDbSymbolTableRecord
100
AcDbTextStyleTableRecord
  2
STANDARD
 70
     0
 40
0.0
 41
1.0
 50
0.0
 71
     0
 42
0.149994
  3
TXT
  4

  0
ENDTAB
  0
TABLE
  2
VIEW
  5
1B
330
0
100
AcDbSymbolTable
 70
     0
  0
ENDTAB
  0
TABLE
  2
UCS
  5
1C
330
0
100
AcDbSymbolTable
 70
     0
  0
ENDTAB
  0
TABLE
  2
APPID
  5
1F
330
0
100
AcDbSymbolTable
 70
     1
  0
APPID
  5
20
330
1F
100
AcDbSymbolTableRecord
100
AcDbRegAppTableRecord
  2
ACAD
 70
     0
  0
ENDTAB
  0
TABLE
  2
DIMSTYLE
  5
21
330
0
100
AcDbSymbolTable
 70
     1
100
AcDbDimStyleTable
  0
DIMSTYLE
105
28
330
21
100
AcDbSymbolTableRecord
100
AcDbDimStyleTableRecord
  2
Standard
 70
     0
  3

  4

340
16
  0
ENDTAB
  0
TABLE
  2
BLOCK_RECORD
  5
1
330
0
100
AcDbSymbolTable
 70
     1
  0
BLOCK_RECORD
  5
2
102
{ACAD_XDICTIONARY
360
3
102
}
330
1
100
AcDbSymbolTableRecord
100
AcDbBlockTableRecord
  2
*Model_Space
340
C
  0
BLOCK_RECORD
  5
E
330
1
100
AcDbSymbolTableRecord
100
AcDbBlockTableRecord
  2
*Paper_Space
340
13
  0
ENDTAB
  0
ENDSEC
  0
SECTION
  2
BLOCKS
  0
BLOCK
  5
5
330
2
100
AcDbEntity
  8
0
100
AcDbBlockBegin
  2
*Model_Space
 70
     0
 10
0.0
 20
0.0
 30
0.0
  3
*Model_Space
  1

  4

  0
ENDBLK
  5
B
330
2
100
AcDbEntity
  8
0
100
AcDbBlockEnd
  0
BLOCK
  5
11
330
E
100
AcDbEntity
 67
     1
  8
0
100
AcDbBlockBegin
  2
*Paper_Space
 70
     0
 10
0.0
 20
0.0
 30
0.0
  3
*Paper_Space
  1

  4

  0
ENDBLK
  5
12
330
E
100
AcDbEntity
 67
     1
  8
0
100
AcDbBlockEnd
  0
ENDSEC
  0
SECTION
  2
ENTITIES
  0
LINE
  5
101
330
2
100
AcDbEntity
  8
0
100
AcDbLine
 10
0.84375
 20
7.552252450642133
 30
0.0
 11
0.84375
 21
8.882191450642132
 31
0.0
  0
LINE
  5
103
330
2
100
AcDbEntity
  8
0
100
AcDbLine
 10
-0.84375
 20
7.551415450642132
 30
0.0
 11
-0.84375
 21
8.882191450642132
 31
0.0
  0
LINE
  5
105
330
2
100
AcDbEntity
  8
0
100
AcDbLine
 10
-1.71875
 20
9.319691450642132
 30
0.0
 11
-0.90625
 21
9.319691450642132
 31
0.0
  0
LINE
  5
106
330
2
100
AcDbEntity
  8
0
100
AcDbLine
 10
-0.90625
 20
9.382191450642132
 30
0.0
 11
-1.71875
 21
9.382191450642132
 31
0.0
  0
LINE
  5
107
330
2
100
AcDbEntity
  8
0
100
AcDbLine
 10
-1.71875
 20
9.382191450642132
 30
0.0
 11
-1.71875
 21
9.319691450642132
 31
0.0
  0
ARC
  5
108
330
2
100
AcDbEntity
  8
0
100
AcDbCircle
 10
0.9037499999999987
 20
9.25969145064213
 30
0.0
 40
0.06
100
AcDbArc
 50
90.00000000000003
 51
180.0
  0
ARC
  5
109
330
2
100
AcDbEntity
  8
0
100
AcDbCircle
 10
0.901250000000001
 20
9.262191450642131
 30
0.0
 40
0.12
100
AcDbArc
 50
90.00000000000003
 51
180.0
  0
LINE
  5
10B
330
2
100
AcDbEntity
  8
0
100
AcDbLine
 10
-0.84375
 20
9.25969145064213
 30
0.0
 11
-0.84375
 21
8.882191450642132
 31
0.0
  0
LINE
  5
10C
330
2
100
AcDbEntity
  8
0
100
AcDbLine
 10
-0.78125
 20
7.54364100938719
 30
0.0
 11
-0.78125
 21
9.262191450642131
 31
0.0
  0
ARC
  5
10E
330
2
100
AcDbEntity
  8
0
100
AcDbCircle
 10
-0.901250000000001
 20
9.262191450642131
 30
0.0
 40
0.12
100
AcDbArc
 50
0.0
 51
90.00000000000003
  0
ARC
  5
10F
330
2
100
AcDbEntity
  8
0
100
AcDbCircle
 10
-0.9037499999999987
 20
9.25969145064213
 30
0.0
 40
0.06
100
AcDbArc
 50
0.0
 51
90.00000000000003
  0
ARC
  5
110
330
2
100
AcDbEntity
  8
0
100
AcDbCircle
 10
-0.7821740000000013
 20
8.928691450642134
 30
0.0
 40
0.093
100
AcDbArc
 50
271.925631
 51
330.0
  0
LINE
  5
112
330
2
100
AcDbEntity
  8
0
100
AcDbLine
 10
0.78125
 20
7.541401985171397
 30
0.0
 11
0.78125
 21
9.262191450642131
 31
0.0
  0
LINE
  5
113
330
2
100
AcDbEntity
  8
0
100
AcDbLine
 10
0.84375
 20
9.25969145064213
 30
0.0
 11
0.84375
 21
8.882191450642132
 31
0.0
  0
LINE
  5
114
330
2
100
AcDbEntity
  8
0
100
AcDbLine
 10
0.7020920000000004
 20
8.88169145064213
 30
0.0
 11
-0.7016336374480485
 21
8.882191450642134
 31
0.0
  0
ARC
  5
115
330
2
100
AcDbEntity
  8
0
100
AcDbCircle
 10
0.786327
 20
8.928691450642134
 30
0.0
 40
0.093
100
AcDbArc
 50
210.0
 51
268.074369
  0
LINE
  5
118
330
2
100
AcDbEntity
  8
0
100
AcDbLine
 10
1.71875
 20
9.319691450642132
 30
0.0
 11
0.90625
 21
9.319691450642132
 31
0.0
  0
LINE
  5
119
330
2
100
AcDbEntity
  8
0
100
AcDbLine
 10
0.90625
 20
9.382191450642132
 30
0.0
 11
1.71875
 21
9.382191450642132
 31
0.0
  0
LINE
  5
11A
330
2
100
AcDbEntity
  8
0
100
AcDbLine
 10
1.71875
 20
9.382191450642132
 30
0.0
 11
1.71875
 21
9.319691450642132
 31
0.0
  0
ARC
  5
11C
330
2
100
AcDbEntity
  8
0
100
AcDbCircle
 10
-0.7678760000000011
 20
7.428691450642134
 30
0.0
 40
0.093
100
AcDbArc
 50
330.0
 51
59.99999999999999
  0
ARC
  5
11D
330
2
100
AcDbEntity
  8
0
100
AcDbCircle
 10
-0.823302
 20
7.460691450642131
 30
0.0
 40
0.093
100
AcDbArc
 50
59.99999999999999
 51
102.7017370000001
  0
LINE
  5
11E
330
2
100
AcDbEntity
  8
0
100
AcDbLine
 10
-0.776802
 20
7.54123145064213
 30
0.0
 11
-0.7213759999999994
 21
7.509231450642133
 31
0.0
  0
LINE
  5
11F
330
2
100
AcDbEntity
  8
0
100
AcDbLine
 10
-0.6873356374480484
 20
7.382191450642134
 30
0.0
 11
0.6914879999999997
 21
7.382191450642132
 31
0.0
  0
ARC
  5
120
330
2
100
AcDbEntity
  8
0
100
AcDbCircle
 10
0.7720289999999999
 20
7.428691450642134
 30
0.0
 40
0.093
100
AcDbArc
 50
120.0
 51
210.0
  0
LINE
  5
121
330
2
100
AcDbEntity
  8
0
100
AcDbLine
 10
0.7809540000000013
 20
7.54123145064213
 30
0.0
 11
0.7255289999999999
 21
7.509231450642133
 31
0.0
  0
ARC
  5
122
330
2
100
AcDbEntity
  8
0
100
AcDbCircle
 10
0.8274539999999995
 20
7.460691450642131
 30
0.0
 40
0.093
100
AcDbArc
 50
77.29826299999996
 51
120.0
  0
LINE
  5
124
330
2
100
AcDbEntity
  8
0
100
AcDbLine
 10
7.078796749546946
 20
4.802117006542126
 30
0.0
 11
7.141296749546946
 21
4.802117006542126
 31
0.0
  0
LINE
  5
125
330
2
100
AcDbEntity
  8
0
100
AcDbLine
 10
7.141296749546946
 20
1.105642006542127
 30
0.0
 11
6.731897749546945
 21
0.2428130065421254
 31
0.0
  0
ARC
  5
127
330
2
100
AcDbEntity
  8
0
100
AcDbCircle
 10
6.142603749546945
 20
3.279112006542127
 30
0.0
 40
0.3125
100
AcDbArc
 50
1.582939976537698
 51
66.03751100000001
  0
LINE
  5
128
330
2
100
AcDbEntity
  8
0
100
AcDbLine
 10
7.078796749546946
 20
4.802117006542126
 30
0.0
 11
7.078796749546946
 21
0.9973890065421256
 31
0.0
  0
ARC
  5
12A
330
2
100
AcDbEntity
  8
0
100
AcDbCircle
 10
7.078796749546946
 20
3.203609006542126
 30
0.0
 40
0.156
100
AcDbArc
 50
90.0
 51
270.0
  0
LINE
  5
12B
330
2
100
AcDbEntity
  8
0
100
AcDbLine
 10
6.283017749546946
 20
1.997005006542125
 30
0.0
 11
5.261454749546946
 21
0.2588450065421263
 31
0.0
  0
LINE
  5
12C
330
2
100
AcDbEntity
  8
0
100
AcDbLine
 10
6.641296749546946
 20
0.0521170065421263
 30
0.0
 11
5.141296749546946
 21
0.0521170065421263
 31
0.0
  0
LINE
  5
12D
330
2
100
AcDbEntity
  8
0
  6
DASHED
100
AcDbLine
 10
5.282726174432364
 20
0.1146170065421263
 30
0.0
 11
6.560722903445104
 21
0.1146170065421263
 31
0.0
  0
ARC
  5
12E
330
2
100
AcDbEntity
  8
0
100
AcDbCircle
 10
5.214954749546946
 20
0.1783040065421261
 30
0.0
 40
0.093
100
AcDbArc
 50
316.7796124333624
 51
59.99999999999994
  0
LINE
  5
12F
330
2
100
AcDbEntity
  8
0
100
AcDbLine
 10
5.141296749546946
 20
0.1146170065421263
 30
0.0
 11
5.282726174432408
 21
0.1146170065421263
 31
0.0
  0
LINE
  5
130
330
2
100
AcDbEntity
  8
0
100
AcDbLine
 10
5.141296749546946
 20
0.1146170065421263
 30
0.0
 11
5.141296749546946
 21
0.0521170065421263
 31
0.0
  0
LINE
  5
131
330
2
100
AcDbEntity
  8
0
100
AcDbLine
 10
5.261454749546946
 20
0.2588450065421263
 30
0.0
 11
5.260804749546946
 21
0.2592200065421264
 31
0.0
  0
LINE
  5
132
330
2
100
AcDbEntity
  8
0
100
AcDbLine
 10
5.266296749546946
 20
0.0521170065421263
 30
0.0
 11
5.266296749546946
 21
0.1146170065421263
 31
0.0
  0
LINE
  5
133
330
2
100
AcDbEntity
  8
0
100
AcDbLine
 10
6.560722903445104
 20
0.1146170065421263
 30
0.0
 11
6.641296749546946
 21
0.1146170065421263
 31
0.0
  0
LINE
  5
134
330
2
100
AcDbEntity
  8
0
100
AcDbLine
 10
6.572856749546945
 20
0.1533470065421238
 30
0.0
 11
6.604856749546945
 21
0.208772006542127
 31
0.0
  0
LINE
  5
135
330
2
100
AcDbEntity
  8
0
100
AcDbLine
 10
6.560653749546946
 20
0.1137460065421227
 30
0.0
 11
6.560653749546946
 21
0.0521170065421263
 31
0.0
  0
ARC
  5
136
330
2
100
AcDbEntity
  8
0
100
AcDbCircle
 10
6.653397749546945
 20
0.1068470065421274
 30
0.0
 40
0.093
100
AcDbArc
 50
150.0
 51
175.745885
  0
ARC
  5
137
330
2
100
AcDbEntity
  8
0
100
AcDbCircle
 10
6.685397749546945
 20
0.162272006542127
 30
0.0
 40
0.093
100
AcDbArc
 50
59.99999999999994
 51
150.0
  0
LINE
  5
138
330
2
100
AcDbEntity
  8
0
100
AcDbLine
 10
6.641296749546946
 20
0.0521170065421263
 30
0.0
 11
6.641296749546946
 21
0.1146170065421263
 31
0.0
  0
ARC
  5
139
330
2
100
AcDbEntity
  8
0
100
AcDbCircle
 10
6.396440749546946
 20
2.725245006542127
 30
0.0
 40
0.3125
100
AcDbArc
 50
113.962489
 51
180.0
  0
ARC
  5
13C
330
2
100
AcDbEntity
  8
0
100
AcDbCircle
 10
6.392584749546945
 20
2.693995006542127
 30
0.0
 40
0.310222
100
AcDbArc
 50
174.21855
 51
233.130102
  0
CIRCLE
  5
13E
330
2
100
AcDbEntity
  8
0
100
AcDbCircle
 10
6.332652749546945
 20
2.708367006542128
 30
0.0
 40
0.078
  0
ARC
  5
13F
330
2
100
AcDbEntity
  8
0
100
AcDbCircle
 10
6.007836749546947
 20
2.180997006542127
 30
0.0
 40
0.331025
100
AcDbArc
 50
326.232438
 51
53.13010199999999
  0
ARC
  5
144
330
2
100
AcDbEntity
  8
0
100
AcDbCircle
 10
6.142603749546945
 20
3.296377006542129
 30
0.0
 40
0.3125
100
AcDbArc
 50
293.962489
 51
358.4170600234623
  0
ARC
  5
146
330
2
100
AcDbEntity
  8
0
100
AcDbCircle
 10
6.396440749546946
 20
3.850245006542127
 30
0.0
 40
0.3125
100
AcDbArc
 50
180.0
 51
246.037511
  0
ARC
  5
147
330
2
100
AcDbEntity
  8
0
100
AcDbCircle
 10
6.396440749546946
 20
3.850245006542127
 30
0.0
 40
0.3125
100
AcDbArc
 50
113.962489
 51
180.0
  0
LINE
  5
148
330
2
100
AcDbEntity
  8
0
100
AcDbLine
 10
6.455084749546945
 20
4.802117006542126
 30
0.0
 11
6.455084749546945
 21
4.417923006542125
 31
0.0
  0
CIRCLE
  5
14B
330
2
100
AcDbEntity
  8
0
100
AcDbCircle
 10
6.332652749546945
 20
3.833367006542128
 30
0.0
 40
0.078
  0
ARC
  5
14E
330
2
100
AcDbEntity
  8
0
100
AcDbCircle
 10
6.142603749546945
 20
4.421377006542128
 30
0.0
 40
0.3125
100
AcDbArc
 50
293.962489
 51
0.0
  0
LINE
  5
151
330
2
100
AcDbEntity
  8
0
100
AcDbLine
 10
6.453796749546946
 20
4.802117006542126
 30
0.0
 11
7.078796749546946
 21
4.802117006542126
 31
0.0
  0
LINE
  5
152
330
2
100
AcDbEntity
  8
0
100
AcDbLine
 10
7.141296749546946
 20
4.802117006542126
 30
0.0
 11
7.141296749546946
 21
1.105642006542127
 31
0.0
  0
CIRCLE
  5
153
330
2
100
AcDbEntity
  8
0
100
AcDbCircle
 10
-1.21875
 20
2.0315
 30
0.0
 40
0.078
  0
LINE
  5
155
330
2
100
AcDbEntity
  8
0
100
AcDbLine
 10
-1.485983000000001
 20
1.938698000000001
 30
0.0
 11
-0.84375
 21
0.8263190000000003
 31
0.0
  0
LINE
  5
156
330
2
100
AcDbEntity
  8
0
100
AcDbLine
 10
-0.78125
 20
4.8125
 30
0.0
 11
-1.71875
 21
4.8125
 31
0.0
  0
ARC
  5
157
330
2
100
AcDbEntity
  8
0
100
AcDbCircle
 10
-1.406269
 20
3.085118
 30
0.0
 40
0.3125
100
AcDbArc
 50
113.962489
 51
180.0
  0
ARC
  5
158
330
2
100
AcDbEntity
  8
0
100
AcDbCircle
 10
-1.21875
 20
2.09375
 30
0.0
 40
0.308957
100
AcDbArc
 50
135.0
 51
210.122842
  0
ARC
  5
159
330
2
100
AcDbEntity
  8
0
100
AcDbCircle
 10
-1.406269
 20
3.102382000000001
 30
0.0
 40
0.3125
100
AcDbArc
 50
180.0
 51
246.037511
  0
ARC
  5
15A
330
2
100
AcDbEntity
  8
0
100
AcDbCircle
 10
-1.660105999999999
 20
2.53125
 30
0.0
 40
0.3125
100
AcDbArc
 50
0.0
 51
66.037511
  0
ARC
  5
15B
330
2
100
AcDbEntity
  8
0
100
AcDbCircle
 10
-1.660105999999999
 20
2.53125
 30
0.0
 40
0.3125
100
AcDbArc
 50
315.499871
 51
0.0
  0
CIRCLE
  5
15C
330
2
100
AcDbEntity
  8
0
100
AcDbCircle
 10
-1.46875
 20
3.094000000000002
 30
0.0
 40
0.078
  0
LINE
  5
15D
330
2
100
AcDbEntity
  8
0
100
AcDbLine
 10
-1.71875
 20
4.8125
 30
0.0
 11
-1.718769
 21
4.227382
 31
0.0
  0
ARC
  5
15E
330
2
100
AcDbEntity
  8
0
100
AcDbCircle
 10
-1.406269
 20
4.227382
 30
0.0
 40
0.3125
100
AcDbArc
 50
180.0
 51
246.037511
  0
ARC
  5
15F
330
2
100
AcDbEntity
  8
0
100
AcDbCircle
 10
-1.660105999999999
 20
3.65625
 30
0.0
 40
0.3125
100
AcDbArc
 50
293.962489
 51
0.0
  0
ARC
  5
160
330
2
100
AcDbEntity
  8
0
100
AcDbCircle
 10
-1.660105999999999
 20
3.65625
 30
0.0
 40
0.3125
100
AcDbArc
 50
0.0
 51
66.037511
  0
CIRCLE
  5
162
330
2
100
AcDbEntity
  8
0
100
AcDbCircle
 10
-1.46875
 20
4.5
 30
0.0
 40
0.078
  0
CIRCLE
  5
163
330
2
100
AcDbEntity
  8
0
100
AcDbCircle
 10
-1.46875
 20
4.5
 30
0.0
 40
0.078
  0
CIRCLE
  5
165
330
2
100
AcDbEntity
  8
0
100
AcDbCircle
 10
1.46875
 20
3.282000000000001
 30
0.0
 40
0.078
  0
LINE
  5
166
330
2
100
AcDbEntity
  8
0
100
AcDbLine
 10
0.78125
 20
4.8125
 30
0.0
 11
0.78125
 21
0.1199999999999996
 31
0.0
  0
LINE
  5
167
330
2
100
AcDbEntity
  8
0
100
AcDbLine
 10
0.84375
 20
0.1199999999999996
 30
0.0
 11
0.84375
 21
4.8125
 31
0.0
  0
ARC
  5
168
330
2
100
AcDbEntity
  8
0
100
AcDbCircle
 10
1.406269
 20
3.272618
 30
0.0
 40
0.3125
100
AcDbArc
 50
0.0
 51
66.037511
  0
LINE
  5
169
330
2
100
AcDbEntity
  8
0
100
AcDbLine
 10
-0.84375
 20
0.1199999999999996
 30
0.0
 11
-0.84375
 21
4.8125
 31
0.0
  0
LINE
  5
16A
330
2
100
AcDbEntity
  8
0
100
AcDbLine
 10
-0.78125
 20
4.8125
 30
0.0
 11
-0.78125
 21
0.1199999999999996
 31
0.0
  0
LINE
  5
16B
330
2
100
AcDbEntity
  8
0
100
AcDbLine
 10
1.546682000000001
 20
1.990510000000001
 30
0.0
 11
0.84375
 21
0.7830870000000005
 31
0.0
  0
ARC
  5
16C
330
2
100
AcDbEntity
  8
0
100
AcDbCircle
 10
0.84375
 20
3.1565
 30
0.0
 40
0.156
100
AcDbArc
 50
270.0
 51
90.0
  0
ARC
  5
16D
330
2
100
AcDbEntity
  8
0
100
AcDbCircle
 10
0.723749999999999
 20
0.1199999999999996
 30
0.0
 40
0.12
100
AcDbArc
 50
270.0
 51
0.0
  0
LINE
  5
16E
330
2
100
AcDbEntity
  8
0
100
AcDbLine
 10
0.7212500000000013
 20
0.0625000000000004
 30
0.0
 11
-0.7212500000000013
 21
0.0625000000000009
 31
0.0
  0
LINE
  5
16F
330
2
100
AcDbEntity
  8
0
100
AcDbLine
 10
-0.723749999999999
 20
-0.0000000000000004
 30
0.0
 11
0.723749999999999
 21
0.0000000000000004
 31
0.0
  0
ARC
  5
172
330
2
100
AcDbEntity
  8
0
100
AcDbCircle
 10
-0.723749999999999
 20
0.1199999999999996
 30
0.0
 40
0.12
100
AcDbArc
 50
180.0
 51
270.0
  0
ARC
  5
173
330
2
100
AcDbEntity
  8
0
100
AcDbCircle
 10
-0.7212500000000013
 20
0.1225000000000009
 30
0.0
 40
0.06
100
AcDbArc
 50
180.0
 51
270.0
  0
LINE
  5
174
330
2
100
AcDbEntity
  8
0
100
AcDbLine
 10
0.28125
 20
0.0625000000000004
 30
0.0
 11
0.2892499999999991
 21
0.0625000000000004
 31
0.0
  0
ARC
  5
175
330
2
100
AcDbEntity
  8
0
100
AcDbCircle
 10
0.7212500000000013
 20
0.1225000000000009
 30
0.0
 40
0.06
100
AcDbArc
 50
270.0
 51
0.0
  0
ARC
  5
176
330
2
100
AcDbEntity
  8
0
100
AcDbCircle
 10
-0.84375
 20
3.1565
 30
0.0
 40
0.156
100
AcDbArc
 50
90.0
 51
270.0
  0
ARC
  5
177
330
2
100
AcDbEntity
  8
0
100
AcDbCircle
 10
1.65625
 20
2.6875
 30
0.0
 40
0.310222
100
AcDbArc
 50
174.21855
 51
233.130102
  0
CIRCLE
  5
178
330
2
100
AcDbEntity
  8
0
100
AcDbCircle
 10
1.348448999999999
 20
2.180081
 30
0.0
 40
0.078
  0
ARC
  5
179
330
2
100
AcDbEntity
  8
0
100
AcDbCircle
 10
1.660105999999999
 20
2.71875
 30
0.0
 40
0.3125
100
AcDbArc
 50
113.962489
 51
180.0
  0
ARC
  5
17A
330
2
100
AcDbEntity
  8
0
100
AcDbCircle
 10
1.271502
 20
2.174502000000001
 30
0.0
 40
0.331025
100
AcDbArc
 50
326.232438
 51
53.13010200000002
  0
ARC
  5
17B
330
2
100
AcDbEntity
  8
0
100
AcDbCircle
 10
1.406269
 20
3.289882000000001
 30
0.0
 40
0.3125
100
AcDbArc
 50
293.962489
 51
0.0
  0
LINE
  5
17C
330
2
100
AcDbEntity
  8
0
100
AcDbLine
 10
0.78125
 20
4.8125
 30
0.0
 11
1.71875
 21
4.8125
 31
0.0
  0
LINE
  5
17D
330
2
100
AcDbEntity
  8
0
100
AcDbLine
 10
1.71875
 20
4.8125
 30
0.0
 11
1.71875
 21
4.411436040191884
 31
0.0
  0
ARC
  5
17F
330
2
100
AcDbEntity
  8
0
100
AcDbCircle
 10
1.660105999999999
 20
3.84375
 30
0.0
 40
0.3125
100
AcDbArc
 50
113.962489
 51
180.0
  0
ARC
  5
180
330
2
100
AcDbEntity
  8
0
100
AcDbCircle
 10
1.660105999999999
 20
3.84375
 30
0.0
 40
0.3125
100
AcDbArc
 50
180.0
 51
246.037511
  0
ARC
  5
182
330
2
100
AcDbEntity
  8
0
100
AcDbCircle
 10
1.406269
 20
4.414882
 30
0.0
 40
0.3125
100
AcDbArc
 50
293.962489
 51
0.0
  0
CIRCLE
  5
183
330
2
100
AcDbEntity
  8
0
100
AcDbCircle
 10
1.46875
 20
4.5
 30
0.0
 40
0.078
  0
CIRCLE
  5
184
330
2
100
AcDbEntity
  8
0
100
AcDbCircle
 10
1.46875
 20
4.5
 30
0.0
 40
0.078
  0
LINE
  5
186
330
2
100
AcDbEntity
  8
0
100
AcDbLine
 10
-1.136772000000001
 20
8.940606450642132
 30
0.0
 11
-1.206772000000001
 21
8.960606450642132
 31
0.0
  0
LINE
  5
187
330
2
100
AcDbEntity
  8
0
100
AcDbLine
 10
-1.206772000000001
 20
8.960606450642132
 30
0.0
 11
-1.206772000000001
 21
9.315606450642132
 31
0.0
  0
LINE
  5
188
330
2
100
AcDbEntity
  8
0
100
AcDbLine
 10
-1.089272000000001
 20
8.940606450642132
 30
0.0
 11
-1.136772000000001
 21
8.940606450642132
 31
0.0
  0
LINE
  5
189
330
2
100
AcDbEntity
  8
0
100
AcDbLine
 10
-1.089272000000001
 20
8.940606450642132
 30
0.0
 11
-1.019272000000001
 21
8.960606450642132
 31
0.0
  0
LINE
  5
18A
330
2
100
AcDbEntity
  8
0
100
AcDbLine
 10
-1.019272000000001
 20
9.315606450642132
 30
0.0
 11
-1.019272000000001
 21
8.960606450642132
 31
0.0
  0
LINE
  5
18B
330
2
100
AcDbEntity
  8
0
100
AcDbLine
 10
1.136772000000001
 20
8.940606450642132
 30
0.0
 11
1.206772000000001
 21
8.960606450642132
 31
0.0
  0
LINE
  5
18C
330
2
100
AcDbEntity
  8
0
100
AcDbLine
 10
1.206772000000001
 20
8.960606450642132
 30
0.0
 11
1.206772000000001
 21
9.315606450642132
 31
0.0
  0
LINE
  5
18D
330
2
100
AcDbEntity
  8
0
100
AcDbLine
 10
1.089272000000001
 20
8.940606450642132
 30
0.0
 11
1.136772000000001
 21
8.940606450642132
 31
0.0
  0
LINE
  5
18E
330
2
100
AcDbEntity
  8
0
100
AcDbLine
 10
1.089272000000001
 20
8.940606450642132
 30
0.0
 11
1.019272000000001
 21
8.960606450642132
 31
0.0
  0
LINE
  5
18F
330
2
100
AcDbEntity
  8
0
100
AcDbLine
 10
1.019272000000001
 20
9.315606450642132
 30
0.0
 11
1.019272000000001
 21
8.960606450642132
 31
0.0
  0
LINE
  5
190
330
2
100
AcDbEntity
  8
0
100
AcDbLine
 10
7.077476749546946
 20
4.149869006542128
 30
0.0
 11
6.805376749546948
 21
4.231859006542127
 31
0.0
  0
LINE
  5
191
330
2
100
AcDbEntity
  8
0
100
AcDbLine
 10
6.808351749546947
 20
4.270338006542128
 30
0.0
 11
7.079083749546946
 21
4.426186006542128
 31
0.0
  0
ARC
  5
192
330
2
100
AcDbEntity
  8
0
100
AcDbCircle
 10
6.810417749546947
 20
4.250440006542128
 30
0.0
 40
0.019337
100
AcDbArc
 50
113.110122
 51
272.9435379999999
  0
LINE
  5
193
330
2
100
AcDbEntity
  8
0
100
AcDbLine
 10
6.754117749546946
 20
4.149620006542127
 30
0.0
 11
7.078796749546946
 21
4.052117006542128
 31
0.0
  0
LINE
  5
194
330
2
100
AcDbEntity
  8
0
100
AcDbLine
 10
6.768479749546948
 20
4.312419006542129
 30
0.0
 11
7.077476749546946
 21
4.489039006542129
 31
0.0
  0
ARC
  5
195
330
2
100
AcDbEntity
  8
0
100
AcDbCircle
 10
6.781397749546947
 20
4.227312006542128
 30
0.0
 40
0.083053
100
AcDbArc
 50
100.9394620000001
 51
265.0416969999999
  0
LINE
  5
19B
330
2
100
AcDbEntity
  8
0
  6
DASHED
100
AcDbLine
 10
-5.278573811880412
 20
0.1146170065421263
 30
0.0
 11
-6.556570540893152
 21
0.1146170065421263
 31
0.0
  0
LINE
  5
19C
330
2
100
AcDbEntity
  8
0
100
AcDbLine
 10
-6.637144386994994
 20
0.0521170065421263
 30
0.0
 11
-5.137144386994994
 21
0.0521170065421263
 31
0.0
  0
LINE
  5
19D
330
2
100
AcDbEntity
  8
0
100
AcDbLine
 10
-6.253613386994997
 20
2.028577006542126
 30
0.0
 11
-5.257302386994994
 21
0.2588450065421263
 31
0.0
  0
ARC
  5
19E
330
2
100
AcDbEntity
  8
0
100
AcDbCircle
 10
-5.210802386994994
 20
0.1783040065421261
 30
0.0
 40
0.093
100
AcDbArc
 50
120.0000000000001
 51
223.2203875666376
  0
LINE
  5
19F
330
2
100
AcDbEntity
  8
0
100
AcDbLine
 10
-5.137144386994994
 20
0.1146170065421263
 30
0.0
 11
-5.278573811880457
 21
0.1146170065421263
 31
0.0
  0
LINE
  5
1A0
330
2
100
AcDbEntity
  8
0
100
AcDbLine
 10
-5.137144386994994
 20
0.1146170065421263
 30
0.0
 11
-5.137144386994994
 21
0.0521170065421263
 31
0.0
  0
LINE
  5
1A1
330
2
100
AcDbEntity
  8
0
100
AcDbLine
 10
-5.262144386994994
 20
0.0521170065421263
 30
0.0
 11
-5.262144386994994
 21
0.1146170065421263
 31
0.0
  0
LINE
  5
1A2
330
2
100
AcDbEntity
  8
0
100
AcDbLine
 10
-5.257302386994994
 20
0.2588450065421263
 30
0.0
 11
-5.256652386994994
 21
0.2592200065421264
 31
0.0
  0
LINE
  5
1A3
330
2
100
AcDbEntity
  8
0
100
AcDbLine
 10
-7.137144386994994
 20
4.802117006542126
 30
0.0
 11
-7.137144386994994
 21
1.105642006542127
 31
0.0
  0
ARC
  5
1A4
330
2
100
AcDbEntity
  8
0
100
AcDbCircle
 10
-6.138451386994993
 20
3.109377006542128
 30
0.0
 40
0.3125
100
AcDbArc
 50
181.5829399765377
 51
246.037511
  0
ARC
  5
1A5
330
2
100
AcDbEntity
  8
0
100
AcDbCircle
 10
-7.074644386994994
 20
3.203609006542126
 30
0.0
 40
0.156
100
AcDbArc
 50
270.0
 51
90.0
  0
LINE
  5
1A7
330
2
100
AcDbEntity
  8
0
100
AcDbLine
 10
-7.074644386994994
 20
4.802117006542126
 30
0.0
 11
-7.074644386994994
 21
0.9973890065421256
 31
0.0
  0
LINE
  5
1A8
330
2
100
AcDbEntity
  8
0
100
AcDbLine
 10
-7.137144386994994
 20
1.105642006542127
 30
0.0
 11
-6.727745386994994
 21
0.2428130065421254
 31
0.0
  0
LINE
  5
1A9
330
2
100
AcDbEntity
  8
0
100
AcDbLine
 10
-6.568704386994994
 20
0.1533470065421238
 30
0.0
 11
-6.600704386994994
 21
0.208772006542127
 31
0.0
  0
LINE
  5
1AA
330
2
100
AcDbEntity
  8
0
100
AcDbLine
 10
-6.637144386994994
 20
0.0521170065421263
 30
0.0
 11
-6.637144386994994
 21
0.1146170065421263
 31
0.0
  0
ARC
  5
1AB
330
2
100
AcDbEntity
  8
0
100
AcDbCircle
 10
-6.649245386994994
 20
0.1068470065421274
 30
0.0
 40
0.093
100
AcDbArc
 50
4.254115000000009
 51
30.00000000000003
  0
LINE
  5
1AC
330
2
100
AcDbEntity
  8
0
100
AcDbLine
 10
-6.556501386994994
 20
0.1137460065421227
 30
0.0
 11
-6.556501386994994
 21
0.0521170065421263
 31
0.0
  0
LINE
  5
1AD
330
2
100
AcDbEntity
  8
0
100
AcDbLine
 10
-6.556570540893152
 20
0.1146170065421263
 30
0.0
 11
-6.637144386994994
 21
0.1146170065421263
 31
0.0
  0
ARC
  5
1AE
330
2
100
AcDbEntity
  8
0
100
AcDbCircle
 10
-6.681245386994994
 20
0.162272006542127
 30
0.0
 40
0.093
100
AcDbArc
 50
30.00000000000003
 51
120.0000000000001
  0
ARC
  5
1B0
330
2
100
AcDbEntity
  8
0
100
AcDbCircle
 10
-5.963266060858975
 20
2.084704487836364
 30
0.0
 40
0.2957230858723584
100
AcDbArc
 50
143.9302185796072
 51
190.9410164791063
  0
CIRCLE
  5
1B1
330
2
100
AcDbEntity
  8
0
100
AcDbCircle
 10
-6.328500386994993
 20
2.521367006542127
 30
0.0
 40
0.078
  0
ARC
  5
1B5
330
2
100
AcDbEntity
  8
0
100
AcDbCircle
 10
-6.392288386994994
 20
2.538245006542125
 30
0.0
 40
0.3125
100
AcDbArc
 50
0.000000000000007
 51
66.03751100000001
  0
ARC
  5
1B6
330
2
100
AcDbEntity
  8
0
100
AcDbCircle
 10
-6.388432386994993
 20
2.506995006542125
 30
0.0
 40
0.310222
100
AcDbArc
 50
306.869898
 51
5.781450000000012
  0
LINE
  5
1BB
330
2
100
AcDbEntity
  8
0
100
AcDbLine
 10
-6.764327386994997
 20
4.312419006542129
 30
0.0
 11
-7.073324386994995
 21
4.489039006542129
 31
0.0
  0
LINE
  5
1BC
330
2
100
AcDbEntity
  8
0
100
AcDbLine
 10
-6.749965386994995
 20
4.149620006542127
 30
0.0
 11
-7.074644386994994
 21
4.052117006542128
 31
0.0
  0
LINE
  5
1BD
330
2
100
AcDbEntity
  8
0
100
AcDbLine
 10
-6.804199386994996
 20
4.270338006542128
 30
0.0
 11
-7.074931386994995
 21
4.426186006542128
 31
0.0
  0
LINE
  5
1BE
330
2
100
AcDbEntity
  8
0
100
AcDbLine
 10
-7.073324386994995
 20
4.149869006542128
 30
0.0
 11
-6.801224386994996
 21
4.231859006542127
 31
0.0
  0
LINE
  5
1BF
330
2
100
AcDbEntity
  8
0
100
AcDbLine
 10
-6.449644386994994
 20
4.802117006542126
 30
0.0
 11
-7.074644386994994
 21
4.802117006542126
 31
0.0
  0
LINE
  5
1C0
330
2
100
AcDbEntity
  8
0
100
AcDbLine
 10
-6.450932386994993
 20
4.802117006542126
 30
0.0
 11
-6.450951386994993
 21
4.234377006542127
 31
0.0
  0
CIRCLE
  5
1C2
330
2
100
AcDbEntity
  8
0
100
AcDbCircle
 10
-6.328500386994993
 20
3.646367006542127
 30
0.0
 40
0.078
  0
ARC
  5
1C4
330
2
100
AcDbEntity
  8
0
100
AcDbCircle
 10
-6.392288386994994
 20
3.663245006542125
 30
0.0
 40
0.3125
100
AcDbArc
 50
0.000000000000007
 51
66.03751100000001
  0
ARC
  5
1C5
330
2
100
AcDbEntity
  8
0
100
AcDbCircle
 10
-6.392288386994994
 20
3.663245006542125
 30
0.0
 40
0.3125
100
AcDbArc
 50
293.962489
 51
0.000000000000007
  0
ARC
  5
1C8
330
2
100
AcDbEntity
  8
0
100
AcDbCircle
 10
-6.138451386994993
 20
3.092112006542126
 30
0.0
 40
0.3125
100
AcDbArc
 50
113.962489
 51
178.4170600234623
  0
ARC
  5
1CA
330
2
100
AcDbEntity
  8
0
100
AcDbCircle
 10
-6.138451386994993
 20
4.234377006542127
 30
0.0
 40
0.3125
100
AcDbArc
 50
180.0
 51
246.037511
  0
ARC
  5
1CC
330
2
100
AcDbEntity
  8
0
100
AcDbCircle
 10
-6.777245386994996
 20
4.227312006542128
 30
0.0
 40
0.083053
100
AcDbArc
 50
274.958303
 51
79.06053799999992
  0
ARC
  5
1CD
330
2
100
AcDbEntity
  8
0
100
AcDbCircle
 10
-6.806265386994995
 20
4.250440006542128
 30
0.0
 40
0.019337
100
AcDbArc
 50
267.0564620000001
 51
66.88987799999998
  0
LINE
  5
1CE
330
2
100
AcDbEntity
  8
0
100
AcDbLine
 10
-7.074644386994994
 20
4.802117006542126
 30
0.0
 11
-7.137144386994994
 21
4.802117006542126
 31
0.0
  0
LINE
  5
1E3
330
2
100
AcDbEntity
  8
0
100
AcDbLine
 10
1.193475
 20
4.476077
 30
0.0
 11
1.059703
 21
4.476077
 31
0.0
  0
ARC
  5
1E4
330
2
100
AcDbEntity
  8
0
100
AcDbCircle
 10
1.126913
 20
4.067024
 30
0.0
 40
0.114071
100
AcDbArc
 50
52.46173799999995
 51
125.191188
  0
ARC
  5
1E5
330
2
100
AcDbEntity
  8
0
100
AcDbCircle
 10
1.126913
 20
4.220224999999999
 30
0.0
 40
0.114071
100
AcDbArc
 50
234.808812
 51
307.538262
  0
POINT
  5
1E6
330
2
100
AcDbEntity
  8
0
100
AcDbPoint
 10
1.12575
 20
3.894673000000001
 30
0.0
 50
180.0
  0
LINE
  5
1E7
330
2
100
AcDbEntity
  8
0
100
AcDbLine
 10
1.1265
 20
3.894673000000001
 30
0.0
 11
1.2195
 21
3.987673000000001
 31
0.0
  0
LINE
  5
1E8
330
2
100
AcDbEntity
  8
0
100
AcDbLine
 10
1.12575
 20
3.894673000000001
 30
0.0
 11
1.032
 21
3.988423000000001
 31
0.0
  0
LINE
  5
1E9
330
2
100
AcDbEntity
  8
0
100
AcDbLine
 10
1.1265
 20
3.894673000000001
 30
0.0
 11
1.12575
 21
3.894673000000001
 31
0.0
  0
LINE
  5
1EA
330
2
100
AcDbEntity
  8
0
100
AcDbLine
 10
1.1265
 20
3.71875
 30
0.0
 11
1.12575
 21
3.71875
 31
0.0
  0
LINE
  5
1EB
330
2
100
AcDbEntity
  8
0
100
AcDbLine
 10
1.2195
 20
4.46875
 30
0.0
 11
1.2195
 21
3.81175
 31
0.0
  0
LINE
  5
1EC
330
2
100
AcDbEntity
  8
0
100
AcDbLine
 10
1.032
 20
3.8125
 30
0.0
 11
1.032
 21
4.46875
 31
0.0
  0
LINE
  5
1ED
330
2
100
AcDbEntity
  8
0
100
AcDbLine
 10
1.12575
 20
3.71875
 30
0.0
 11
1.032
 21
3.8125
 31
0.0
  0
LINE
  5
1EE
330
2
100
AcDbEntity
  8
0
100
AcDbLine
 10
1.1265
 20
3.71875
 30
0.0
 11
1.2195
 21
3.81175
 31
0.0
  0
POINT
  5
1EF
330
2
100
AcDbEntity
  8
0
100
AcDbPoint
 10
1.12575
 20
3.71875
 30
0.0
 50
180.0
  0
LINE
  5
1F1
330
2
100
AcDbEntity
  8
0
100
AcDbLine
 10
-1.193475
 20
4.476077
 30
0.0
 11
-1.059703
 21
4.476077
 31
0.0
  0
ARC
  5
1F2
330
2
100
AcDbEntity
  8
0
100
AcDbCircle
 10
-1.126913
 20
4.067024
 30
0.0
 40
0.114071
100
AcDbArc
 50
54.808812
 51
127.538262
  0
ARC
  5
1F3
330
2
100
AcDbEntity
  8
0
100
AcDbCircle
 10
-1.126913
 20
4.220224999999999
 30
0.0
 40
0.114071
100
AcDbArc
 50
232.461738
 51
305.191188
  0
POINT
  5
1F4
330
2
100
AcDbEntity
  8
0
100
AcDbPoint
 10
-1.12575
 20
3.894673000000001
 30
0.0
  0
LINE
  5
1F5
330
2
100
AcDbEntity
  8
0
100
AcDbLine
 10
-1.1265
 20
3.894673000000001
 30
0.0
 11
-1.2195
 21
3.987673000000001
 31
0.0
  0
LINE
  5
1F6
330
2
100
AcDbEntity
  8
0
100
AcDbLine
 10
-1.12575
 20
3.894673000000001
 30
0.0
 11
-1.032
 21
3.988423000000001
 31
0.0
  0
LINE
  5
1F7
330
2
100
AcDbEntity
  8
0
100
AcDbLine
 10
-1.1265
 20
3.894673000000001
 30
0.0
 11
-1.12575
 21
3.894673000000001
 31
0.0
  0
LINE
  5
1F8
330
2
100
AcDbEntity
  8
0
100
AcDbLine
 10
-1.1265
 20
3.71875
 30
0.0
 11
-1.12575
 21
3.71875
 31
0.0
  0
LINE
  5
1F9
330
2
100
AcDbEntity
  8
0
100
AcDbLine
 10
-1.2195
 20
4.46875
 30
0.0
 11
-1.2195
 21
3.81175
 31
0.0
  0
LINE
  5
1FA
330
2
100
AcDbEntity
  8
0
100
AcDbLine
 10
-1.032
 20
3.8125
 30
0.0
 11
-1.032
 21
4.46875
 31
0.0
  0
LINE
  5
1FB
330
2
100
AcDbEntity
  8
0
100
AcDbLine
 10
-1.12575
 20
3.71875
 30
0.0
 11
-1.032
 21
3.8125
 31
0.0
  0
LINE
  5
1FC
330
2
100
AcDbEntity
  8
0
100
AcDbLine
 10
-1.1265
 20
3.71875
 30
0.0
 11
-1.2195
 21
3.81175
 31
0.0
  0
POINT
  5
1FD
330
2
100
AcDbEntity
  8
0
100
AcDbPoint
 10
-1.12575
 20
3.71875
 30
0.0
  0
ENDSEC
  0
SECTION
  2
OBJECTS
  0
DICTIONARY
  5
9
330
0
100
AcDbDictionary
281
     1
  3
ACAD_COLOR
350
1D5
  3
ACAD_GROUP
350
23
  3
ACAD_LAYOUT
350
D
  3
ACAD_MATERIAL
350
1D4
  3
ACAD_MLINESTYLE
350
24
  3
ACAD_PLOTSETTINGS
350
25
  3
ACAD_PLOTSTYLENAME
350
8
  3
ACAD_TABLESTYLE
350
1D6
  3
ACDBHEADERROUNDTRIPXREC
350
207
  3
AcDbVariableDictionary
350
F5
  0
DICTIONARY
  5
3
330
2
100
AcDbDictionary
280
     1
281
     1
  3
ACAD_SORTENTS
360
1F0
  0
DICTIONARY
  5
1D5
102
{ACAD_REACTORS
330
9
102
}
330
9
100
AcDbDictionary
281
     1
  0
DICTIONARY
  5
23
102
{ACAD_REACTORS
330
9
102
}
330
9
100
AcDbDictionary
281
     1
  0
DICTIONARY
  5
D
102
{ACAD_REACTORS
330
9
102
}
330
9
100
AcDbDictionary
281
     1
  3
Layout1
350
13
  3
Model
350
C
  0
DICTIONARY
  5
1D4
102
{ACAD_REACTORS
330
9
102
}
330
9
100
AcDbDictionary
281
     1
  0
DICTIONARY
  5
24
102
{ACAD_REACTORS
330
9
102
}
330
9
100
AcDbDictionary
281
     1
  3
Standard
350
27
  0
DICTIONARY
  5
25
102
{ACAD_REACTORS
330
9
102
}
330
9
100
AcDbDictionary
281
     1
  0
ACDBDICTIONARYWDFLT
  5
8
102
{ACAD_REACTORS
330
9
102
}
330
9
100
AcDbDictionary
281
     1
  3
Normal
350
7
100
AcDbDictionaryWithDefault
340
7
  0
DICTIONARY
  5
1D6
102
{ACAD_REACTORS
330
9
102
}
330
9
100
AcDbDictionary
281
     1
  3
Standard
350
1D7
  0
DICTIONARY
  5
207
102
{ACAD_REACTORS
330
9
102
}
330
9
100
AcDbDictionary
281
     1
  3
COLORDICT
350
208
  3
MATERIALDICT
350
209
  0
DICTIONARY
  5
F5
102
{ACAD_REACTORS
330
9
102
}
330
9
100
AcDbDictionary
281
     1
  3
CTABLESTYLE
350
204
  3
HIDETEXT
350
206
  0
SORTENTSTABLE
  5
1F0
102
{ACAD_REACTORS
330
3
102
}
330
3
100
AcDbSortentsTable
330
2
331
135
  5
135
331
16F
  5
17F
331
183
  5
1A3
331
16A
  5
179
331
16B
  5
17A
331
1A8
  5
1E4
331
1C2
  5
1F6
331
1B6
  5
1EE
331
1A5
  5
1CE
331
1F2
  5
156
331
178
  5
188
331
12A
  5
12A
331
16C
  5
17B
331
138
  5
138
331
186
  5
1A5
331
19D
  5
1C0
331
15B
  5
16A
331
12D
  5
12D
331
1B0
  5
1EB
331
168
  5
177
331
1EC
  5
19E
331
10B
  5
10B
331
18B
  5
1AB
331
14E
  5
14E
331
101
  5
101
331
17D
  5
18D
331
1A2
  5
1CA
331
157
  5
166
331
18A
  5
1AA
331
1EB
  5
19D
331
125
  5
125
331
15C
  5
16B
331
1E4
  5
191
331
18F
  5
1B0
331
193
  5
1BB
331
1A0
  5
1C5
331
11F
  5
11F
331
130
  5
130
331
118
  5
118
331
15F
  5
16E
331
127
  5
127
331
114
  5
114
331
19E
  5
1C2
331
162
  5
172
331
1E8
  5
195
331
103
  5
103
331
163
  5
173
331
172
  5
180
331
18E
  5
1AE
331
1F5
  5
159
331
159
  5
168
331
1BE
  5
1F3
331
17B
  5
18B
331
188
  5
1A8
331
131
  5
131
331
11D
  5
11D
331
173
  5
182
331
10C
  5
10C
331
15D
  5
16C
331
1BF
  5
1F4
331
17A
  5
18A
331
1EA
  5
19C
331
12B
  5
12B
331
1CA
  5
1FA
331
1BC
  5
1F1
331
179
  5
189
331
119
  5
119
331
10F
  5
10F
331
184
  5
1A4
331
175
  5
184
331
1FC
  5
160
331
153
  5
153
331
113
  5
113
331
1E9
  5
19B
331
15A
  5
169
331
151
  5
151
331
112
  5
112
331
1E6
  5
193
331
115
  5
115
331
109
  5
109
331
182
  5
1A2
331
1C8
  5
1F9
331
133
  5
133
331
191
  5
1B5
331
148
  5
148
331
192
  5
1B6
331
160
  5
16F
331
1FD
  5
162
331
121
  5
121
331
106
  5
106
331
1EF
  5
1A1
331
1AA
  5
1E6
331
1CC
  5
1FB
331
1C5
  5
1F8
331
17C
  5
18C
331
1B5
  5
1ED
331
176
  5
186
331
146
  5
146
331
10E
  5
10E
331
18D
  5
1AD
331
110
  5
110
331
1BB
  5
1EF
331
1AE
  5
1EA
331
128
  5
128
331
19F
  5
1C4
331
152
  5
152
331
11A
  5
11A
331
1A3
  5
1CC
331
1AC
  5
1E8
331
1F4
  5
158
331
12C
  5
12C
331
166
  5
175
331
194
  5
1BC
331
174
  5
183
331
12E
  5
12E
331
13C
  5
13C
331
177
  5
187
331
1FA
  5
15E
331
120
  5
120
331
187
  5
1A7
331
167
  5
176
331
12F
  5
12F
331
105
  5
105
331
11E
  5
11E
331
155
  5
163
331
195
  5
1BD
331
158
  5
167
331
1A1
  5
1C8
331
1EE
  5
1A0
331
13F
  5
13F
331
11C
  5
11C
331
1F1
  5
155
331
180
  5
18F
331
1AB
  5
1E7
331
169
  5
178
331
1C4
  5
1F7
331
1BD
  5
1F2
331
1A4
  5
1CD
331
19C
  5
1BF
331
137
  5
137
331
14B
  5
14B
331
1F3
  5
157
331
122
  5
122
331
1E5
  5
192
331
19B
  5
1BE
331
17F
  5
18E
331
16D
  5
17C
331
156
  5
165
331
1A7
  5
1E3
331
1FB
  5
15F
331
1C0
  5
1F5
331
1CD
  5
1FC
331
13E
  5
13E
331
189
  5
1A9
331
190
  5
1B1
331
1F7
  5
15B
331
1E7
  5
194
331
1B1
  5
1EC
331
139
  5
139
331
134
  5
134
331
1CE
  5
1FD
331
1F6
  5
15A
331
108
  5
108
331
16E
  5
17D
331
107
  5
107
331
165
  5
174
331
1F9
  5
15D
331
124
  5
124
331
1AD
  5
1E9
331
15E
  5
16D
331
1ED
  5
19F
331
132
  5
132
331
136
  5
136
331
1E3
  5
190
331
147
  5
147
331
144
  5
144
331
18C
  5
1AC
331
1F8
  5
15C
331
1A9
  5
1E5
  0
LAYOUT
  5
13
102
{ACAD_REACTORS
330
D
102
}
102
{ACAD_XDICTIONARY
360
20A
102
}
330
D
100
AcDbPlotSettings
  1

  2
C:\ACAD2000\plotters\HP LaserJet 2100 Series PS.pc3
  4

  6

 40
0.0
 41
0.0
 42
0.0
 43
0.0
 44
0.0
 45
0.0
 46
0.0
 47
0.0
 48
0.0
 49
0.0
140
0.0
141
0.0
142
1.0
143
1.0
 70
   688
 72
     0
 73
     0
 74
     5
  7

 75
    16
147
1.0
148
0.0
149
0.0
100
AcDbLayout
  1
Layout1
 70
     0
 71
     1
 10
0.0
 20
0.0
 11
12.0
 21
9.0
 12
0.0
 22
0.0
 32
0.0
 14
1.000000000000000E+20
 24
1.000000000000000E+20
 34
1.000000000000000E+20
 15
-1.000000000000000E+20
 25
-1.000000000000000E+20
 35
-1.000000000000000E+20
146
0.0
 13
0.0
 23
0.0
 33
0.0
 16
1.0
 26
0.0
 36
0.0
 17
0.0
 27
1.0
 37
0.0
 76
     0
330
E
  0
LAYOUT
  5
C
102
{ACAD_REACTORS
330
D
102
}
102
{ACAD_XDICTIONARY
360
20C
102
}
330
D
100
AcDbPlotSettings
  1

  2
HP LaserJet 2100 Series PS
  4
Letter
  6

 40
5.365749835968018
 41
5.408073902130127
 42
5.132904052734375
 43
5.090576171875
 44
215.8999938964844
 45
279.3999938964844
 46
0.0
 47
0.0
 48
0.0
 49
0.0
140
0.0
141
0.0
142
1.0
143
1.652956484640829
 70
 28336
 72
     0
 73
     0
 74
     2
  7

 75
     0
147
0.604976603614154
148
0.0
149
0.0
100
AcDbLayout
  1
Model
 70
     1
 71
     0
 10
0.0
 20
0.0
 11
12.0
 21
9.0
 12
0.0
 22
0.0
 32
0.0
 14
0.0
 24
0.0
 34
0.0
 15
0.0
 25
0.0
 35
0.0
146
0.0
 13
0.0
 23
0.0
 33
0.0
 16
1.0
 26
0.0
 36
0.0
 17
0.0
 27
1.0
 37
0.0
 76
     0
330
2
  0
MLINESTYLE
  5
27
102
{ACAD_REACTORS
330
24
102
}
330
24
100
AcDbMlineStyle
  2
STANDARD
 70
     0
  3

 62
   256
 51
90.0
 52
90.0
 71
     2
 49
0.5
 62
   256
  6
BYLAYER
 49
-0.5
 62
   256
  6
BYLAYER
  0
ACDBPLACEHOLDER
  5
7
102
{ACAD_REACTORS
330
8
102
}
330
8
  0
ACAD_PROXY_OBJECT
  5
1D7
102
{ACAD_REACTORS
330
1D6
102
}
330
1D6
100
AcDbProxyObject
 90
      499
 91
      508
 95
   983063
 70
     0
 93
     1841
310
4214DD185B99185C9928B81E85EB51B8AE3F2E07A17AD46E2B8FC02B5E8DC0F42B1CFD028000000C1008070000C3001FDFF8000000C1003FBFF000000182007F7FE00000030400FEFFC00000060801FDFF8000000C1003FBFF00000018200000000000000681FA0B0000001820100E000186003FBFF000000182007F7FE000
310
00030400FEFFC00000060801FDFF8000000C1003FBFF000000182007F7FE000000304000AD7A3703D0AC73F4160000003040201C00030C007F7FE00000030400FEFFC00000060801FDFF8000000C1003FBFF000000182007F7FE00000030400FEFFC000000608000
340
16
340
16
340
16
 94
        0
  0
XRECORD
  5
208
102
{ACAD_REACTORS
330
207
102
}
330
207
100
AcDbXrecord
340
1D5
  0
XRECORD
  5
209
102
{ACAD_REACTORS
330
207
102
}
330
207
100
AcDbXrecord
340
1D4
  0
DICTIONARYVAR
  5
204
102
{ACAD_REACTORS
330
F5
102
}
330
F5
100
DictionaryVariables
280
     0
  1
STANDARD
  0
DICTIONARYVAR
  5
206
102
{ACAD_REACTORS
330
F5
102
}
330
F5
100
DictionaryVariables
280
     0
  1
0
  0
DICTIONARY
  5
20A
330
13
100
AcDbDictionary
280
     1
281
     1
  3
ACAD_XREC_ROUNDTRIP
360
20B
  0
DICTIONARY
  5
20C
330
C
100
AcDbDictionary
280
     1
281
     1
  3
ACAD_XREC_ROUNDTRIP
360
20D
  0
XRECORD
  5
20B
102
{ACAD_REACTORS
330
20A
102
}
330
20A
100
AcDbXrecord
102
SHADEPLOT
 70
     0
102
SHADEPLOTRESLEVEL
 70
     2
102
SHADEPLOTCUSTOMDPI
 70
   300
  0
XRECORD
  5
20D
102
{ACAD_REACTORS
330
20C
102
}
330
20C
100
AcDbXrecord
102
SHADEPLOT
 70
     0
102
SHADEPLOTRESLEVEL
 70
     2
102
SHADEPLOTCUSTOMDPI
 70
   300
  0
ENDSEC
  0
EOF
