  0
SECTION
  2
HEADER
  9
$ACADVER
  1
AC1015
  9
$ACADMAINTVER
 70
     6
  9
$DWGCODEPAGE
  3
ANSI_1252
  9
$INSBASE
 10
0.0
 20
0.0
 30
0.0
  9
$EXTMIN
 10
-6.31092536330231
 20
-0.0417308203021985
 30
0.0
  9
$EXTMAX
 10
6.311426999160105
 20
10.42804976197089
 30
0.0
  9
$LIMMIN
 10
0.0
 20
0.0
  9
$LIMMAX
 10
13.3328
 20
17.4993
  9
$ORTHOMODE
 70
     0
  9
$REGENMODE
 70
     0
  9
$FILLMODE
 70
     1
  9
$QTEXTMODE
 70
     0
  9
$MIRRTEXT
 70
     1
  9
$LTSCALE
 40
0.5
  9
$ATTMODE
 70
     1
  9
$TEXTSIZE
 40
0.149994
  9
$TRACEWID
 40
0.0416
  9
$TEXTSTYLE
  7
STANDARD
  9
$CLAYER
  8
0
  9
$CELTYPE
  6
ByLayer
  9
$CECOLOR
 62
   256
  9
$CELTSCALE
 40
1.0
  9
$DISPSILH
 70
     0
  9
$DIMSCALE
 40
1.0
  9
$DIMASZ
 40
0.208
  9
$DIMEXO
 40
0.125
  9
$DIMDLI
 40
0.38
  9
$DIMRND
 40
0.0
  9
$DIMDLE
 40
0.0
  9
$DIMEXE
 40
0.133
  9
$DIMTP
 40
0.0
  9
$DIMTM
 40
0.0
  9
$DIMTXT
 40
0.15
  9
$DIMCEN
 40
-0.1
  9
$DIMTSZ
 40
0.0
  9
$DIMTOL
 70
     0
  9
$DIMLIM
 70
     0
  9
$DIMTIH
 70
     1
  9
$DIMTOH
 70
     1
  9
$DIMSE1
 70
     0
  9
$DIMSE2
 70
     0
  9
$DIMTAD
 70
     0
  9
$DIMZIN
 70
     0
  9
$DIMBLK
  1

  9
$DIMASO
 70
     0
  9
$DIMSHO
 70
     0
  9
$DIMPOST
  1

  9
$DIMAPOST
  1

  9
$DIMALT
 70
     0
  9
$DIMALTD
 70
     2
  9
$DIMALTF
 40
25.4
  9
$DIMLFAC
 40
1.0
  9
$DIMTOFL
 70
     0
  9
$DIMTVP
 40
0.0
  9
$DIMTIX
 70
     0
  9
$DIMSOXD
 70
     0
  9
$DIMSAH
 70
     0
  9
$DIMBLK1
  1

  9
$DIMBLK2
  1

  9
$DIMSTYLE
  2
Standard
  9
$DIMCLRD
 70
     0
  9
$DIMCLRE
 70
     0
  9
$DIMCLRT
 70
     0
  9
$DIMTFAC
 40
1.0
  9
$DIMGAP
 40
0.09
  9
$DIMJUST
 70
     0
  9
$DIMSD1
 70
     0
  9
$DIMSD2
 70
     0
  9
$DIMTOLJ
 70
     1
  9
$DIMTZIN
 70
     0
  9
$DIMALTZ
 70
     0
  9
$DIMALTTZ
 70
     0
  9
$DIMUPT
 70
     0
  9
$DIMDEC
 70
     4
  9
$DIMTDEC
 70
     4
  9
$DIMALTU
 70
     2
  9
$DIMALTTD
 70
     2
  9
$DIMTXSTY
  7
STANDARD
  9
$DIMAUNIT
 70
     0
  9
$DIMADEC
 70
     0
  9
$DIMALTRND
 40
0.0
  9
$DIMAZIN
 70
     0
  9
$DIMDSEP
 70
    46
  9
$DIMATFIT
 70
     3
  9
$DIMFRAC
 70
     0
  9
$DIMLDRBLK
  1

  9
$DIMLUNIT
 70
     2
  9
$DIMLWD
 70
    -2
  9
$DIMLWE
 70
    -2
  9
$DIMTMOVE
 70
     2
  9
$LUNITS
 70
     2
  9
$LUPREC
 70
     4
  9
$SKETCHINC
 40
0.1
  9
$FILLETRAD
 40
0.0
  9
$AUNITS
 70
     0
  9
$AUPREC
 70
     0
  9
$MENU
  1
ACAD
  9
$ELEVATION
 40
0.0
  9
$PELEVATION
 40
0.0
  9
$THICKNESS
 40
0.0
  9
$LIMCHECK
 70
     0
  9
$CHAMFERA
 40
0.0
  9
$CHAMFERB
 40
0.0
  9
$CHAMFERC
 40
0.0
  9
$CHAMFERD
 40
0.0
  9
$SKPOLY
 70
     0
  9
$TDCREATE
 40
2449198.954292245
  9
$TDUCREATE
 40
2449199.287625579
  9
$TDUPDATE
 40
2454168.959273623
  9
$TDUUPDATE
 40
2454169.292606956
  9
$TDINDWG
 40
0.0146638079
  9
$TDUSRTIMER
 40
0.0146638079
  9
$USRTIMER
 70
     1
  9
$ANGBASE
 50
0.0
  9
$ANGDIR
 70
     0
  9
$PDMODE
 70
     0
  9
$PDSIZE
 40
0.0
  9
$PLINEWID
 40
0.0
  9
$SPLFRAME
 70
     0
  9
$SPLINETYPE
 70
     6
  9
$SPLINESEGS
 70
     8
  9
$HANDSEED
  5
248
  9
$SURFTAB1
 70
     6
  9
$SURFTAB2
 70
     6
  9
$SURFTYPE
 70
     6
  9
$SURFU
 70
     6
  9
$SURFV
 70
     6
  9
$UCSBASE
  2

  9
$UCSNAME
  2

  9
$UCSORG
 10
0.0
 20
0.0
 30
0.0
  9
$UCSXDIR
 10
1.0
 20
0.0
 30
0.0
  9
$UCSYDIR
 10
0.0
 20
1.0
 30
0.0
  9
$UCSORTHOREF
  2

  9
$UCSORTHOVIEW
 70
     0
  9
$UCSORGTOP
 10
0.0
 20
0.0
 30
0.0
  9
$UCSORGBOTTOM
 10
0.0
 20
0.0
 30
0.0
  9
$UCSORGLEFT
 10
0.0
 20
0.0
 30
0.0
  9
$UCSORGRIGHT
 10
0.0
 20
0.0
 30
0.0
  9
$UCSORGFRONT
 10
0.0
 20
0.0
 30
0.0
  9
$UCSORGBACK
 10
0.0
 20
0.0
 30
0.0
  9
$PUCSBASE
  2

  9
$PUCSNAME
  2

  9
$PUCSORG
 10
0.0
 20
0.0
 30
0.0
  9
$PUCSXDIR
 10
1.0
 20
0.0
 30
0.0
  9
$PUCSYDIR
 10
0.0
 20
1.0
 30
0.0
  9
$PUCSORTHOREF
  2

  9
$PUCSORTHOVIEW
 70
     0
  9
$PUCSORGTOP
 10
0.0
 20
0.0
 30
0.0
  9
$PUCSORGBOTTOM
 10
0.0
 20
0.0
 30
0.0
  9
$PUCSORGLEFT
 10
0.0
 20
0.0
 30
0.0
  9
$PUCSORGRIGHT
 10
0.0
 20
0.0
 30
0.0
  9
$PUCSORGFRONT
 10
0.0
 20
0.0
 30
0.0
  9
$PUCSORGBACK
 10
0.0
 20
0.0
 30
0.0
  9
$USERI1
 70
     0
  9
$USERI2
 70
     0
  9
$USERI3
 70
     0
  9
$USERI4
 70
     0
  9
$USERI5
 70
     0
  9
$USERR1
 40
0.0
  9
$USERR2
 40
0.0
  9
$USERR3
 40
0.0
  9
$USERR4
 40
0.0
  9
$USERR5
 40
0.0
  9
$WORLDVIEW
 70
     1
  9
$SHADEDGE
 70
     3
  9
$SHADEDIF
 70
    70
  9
$TILEMODE
 70
     1
  9
$MAXACTVP
 70
    16
  9
$PINSBASE
 10
0.0
 20
0.0
 30
0.0
  9
$PLIMCHECK
 70
     0
  9
$PEXTMIN
 10
1.000000000000000E+20
 20
1.000000000000000E+20
 30
1.000000000000000E+20
  9
$PEXTMAX
 10
-1.000000000000000E+20
 20
-1.000000000000000E+20
 30
-1.000000000000000E+20
  9
$PLIMMIN
 10
0.0
 20
0.0
  9
$PLIMMAX
 10
12.0
 20
9.0
  9
$UNITMODE
 70
     0
  9
$VISRETAIN
 70
     0
  9
$PLINEGEN
 70
     0
  9
$PSLTSCALE
 70
     0
  9
$TREEDEPTH
 70
  3020
  9
$CMLSTYLE
  2
Standard
  9
$CMLJUST
 70
     0
  9
$CMLSCALE
 40
1.0
  9
$PROXYGRAPHICS
 70
     1
  9
$MEASUREMENT
 70
     0
  9
$CELWEIGHT
370
    -1
  9
$ENDCAPS
280
     0
  9
$JOINSTYLE
280
     0
  9
$LWDISPLAY
290
     0
  9
$INSUNITS
 70
     0
  9
$HYPERLINKBASE
  1

  9
$STYLESHEET
  1

  9
$XEDIT
290
     1
  9
$CEPSNTYPE
380
     0
  9
$PSTYLEMODE
290
     1
  9
$FINGERPRINTGUID
  2
{2EDFDD95-AB31-490C-B620-227B0A6829DD}
  9
$VERSIONGUID
  2
{08FC097B-B68A-41F8-AE9B-8DDB166DAB62}
  9
$EXTNAMES
290
     1
  9
$PSVPSCALE
 40
0.0
  9
$OLESTARTUP
290
     0
  0
ENDSEC
  0
SECTION
  2
CLASSES
  0
CLASS
  1
ACDBDICTIONARYWDFLT
  2
AcDbDictionaryWithDefault
  3
AutoCAD 2000
 90
        0
280
     0
281
     0
  0
CLASS
  1
ACDBPLACEHOLDER
  2
AcDbPlaceHolder
  3
ObjectDBX Classes
 90
        0
280
     0
281
     0
  0
CLASS
  1
LAYOUT
  2
AcDbLayout
  3
ObjectDBX Classes
 90
        0
280
     0
281
     0
  0
CLASS
  1
LONG_TRANSACTION
  2
AcDbLongTransaction
  3
ObjectDBX Classes
 90
   -65536
280
     1
281
     0
  0
CLASS
  1
LWPOLYLINE
  2
AcDbPolyline
  3
AutoCAD 2000
 90
        0
280
     0
281
     1
  0
CLASS
  1
HATCH
  2
AcDbHatch
  3
AutoCAD 2000
 90
        0
280
     0
281
     1
  0
CLASS
  1
XRECORD
  2
AcDbXrecord
  3
AutoCAD 2000
 90
        0
280
     0
281
     0
  0
CLASS
  1
LONG_TRANSACTION
  2
AcDbLongTransaction
  3
ObjectDBX Classes
 90
   -65536
280
     1
281
     0
  0
CLASS
  1
LWPOLYLINE
  2
AcDbPolyline
  3
AutoCAD 2000
 90
        0
280
     0
281
     1
  0
CLASS
  1
HATCH
  2
AcDbHatch
  3
AutoCAD 2000
 90
        0
280
     0
281
     1
  0
CLASS
  1
XRECORD
  2
AcDbXrecord
  3
AutoCAD 2000
 90
        0
280
     0
281
     0
  0
CLASS
  1
DICTIONARYVAR
  2
AcDbDictionaryVar
  3
AutoCAD 2000
 90
        0
280
     0
281
     0
  0
CLASS
  1
TABLESTYLE
  2
AcDbTableStyle
  3
ObjectDBX Classes
 90
     2047
280
     1
281
     0
  0
ENDSEC
  0
SECTION
  2
TABLES
  0
TABLE
  2
VPORT
  5
1D
330
0
100
AcDbSymbolTable
 70
     2
  0
VPORT
  5
23A
330
1D
100
AcDbSymbolTableRecord
100
AcDbViewportTableRecord
  2
*Active
 70
     0
 10
0.0
 20
0.0
 11
1.0
 21
1.0
 12
3.695395598375839
 22
6.518504734777796
 13
0.0
 23
0.0
 14
0.03125
 24
0.03125
 15
0.25
 25
0.25
 16
0.0
 26
0.0
 36
1.0
 17
0.0
 27
0.0
 37
0.0
 40
18.08888031154732
 41
1.814583333333333
 42
50.0
 43
0.0
 44
0.0
 50
0.0
 51
0.0
 71
     0
 72
   100
 73
     1
 74
     1
 75
     0
 76
     0
 77
     0
 78
     1
281
     0
 65
     1
110
0.0
120
0.0
130
0.0
111
1.0
121
0.0
131
0.0
112
0.0
122
1.0
132
0.0
 79
     0
146
0.0
  0
ENDTAB
  0
TABLE
  2
LTYPE
  5
18
330
0
100
AcDbSymbolTable
 70
     2
  0
LTYPE
  5
19
330
18
100
AcDbSymbolTableRecord
100
AcDbLinetypeTableRecord
  2
ByBlock
 70
     0
  3

 72
    65
 73
     0
 40
0.0
  0
LTYPE
  5
1A
330
18
100
AcDbSymbolTableRecord
100
AcDbLinetypeTableRecord
  2
ByLayer
 70
     0
  3

 72
    65
 73
     0
 40
0.0
  0
LTYPE
  5
A
330
18
100
AcDbSymbolTableRecord
100
AcDbLinetypeTableRecord
  2
CONTINUOUS
 70
     0
  3
Solid line
 72
    65
 73
     0
 40
0.0
  0
LTYPE
  5
81
330
18
100
AcDbSymbolTableRecord
100
AcDbLinetypeTableRecord
  2
DASHED
 70
     0
  3
__ __ __ __ __ __ __ __ __ __ __ __ __ __ __
 72
    65
 73
     2
 40
0.75
 49
0.5
 74
     0
 49
-0.25
 74
     0
  0
ENDTAB
  0
TABLE
  2
LAYER
  5
14
330
0
100
AcDbSymbolTable
 70
     1
  0
LAYER
  5
6
330
14
100
AcDbSymbolTableRecord
100
AcDbLayerTableRecord
  2
0
 70
     0
 62
     7
  6
CONTINUOUS
370
    -3
390
7
  0
ENDTAB
  0
TABLE
  2
STYLE
  5
15
330
0
100
AcDbSymbolTable
 70
     1
  0
STYLE
  5
16
330
15
100
AcDbSymbolTableRecord
100
AcDbTextStyleTableRecord
  2
STANDARD
 70
     0
 40
0.0
 41
1.0
 50
0.0
 71
     0
 42
0.149994
  3
TXT
  4

  0
ENDTAB
  0
TABLE
  2
VIEW
  5
1B
330
0
100
AcDbSymbolTable
 70
     0
  0
ENDTAB
  0
TABLE
  2
UCS
  5
1C
330
0
100
AcDbSymbolTable
 70
     0
  0
ENDTAB
  0
TABLE
  2
APPID
  5
1F
330
0
100
AcDbSymbolTable
 70
     1
  0
APPID
  5
20
330
1F
100
AcDbSymbolTableRecord
100
AcDbRegAppTableRecord
  2
ACAD
 70
     0
  0
ENDTAB
  0
TABLE
  2
DIMSTYLE
  5
21
330
0
100
AcDbSymbolTable
 70
     1
100
AcDbDimStyleTable
  0
DIMSTYLE
105
28
330
21
100
AcDbSymbolTableRecord
100
AcDbDimStyleTableRecord
  2
Standard
 70
     0
  3

  4

340
16
  0
ENDTAB
  0
TABLE
  2
BLOCK_RECORD
  5
1
330
0
100
AcDbSymbolTable
 70
     0
  0
BLOCK_RECORD
  5
2
330
1
100
AcDbSymbolTableRecord
100
AcDbBlockTableRecord
  2
*Model_Space
340
C
  0
BLOCK_RECORD
  5
E
330
1
100
AcDbSymbolTableRecord
100
AcDbBlockTableRecord
  2
*Paper_Space
340
13
  0
ENDTAB
  0
ENDSEC
  0
SECTION
  2
BLOCKS
  0
BLOCK
  5
5
330
2
100
AcDbEntity
  8
0
100
AcDbBlockBegin
  2
*Model_Space
 70
     0
 10
0.0
 20
0.0
 30
0.0
  3
*Model_Space
  1

  4

  0
ENDBLK
  5
B
330
2
100
AcDbEntity
  8
0
100
AcDbBlockEnd
  0
BLOCK
  5
11
330
E
100
AcDbEntity
 67
     1
  8
0
100
AcDbBlockBegin
  2
*Paper_Space
 70
     0
 10
0.0
 20
0.0
 30
0.0
  3
*Paper_Space
  1

  4

  0
ENDBLK
  5
12
330
E
100
AcDbEntity
 67
     1
  8
0
100
AcDbBlockEnd
  0
ENDSEC
  0
SECTION
  2
ENTITIES
  0
LINE
  5
114
330
2
100
AcDbEntity
  8
0
100
AcDbLine
 10
0.78125
 20
8.557441948228501
 30
0.0
 11
0.78125
 21
9.859263948228502
 31
0.0
  0
LINE
  5
115
330
2
100
AcDbEntity
  8
0
100
AcDbLine
 10
0.84375
 20
8.557441948228501
 30
0.0
 11
0.84375
 21
9.903196948228501
 31
0.0
  0
LINE
  5
116
330
2
100
AcDbEntity
  8
0
100
AcDbLine
 10
-0.78125
 20
8.557441948228501
 30
0.0
 11
-0.78125
 21
9.858907948228502
 31
0.0
  0
LINE
  5
117
330
2
100
AcDbEntity
  8
0
100
AcDbLine
 10
-0.84375
 20
8.557441948228501
 30
0.0
 11
-0.84375
 21
9.903196948228501
 31
0.0
  0
LINE
  5
119
330
2
100
AcDbEntity
  8
0
100
AcDbLine
 10
-0.90625
 20
10.4031969482285
 30
0.0
 11
-1.71875
 21
10.4031969482285
 31
0.0
  0
LINE
  5
11A
330
2
100
AcDbEntity
  8
0
100
AcDbLine
 10
-1.71875
 20
10.3406969482285
 30
0.0
 11
-0.90625
 21
10.3406969482285
 31
0.0
  0
LINE
  5
11B
330
2
100
AcDbEntity
  8
0
100
AcDbLine
 10
-1.71875
 20
10.4031969482285
 30
0.0
 11
-1.71875
 21
10.3406969482285
 31
0.0
  0
LINE
  5
11D
330
2
100
AcDbEntity
  8
0
100
AcDbLine
 10
-0.84375
 20
10.2806969482285
 30
0.0
 11
-0.84375
 21
9.903196948228501
 31
0.0
  0
LINE
  5
11E
330
2
100
AcDbEntity
  8
0
100
AcDbLine
 10
-0.78125
 20
9.858907948228502
 30
0.0
 11
-0.78125
 21
10.2831969482285
 31
0.0
  0
ARC
  5
11F
330
2
100
AcDbEntity
  8
0
100
AcDbCircle
 10
-0.9037499999999996
 20
10.2806969482285
 30
0.0
 40
0.06
100
AcDbArc
 50
0.0
 51
90.00000000000003
  0
ARC
  5
120
330
2
100
AcDbEntity
  8
0
100
AcDbCircle
 10
-0.9012500000000001
 20
10.2831969482285
 30
0.0
 40
0.12
100
AcDbArc
 50
0.0
 51
90.00000000000003
  0
ARC
  5
121
330
2
100
AcDbEntity
  8
0
100
AcDbCircle
 10
-0.7797390000000002
 20
9.949887948228501
 30
0.0
 40
0.090997
100
AcDbArc
 50
271.106445
 51
329.128966
  0
LINE
  5
123
330
2
100
AcDbEntity
  8
0
100
AcDbLine
 10
1.71875
 20
10.3406969482285
 30
0.0
 11
0.90625
 21
10.3406969482285
 31
0.0
  0
LINE
  5
124
330
2
100
AcDbEntity
  8
0
100
AcDbLine
 10
0.90625
 20
10.4031969482285
 30
0.0
 11
1.71875
 21
10.4031969482285
 31
0.0
  0
LINE
  5
125
330
2
100
AcDbEntity
  8
0
100
AcDbLine
 10
0.7020920000000004
 20
9.902696948228503
 30
0.0
 11
-0.7016340529440972
 21
9.903196715064292
 31
0.0
  0
LINE
  5
126
330
2
100
AcDbEntity
  8
0
100
AcDbLine
 10
0.84375
 20
10.2806969482285
 30
0.0
 11
0.84375
 21
9.903196948228501
 31
0.0
  0
LINE
  5
127
330
2
100
AcDbEntity
  8
0
100
AcDbLine
 10
0.78125
 20
9.859263948228502
 30
0.0
 11
0.78125
 21
10.2831969482285
 31
0.0
  0
ARC
  5
128
330
2
100
AcDbEntity
  8
0
100
AcDbCircle
 10
0.9012500000000001
 20
10.2831969482285
 30
0.0
 40
0.12
100
AcDbArc
 50
90.00000000000003
 51
180.0
  0
ARC
  5
129
330
2
100
AcDbEntity
  8
0
100
AcDbCircle
 10
0.9037500000000005
 20
10.2806969482285
 30
0.0
 40
0.06
100
AcDbArc
 50
90.00000000000003
 51
180.0
  0
ARC
  5
12A
330
2
100
AcDbEntity
  8
0
100
AcDbCircle
 10
0.7805949999999999
 20
9.9514009482285
 30
0.0
 40
0.092384
100
AcDbArc
 50
211.815754
 51
265.813835
  0
LINE
  5
12D
330
2
100
AcDbEntity
  8
0
100
AcDbLine
 10
1.71875
 20
10.4031969482285
 30
0.0
 11
1.71875
 21
10.3406969482285
 31
0.0
  0
ARC
  5
12F
330
2
100
AcDbEntity
  8
0
100
AcDbCircle
 10
-0.7711810000000003
 20
8.448385948228502
 30
0.0
 40
0.09205
100
AcDbArc
 50
330.599245
 51
60.50036399999998
  0
LINE
  5
130
330
2
100
AcDbEntity
  8
0
100
AcDbLine
 10
-0.725854
 20
8.528501948228502
 30
0.0
 11
-0.7778749999999999
 21
8.557933948228502
 31
0.0
  0
LINE
  5
131
330
2
100
AcDbEntity
  8
0
100
AcDbLine
 10
-0.7778070000000001
 20
8.557441948228501
 30
0.0
 11
-0.84375
 21
8.557441948228501
 31
0.0
  0
LINE
  5
132
330
2
100
AcDbEntity
  8
0
100
AcDbLine
 10
-0.6909863641422051
 20
8.403197200960674
 30
0.0
 11
0.6914879999999997
 21
8.403196948228501
 31
0.0
  0
ARC
  5
133
330
2
100
AcDbEntity
  8
0
100
AcDbCircle
 10
0.7716830000000003
 20
8.448385948228502
 30
0.0
 40
0.09205
100
AcDbArc
 50
119.499636
 51
209.400755
  0
LINE
  5
134
330
2
100
AcDbEntity
  8
0
100
AcDbLine
 10
0.778308
 20
8.557441948228501
 30
0.0
 11
0.84375
 21
8.557441948228501
 31
0.0
  0
LINE
  5
135
330
2
100
AcDbEntity
  8
0
100
AcDbLine
 10
0.7263559999999991
 20
8.528501948228502
 30
0.0
 11
0.7783769999999999
 21
8.557933948228502
 31
0.0
  0
CIRCLE
  5
138
330
2
100
AcDbEntity
  8
0
100
AcDbCircle
 10
-1.46875
 20
4.5
 30
0.0
 40
0.078
  0
LINE
  5
139
330
2
100
AcDbEntity
  8
0
100
AcDbLine
 10
-1.71875
 20
4.838571
 30
0.0
 11
-1.71875
 21
4.223929
 31
0.0
  0
LINE
  5
13A
330
2
100
AcDbEntity
  8
0
100
AcDbLine
 10
-0.84375
 20
0.1250000000000004
 30
0.0
 11
-0.84375
 21
6.4375
 31
0.0
  0
LINE
  5
13B
330
2
100
AcDbEntity
  8
0
100
AcDbLine
 10
-0.78125
 20
6.4375
 30
0.0
 11
-0.78125
 21
0.1225000000000009
 31
0.0
  0
LINE
  5
13C
330
2
100
AcDbEntity
  8
0
100
AcDbLine
 10
-1.485983
 20
1.938698000000001
 30
0.0
 11
-0.84375
 21
0.8263190000000003
 31
0.0
  0
ARC
  5
13D
330
2
100
AcDbEntity
  8
0
100
AcDbCircle
 10
-0.7237499999999999
 20
0.1199999999999996
 30
0.0
 40
0.12
100
AcDbArc
 50
180.0
 51
270.0
  0
ARC
  5
13E
330
2
100
AcDbEntity
  8
0
100
AcDbCircle
 10
-0.72125
 20
0.1225000000000009
 30
0.0
 40
0.06
100
AcDbArc
 50
180.0
 51
270.0
  0
ARC
  5
13F
330
2
100
AcDbEntity
  8
0
100
AcDbCircle
 10
-1.406269
 20
3.102382000000001
 30
0.0
 40
0.3125
100
AcDbArc
 50
180.0
 51
246.037511
  0
ARC
  5
140
330
2
100
AcDbEntity
  8
0
100
AcDbCircle
 10
-1.406269
 20
3.085118
 30
0.0
 40
0.3125
100
AcDbArc
 50
113.962489
 51
180.0
  0
ARC
  5
141
330
2
100
AcDbEntity
  8
0
100
AcDbCircle
 10
-1.406269
 20
4.227382
 30
0.0
 40
0.3125
100
AcDbArc
 50
180.0
 51
246.037511
  0
ARC
  5
142
330
2
100
AcDbEntity
  8
0
100
AcDbCircle
 10
-0.84375
 20
3.1565
 30
0.0
 40
0.156
100
AcDbArc
 50
90.0
 51
270.0
  0
CIRCLE
  5
143
330
2
100
AcDbEntity
  8
0
100
AcDbCircle
 10
-1.46875
 20
3.094000000000002
 30
0.0
 40
0.078
  0
ARC
  5
144
330
2
100
AcDbEntity
  8
0
100
AcDbCircle
 10
-1.660106
 20
2.53125
 30
0.0
 40
0.3125
100
AcDbArc
 50
315.499871
 51
0.0
  0
ARC
  5
145
330
2
100
AcDbEntity
  8
0
100
AcDbCircle
 10
-1.21875
 20
2.09375
 30
0.0
 40
0.308957
100
AcDbArc
 50
135.0
 51
210.122842
  0
CIRCLE
  5
146
330
2
100
AcDbEntity
  8
0
100
AcDbCircle
 10
-1.21875
 20
2.0315
 30
0.0
 40
0.078
  0
ARC
  5
147
330
2
100
AcDbEntity
  8
0
100
AcDbCircle
 10
-1.660106
 20
2.53125
 30
0.0
 40
0.3125
100
AcDbArc
 50
0.0
 51
66.037511
  0
ARC
  5
148
330
2
100
AcDbEntity
  8
0
100
AcDbCircle
 10
-1.660106
 20
3.65625
 30
0.0
 40
0.3125
100
AcDbArc
 50
0.0
 51
66.037511
  0
ARC
  5
149
330
2
100
AcDbEntity
  8
0
100
AcDbCircle
 10
-1.660106
 20
3.65625
 30
0.0
 40
0.3125
100
AcDbArc
 50
293.962489
 51
0.0
  0
ARC
  5
14A
330
2
100
AcDbEntity
  8
0
100
AcDbCircle
 10
-1.406269
 20
4.835118
 30
0.0
 40
0.3125
100
AcDbArc
 50
113.962489
 51
180.0
  0
ARC
  5
14B
330
2
100
AcDbEntity
  8
0
100
AcDbCircle
 10
-1.406269
 20
5.977382
 30
0.0
 40
0.3125
100
AcDbArc
 50
180.0
 51
246.037511
  0
LINE
  5
14C
330
2
100
AcDbEntity
  8
0
100
AcDbLine
 10
-0.78125
 20
6.4375
 30
0.0
 11
-1.71875
 21
6.4375
 31
0.0
  0
LINE
  5
14D
330
2
100
AcDbEntity
  8
0
100
AcDbLine
 10
-1.71875
 20
6.4375
 30
0.0
 11
-1.71875
 21
5.973929
 31
0.0
  0
ARC
  5
14F
330
2
100
AcDbEntity
  8
0
100
AcDbCircle
 10
-1.660106
 20
5.40625
 30
0.0
 40
0.3125
100
AcDbArc
 50
293.962489
 51
0.0
  0
ARC
  5
150
330
2
100
AcDbEntity
  8
0
100
AcDbCircle
 10
-1.660106
 20
5.40625
 30
0.0
 40
0.3125
100
AcDbArc
 50
0.0
 51
66.037511
  0
CIRCLE
  5
151
330
2
100
AcDbEntity
  8
0
100
AcDbCircle
 10
-1.46875
 20
6.125
 30
0.0
 40
0.078
  0
CIRCLE
  5
152
330
2
100
AcDbEntity
  8
0
100
AcDbCircle
 10
1.46875
 20
4.5
 30
0.0
 40
0.078
  0
LINE
  5
153
330
2
100
AcDbEntity
  8
0
100
AcDbLine
 10
0.78125
 20
6.4375
 30
0.0
 11
0.78125
 21
0.1225000000000009
 31
0.0
  0
LINE
  5
154
330
2
100
AcDbEntity
  8
0
100
AcDbLine
 10
0.84375
 20
0.1199999999999996
 30
0.0
 11
0.84375
 21
6.4375
 31
0.0
  0
LINE
  5
155
330
2
100
AcDbEntity
  8
0
100
AcDbLine
 10
1.71875
 20
5.026071
 30
0.0
 11
1.71875
 21
4.411429
 31
0.0
  0
ARC
  5
156
330
2
100
AcDbEntity
  8
0
100
AcDbCircle
 10
1.271502
 20
2.174502000000001
 30
0.0
 40
0.331025
100
AcDbArc
 50
326.232438
 51
53.13010200000002
  0
LINE
  5
157
330
2
100
AcDbEntity
  8
0
100
AcDbLine
 10
1.546682
 20
1.990510000000001
 30
0.0
 11
0.84375
 21
0.7830870000000005
 31
0.0
  0
CIRCLE
  5
158
330
2
100
AcDbEntity
  8
0
100
AcDbCircle
 10
1.46875
 20
3.282000000000001
 30
0.0
 40
0.078
  0
ARC
  5
159
330
2
100
AcDbEntity
  8
0
100
AcDbCircle
 10
1.660106
 20
3.84375
 30
0.0
 40
0.3125
100
AcDbArc
 50
113.962489
 51
180.0
  0
ARC
  5
15A
330
2
100
AcDbEntity
  8
0
100
AcDbCircle
 10
1.660106
 20
3.84375
 30
0.0
 40
0.3125
100
AcDbArc
 50
180.0
 51
246.037511
  0
ARC
  5
15B
330
2
100
AcDbEntity
  8
0
100
AcDbCircle
 10
1.660106
 20
2.71875
 30
0.0
 40
0.3125
100
AcDbArc
 50
113.962489
 51
180.0
  0
LINE
  5
15C
330
2
100
AcDbEntity
  8
0
100
AcDbLine
 10
0.7212499999999995
 20
0.0625000000000004
 30
0.0
 11
-0.72125
 21
0.0625000000000009
 31
0.0
  0
LINE
  5
15D
330
2
100
AcDbEntity
  8
0
100
AcDbLine
 10
-0.7237499999999999
 20
-0.0000000000000004
 30
0.0
 11
0.7237499999999999
 21
0.0000000000000004
 31
0.0
  0
LINE
  5
15E
330
2
100
AcDbEntity
  8
0
100
AcDbLine
 10
0.291002886408108
 20
0.0625000000000004
 30
0.0
 11
0.283002886408108
 21
0.0625000000000004
 31
0.0
  0
LINE
  5
15F
330
2
100
AcDbEntity
  8
0
100
AcDbLine
 10
0.28125
 20
0.0625000000000004
 30
0.0
 11
0.28925
 21
0.0625000000000004
 31
0.0
  0
ARC
  5
160
330
2
100
AcDbEntity
  8
0
100
AcDbCircle
 10
0.7237499999999999
 20
0.1199999999999996
 30
0.0
 40
0.12
100
AcDbArc
 50
270.0
 51
0.0
  0
ARC
  5
161
330
2
100
AcDbEntity
  8
0
100
AcDbCircle
 10
0.7212499999999995
 20
0.1225000000000009
 30
0.0
 40
0.06
100
AcDbArc
 50
270.0
 51
0.0
  0
ARC
  5
162
330
2
100
AcDbEntity
  8
0
100
AcDbCircle
 10
0.84375
 20
3.1565
 30
0.0
 40
0.156
100
AcDbArc
 50
270.0
 51
90.0
  0
CIRCLE
  5
163
330
2
100
AcDbEntity
  8
0
100
AcDbCircle
 10
1.348449
 20
2.180081
 30
0.0
 40
0.078
  0
ARC
  5
164
330
2
100
AcDbEntity
  8
0
100
AcDbCircle
 10
1.65625
 20
2.6875
 30
0.0
 40
0.310222
100
AcDbArc
 50
174.21855
 51
233.130102
  0
ARC
  5
165
330
2
100
AcDbEntity
  8
0
100
AcDbCircle
 10
1.406269
 20
3.289882000000001
 30
0.0
 40
0.3125
100
AcDbArc
 50
293.962489
 51
0.0
  0
ARC
  5
166
330
2
100
AcDbEntity
  8
0
100
AcDbCircle
 10
1.406269
 20
3.272618
 30
0.0
 40
0.3125
100
AcDbArc
 50
0.0
 51
66.037511
  0
ARC
  5
167
330
2
100
AcDbEntity
  8
0
100
AcDbCircle
 10
1.406269
 20
4.414882
 30
0.0
 40
0.3125
100
AcDbArc
 50
293.962489
 51
0.0
  0
CIRCLE
  5
168
330
2
100
AcDbEntity
  8
0
100
AcDbCircle
 10
1.46875
 20
6.125
 30
0.0
 40
0.078
  0
LINE
  5
169
330
2
100
AcDbEntity
  8
0
100
AcDbLine
 10
0.78125
 20
6.4375
 30
0.0
 11
1.71875
 21
6.4375
 31
0.0
  0
ARC
  5
16A
330
2
100
AcDbEntity
  8
0
100
AcDbCircle
 10
1.660106
 20
5.59375
 30
0.0
 40
0.3125
100
AcDbArc
 50
113.962489
 51
180.0
  0
ARC
  5
16B
330
2
100
AcDbEntity
  8
0
100
AcDbCircle
 10
1.660106
 20
5.59375
 30
0.0
 40
0.3125
100
AcDbArc
 50
180.0
 51
246.037511
  0
ARC
  5
16D
330
2
100
AcDbEntity
  8
0
100
AcDbCircle
 10
1.406269
 20
5.022618
 30
0.0
 40
0.3125
100
AcDbArc
 50
0.0
 51
66.037511
  0
ARC
  5
16E
330
2
100
AcDbEntity
  8
0
100
AcDbCircle
 10
1.406269
 20
6.164882
 30
0.0
 40
0.3125
100
AcDbArc
 50
293.962489
 51
0.0
  0
LINE
  5
16F
330
2
100
AcDbEntity
  8
0
100
AcDbLine
 10
1.71875
 20
6.4375
 30
0.0
 11
1.71875
 21
6.161429
 31
0.0
  0
LINE
  5
170
330
2
100
AcDbEntity
  8
0
100
AcDbLine
 10
5.625214999160106
 20
4.757124991815759
 30
0.0
 11
5.625214999160106
 21
4.3553251796978
 31
0.0
  0
LINE
  5
171
330
2
100
AcDbEntity
  8
0
100
AcDbLine
 10
6.311426999160105
 20
6.364519179697801
 30
0.0
 11
6.311426999160105
 21
1.043044179697802
 31
0.0
  0
LINE
  5
172
330
2
100
AcDbEntity
  8
0
100
AcDbLine
 10
6.248926999160105
 20
6.364519179697801
 30
0.0
 11
6.248926999160105
 21
0.9347911796978008
 31
0.0
  0
ARC
  5
174
330
2
100
AcDbEntity
  8
0
100
AcDbCircle
 10
5.311445999160105
 20
4.154901179697804
 30
0.0
 40
0.3125
100
AcDbArc
 50
293.95093712789
 51
0.0
  0
ARC
  5
175
330
2
100
AcDbEntity
  8
0
100
AcDbCircle
 10
5.311445999160105
 20
3.029901179697804
 30
0.0
 40
0.3125
100
AcDbArc
 50
293.95093712789
 51
0.0
  0
LINE
  5
176
330
2
100
AcDbEntity
  8
0
  6
DASHED
100
AcDbLine
 10
4.452856424045489
 20
0.0207691796978015
 30
0.0
 11
5.730853153058263
 21
0.0207691796978015
 31
0.0
  0
LINE
  5
177
330
2
100
AcDbEntity
  8
0
100
AcDbLine
 10
5.811426999160105
 20
-0.0417308203021985
 30
0.0
 11
4.311426999160105
 21
-0.0417308203021985
 31
0.0
  0
LINE
  5
178
330
2
100
AcDbEntity
  8
0
100
AcDbLine
 10
5.427895999160107
 20
1.965979179697801
 30
0.0
 11
5.196601106820385
 21
1.49005216999715
 31
0.0
  0
LINE
  5
179
330
2
100
AcDbEntity
  8
0
100
AcDbLine
 10
5.196601106820387
 20
1.490052169997157
 30
0.0
 11
4.431584999160105
 21
0.1649971796978015
 31
0.0
  0
LINE
  5
17A
330
2
100
AcDbEntity
  8
0
100
AcDbLine
 10
4.311426999160105
 20
0.0207691796978015
 30
0.0
 11
4.452856424045525
 21
0.0207691796978015
 31
0.0
  0
LINE
  5
17B
330
2
100
AcDbEntity
  8
0
100
AcDbLine
 10
4.311426999160105
 20
0.0207691796978015
 30
0.0
 11
4.311426999160105
 21
-0.0417308203021985
 31
0.0
  0
LINE
  5
17C
330
2
100
AcDbEntity
  8
0
100
AcDbLine
 10
4.436426999160105
 20
-0.0417308203021985
 30
0.0
 11
4.436426999160105
 21
0.0207691796978015
 31
0.0
  0
ARC
  5
17D
330
2
100
AcDbEntity
  8
0
100
AcDbCircle
 10
4.385084999160105
 20
0.0844561796978013
 30
0.0
 40
0.093
100
AcDbArc
 50
316.7796124333295
 51
59.99999999999994
  0
LINE
  5
17E
330
2
100
AcDbEntity
  8
0
100
AcDbLine
 10
4.431584999160105
 20
0.1649971796978015
 30
0.0
 11
4.430934999160105
 21
0.1653721796978016
 31
0.0
  0
LINE
  5
17F
330
2
100
AcDbEntity
  8
0
100
AcDbLine
 10
5.616371768875348
 20
3.081022302082472
 30
0.0
 11
5.604368960627546
 21
3.121505855840868
 31
0.0
  0
CIRCLE
  5
181
330
2
100
AcDbEntity
  8
0
100
AcDbCircle
 10
5.502782999160104
 20
2.458769179697802
 30
0.0
 40
0.078
  0
ARC
  5
182
330
2
100
AcDbEntity
  8
0
100
AcDbCircle
 10
5.565282999160104
 20
2.458769179697804
 30
0.0
 40
0.3125
100
AcDbArc
 50
180.0
 51
224.500129
  0
ARC
  5
183
330
2
100
AcDbEntity
  8
0
100
AcDbCircle
 10
5.123926999160105
 20
2.021269179697802
 30
0.0
 40
0.308957
100
AcDbArc
 50
349.690938
 51
45.0
  0
ARC
  5
185
330
2
100
AcDbEntity
  8
0
100
AcDbCircle
 10
5.565282999160104
 20
2.458769179697804
 30
0.0
 40
0.3125
100
AcDbArc
 50
113.9741339013483
 51
180.0
  0
ARC
  5
188
330
2
100
AcDbEntity
  8
0
100
AcDbCircle
 10
5.311445999160105
 20
3.029901179697804
 30
0.0
 40
0.3125
100
AcDbArc
 50
293.962489
 51
295.038755
  0
ARC
  5
18B
330
2
100
AcDbEntity
  8
0
100
AcDbCircle
 10
5.311445999160105
 20
3.012637179697802
 30
0.0
 40
0.3125
100
AcDbArc
 50
0.0
 51
12.64046300000001
  0
ARC
  5
18E
330
2
100
AcDbEntity
  8
0
100
AcDbCircle
 10
5.565282999160104
 20
3.583769179697804
 30
0.0
 40
0.3125
100
AcDbArc
 50
113.9741339013483
 51
154.146326
  0
ARC
  5
18F
330
2
100
AcDbEntity
  8
0
100
AcDbCircle
 10
5.565282999160104
 20
3.583769179697804
 30
0.0
 40
0.3125
100
AcDbArc
 50
180.0
 51
246.037511
  0
ARC
  5
190
330
2
100
AcDbEntity
  8
0
100
AcDbCircle
 10
5.565282999160104
 20
3.583769179697804
 30
0.0
 40
0.3125
100
AcDbArc
 50
162.59044
 51
180.0
  0
LINE
  5
191
330
2
100
AcDbEntity
  8
0
100
AcDbLine
 10
5.267098493148342
 20
3.677269181700587
 30
0.0
 11
5.284060918805835
 21
3.720042403484487
 31
0.0
  0
ARC
  5
192
330
2
100
AcDbEntity
  8
0
100
AcDbCircle
 10
5.311445999160105
 20
3.012637179697802
 30
0.0
 40
0.3125
100
AcDbArc
 50
19.48411099999998
 51
66.03751100000001
  0
CIRCLE
  5
193
330
2
100
AcDbEntity
  8
0
100
AcDbCircle
 10
5.502782999160104
 20
3.583769179697804
 30
0.0
 40
0.078
  0
LINE
  5
197
330
2
100
AcDbEntity
  8
0
100
AcDbLine
 10
5.623926999160105
 20
4.211706179697801
 30
0.0
 11
5.623926999160105
 21
4.1514481796978
 31
0.0
  0
LINE
  5
198
330
2
100
AcDbEntity
  8
0
100
AcDbLine
 10
5.623926999160105
 20
4.211706179697801
 30
0.0
 11
5.625214999160106
 21
4.3553251796978
 31
0.0
  0
LINE
  5
199
330
2
100
AcDbEntity
  8
0
100
AcDbLine
 10
6.311426999160105
 20
1.043044179697802
 30
0.0
 11
5.902027999160104
 21
0.1489651796978006
 31
0.0
  0
LINE
  5
19A
330
2
100
AcDbEntity
  8
0
100
AcDbLine
 10
5.730783999160105
 20
0.0198981796978014
 30
0.0
 11
5.730783999160105
 21
-0.0417308203021985
 31
0.0
  0
LINE
  5
19B
330
2
100
AcDbEntity
  8
0
100
AcDbLine
 10
5.811426999160105
 20
-0.0417308203021985
 30
0.0
 11
5.811426999160105
 21
0.0207691796978015
 31
0.0
  0
LINE
  5
19C
330
2
100
AcDbEntity
  8
0
100
AcDbLine
 10
5.730853153058263
 20
0.0207691796978015
 30
0.0
 11
5.811426999160105
 21
0.0207691796978015
 31
0.0
  0
ARC
  5
19D
330
2
100
AcDbEntity
  8
0
100
AcDbCircle
 10
5.855527999160106
 20
0.0684241796978022
 30
0.0
 40
0.093
100
AcDbArc
 50
59.99999999999994
 51
150.0
  0
ARC
  5
19E
330
2
100
AcDbEntity
  8
0
100
AcDbCircle
 10
5.823527999160106
 20
0.0129991796978008
 30
0.0
 40
0.093
100
AcDbArc
 50
150.0
 51
175.745885
  0
LINE
  5
19F
330
2
100
AcDbEntity
  8
0
100
AcDbLine
 10
5.742986999160106
 20
0.0594991796978026
 30
0.0
 11
5.774986999160106
 21
0.1149241796978022
 31
0.0
  0
ARC
  5
1A0
330
2
100
AcDbEntity
  8
0
100
AcDbCircle
 10
6.248926999160105
 20
3.141011179697803
 30
0.0
 40
0.156
100
AcDbArc
 50
90.0
 51
270.0
  0
ARC
  5
1A1
330
2
100
AcDbEntity
  8
0
100
AcDbCircle
 10
5.311445999160105
 20
4.762637179697801
 30
0.0
 40
0.3125
100
AcDbArc
 50
0.0
 51
66.03751100000001
  0
ARC
  5
1A2
330
2
100
AcDbEntity
  8
0
100
AcDbCircle
 10
5.312733999160106
 20
5.905725003186452
 30
0.0
 40
0.3125
100
AcDbArc
 50
293.962489
 51
0.0
  0
LINE
  5
1A4
330
2
100
AcDbEntity
  8
0
100
AcDbLine
 10
5.623926999160105
 20
6.364519179697801
 30
0.0
 11
6.248926999160105
 21
6.364519179697801
 31
0.0
  0
ARC
  5
1A6
330
2
100
AcDbEntity
  8
0
100
AcDbCircle
 10
5.565282999160104
 20
5.333769179697804
 30
0.0
 40
0.3125
100
AcDbArc
 50
180.0
 51
246.037511
  0
ARC
  5
1A7
330
2
100
AcDbEntity
  8
0
100
AcDbCircle
 10
5.566570999160106
 20
5.334593003186452
 30
0.0
 40
0.3125
100
AcDbArc
 50
113.962489
 51
180.0
  0
CIRCLE
  5
1AA
330
2
100
AcDbEntity
  8
0
100
AcDbCircle
 10
5.502782999160104
 20
5.333769179697802
 30
0.0
 40
0.078
  0
LINE
  5
1AD
330
2
100
AcDbEntity
  8
0
100
AcDbLine
 10
5.625214999160106
 20
6.3813971796978
 30
0.0
 11
5.625214999160106
 21
5.908622094057344
 31
0.0
  0
LINE
  5
1AF
330
2
100
AcDbEntity
  8
0
100
AcDbLine
 10
6.248926999160105
 20
6.364519179697801
 30
0.0
 11
6.311426999160105
 21
6.364519179697801
 31
0.0
  0
LINE
  5
1B0
330
2
100
AcDbEntity
  8
0
100
AcDbLine
 10
-1.193475
 20
6.101077
 30
0.0
 11
-1.059703
 21
6.101077
 31
0.0
  0
ARC
  5
1B1
330
2
100
AcDbEntity
  8
0
100
AcDbCircle
 10
-0.9081629999999996
 20
5.692024
 30
0.0
 40
0.114071
100
AcDbArc
 50
54.808812
 51
127.538262
  0
ARC
  5
1B2
330
2
100
AcDbEntity
  8
0
100
AcDbCircle
 10
-0.9081629999999996
 20
5.845224999999999
 30
0.0
 40
0.114071
100
AcDbArc
 50
232.461738
 51
305.191188
  0
POINT
  5
1B3
330
2
100
AcDbEntity
  8
0
100
AcDbPoint
 10
-1.12575
 20
5.519673000000001
 30
0.0
  0
LINE
  5
1B4
330
2
100
AcDbEntity
  8
0
100
AcDbLine
 10
-1.1265
 20
5.519673000000001
 30
0.0
 11
-1.2195
 21
5.612673000000001
 31
0.0
  0
LINE
  5
1B5
330
2
100
AcDbEntity
  8
0
100
AcDbLine
 10
-1.12575
 20
5.519673000000001
 30
0.0
 11
-1.032
 21
5.613423000000001
 31
0.0
  0
LINE
  5
1B6
330
2
100
AcDbEntity
  8
0
100
AcDbLine
 10
-1.1265
 20
5.519673000000001
 30
0.0
 11
-1.12575
 21
5.519673000000001
 31
0.0
  0
LINE
  5
1B7
330
2
100
AcDbEntity
  8
0
100
AcDbLine
 10
-1.1265
 20
5.34375
 30
0.0
 11
-1.12575
 21
5.34375
 31
0.0
  0
LINE
  5
1B8
330
2
100
AcDbEntity
  8
0
100
AcDbLine
 10
-1.2195
 20
6.09375
 30
0.0
 11
-1.2195
 21
5.43675
 31
0.0
  0
LINE
  5
1B9
330
2
100
AcDbEntity
  8
0
100
AcDbLine
 10
-1.032
 20
5.4375
 30
0.0
 11
-1.032
 21
6.09375
 31
0.0
  0
LINE
  5
1BA
330
2
100
AcDbEntity
  8
0
100
AcDbLine
 10
-1.12575
 20
5.34375
 30
0.0
 11
-1.032
 21
5.4375
 31
0.0
  0
LINE
  5
1BB
330
2
100
AcDbEntity
  8
0
100
AcDbLine
 10
-1.1265
 20
5.34375
 30
0.0
 11
-1.2195
 21
5.43675
 31
0.0
  0
POINT
  5
1BC
330
2
100
AcDbEntity
  8
0
100
AcDbPoint
 10
-1.12575
 20
5.34375
 30
0.0
  0
LINE
  5
1BD
330
2
100
AcDbEntity
  8
0
100
AcDbLine
 10
-1.136772
 20
9.961611948228502
 30
0.0
 11
-1.206772
 21
9.981611948228501
 31
0.0
  0
LINE
  5
1BE
330
2
100
AcDbEntity
  8
0
100
AcDbLine
 10
-1.206772
 20
9.981611948228501
 30
0.0
 11
-1.206772
 21
10.3366119482285
 31
0.0
  0
LINE
  5
1BF
330
2
100
AcDbEntity
  8
0
100
AcDbLine
 10
-1.089272
 20
9.961611948228502
 30
0.0
 11
-1.136772
 21
9.961611948228502
 31
0.0
  0
LINE
  5
1C0
330
2
100
AcDbEntity
  8
0
100
AcDbLine
 10
-1.089272
 20
9.961611948228502
 30
0.0
 11
-1.019272
 21
9.981611948228501
 31
0.0
  0
LINE
  5
1C1
330
2
100
AcDbEntity
  8
0
100
AcDbLine
 10
-1.019272
 20
10.3366119482285
 30
0.0
 11
-1.019272
 21
9.981611948228501
 31
0.0
  0
LINE
  5
1C2
330
2
100
AcDbEntity
  8
0
100
AcDbLine
 10
1.193474999999999
 20
6.101077
 30
0.0
 11
1.059703
 21
6.101077
 31
0.0
  0
ARC
  5
1C3
330
2
100
AcDbEntity
  8
0
100
AcDbCircle
 10
1.345663
 20
5.692024
 30
0.0
 40
0.114071
100
AcDbArc
 50
52.46173799999995
 51
125.191188
  0
ARC
  5
1C4
330
2
100
AcDbEntity
  8
0
100
AcDbCircle
 10
1.345663
 20
5.845224999999999
 30
0.0
 40
0.114071
100
AcDbArc
 50
234.808812
 51
307.538262
  0
POINT
  5
1C5
330
2
100
AcDbEntity
  8
0
100
AcDbPoint
 10
1.12575
 20
5.519673000000001
 30
0.0
 50
180.0
  0
LINE
  5
1C6
330
2
100
AcDbEntity
  8
0
100
AcDbLine
 10
1.1265
 20
5.519673000000001
 30
0.0
 11
1.2195
 21
5.612673000000001
 31
0.0
  0
LINE
  5
1C7
330
2
100
AcDbEntity
  8
0
100
AcDbLine
 10
1.12575
 20
5.519673000000001
 30
0.0
 11
1.032
 21
5.613423000000001
 31
0.0
  0
LINE
  5
1C8
330
2
100
AcDbEntity
  8
0
100
AcDbLine
 10
1.1265
 20
5.519673000000001
 30
0.0
 11
1.12575
 21
5.519673000000001
 31
0.0
  0
LINE
  5
1C9
330
2
100
AcDbEntity
  8
0
100
AcDbLine
 10
1.1265
 20
5.34375
 30
0.0
 11
1.12575
 21
5.34375
 31
0.0
  0
LINE
  5
1CA
330
2
100
AcDbEntity
  8
0
100
AcDbLine
 10
1.2195
 20
6.09375
 30
0.0
 11
1.2195
 21
5.43675
 31
0.0
  0
LINE
  5
1CB
330
2
100
AcDbEntity
  8
0
100
AcDbLine
 10
1.032
 20
5.4375
 30
0.0
 11
1.032
 21
6.09375
 31
0.0
  0
LINE
  5
1CC
330
2
100
AcDbEntity
  8
0
100
AcDbLine
 10
1.12575
 20
5.34375
 30
0.0
 11
1.032
 21
5.4375
 31
0.0
  0
LINE
  5
1CD
330
2
100
AcDbEntity
  8
0
100
AcDbLine
 10
1.1265
 20
5.34375
 30
0.0
 11
1.2195
 21
5.43675
 31
0.0
  0
POINT
  5
1CE
330
2
100
AcDbEntity
  8
0
100
AcDbPoint
 10
1.12575
 20
5.34375
 30
0.0
 50
180.0
  0
LINE
  5
1CF
330
2
100
AcDbEntity
  8
0
100
AcDbLine
 10
1.136772000000001
 20
9.961611948228502
 30
0.0
 11
1.206772000000001
 21
9.981611948228501
 31
0.0
  0
LINE
  5
1D0
330
2
100
AcDbEntity
  8
0
100
AcDbLine
 10
1.206772000000001
 20
9.981611948228501
 30
0.0
 11
1.206772000000001
 21
10.3366119482285
 31
0.0
  0
LINE
  5
1D1
330
2
100
AcDbEntity
  8
0
100
AcDbLine
 10
1.089272000000001
 20
9.961611948228502
 30
0.0
 11
1.136772000000001
 21
9.961611948228502
 31
0.0
  0
LINE
  5
1D2
330
2
100
AcDbEntity
  8
0
100
AcDbLine
 10
1.089272000000001
 20
9.961611948228502
 30
0.0
 11
1.019272000000001
 21
9.981611948228501
 31
0.0
  0
LINE
  5
1D3
330
2
100
AcDbEntity
  8
0
100
AcDbLine
 10
1.019272000000001
 20
10.3366119482285
 30
0.0
 11
1.019272000000001
 21
9.981611948228501
 31
0.0
  0
LINE
  5
1D4
330
2
100
AcDbEntity
  8
0
100
AcDbLine
 10
6.247606999160105
 20
5.712271179697803
 30
0.0
 11
5.975506999160107
 21
5.794261179697802
 31
0.0
  0
LINE
  5
1D5
330
2
100
AcDbEntity
  8
0
100
AcDbLine
 10
5.978481999160106
 20
5.832740179697803
 30
0.0
 11
6.249213999160105
 21
5.988588179697803
 31
0.0
  0
ARC
  5
1D6
330
2
100
AcDbEntity
  8
0
100
AcDbCircle
 10
5.980547999160105
 20
5.812842179697803
 30
0.0
 40
0.019337
100
AcDbArc
 50
113.110122
 51
272.943538
  0
LINE
  5
1D7
330
2
100
AcDbEntity
  8
0
100
AcDbLine
 10
5.924247999160105
 20
5.712022179697803
 30
0.0
 11
6.248926999160105
 21
5.614519179697803
 31
0.0
  0
LINE
  5
1D8
330
2
100
AcDbEntity
  8
0
100
AcDbLine
 10
5.938609999160107
 20
5.874821179697804
 30
0.0
 11
6.247606999160105
 21
6.051441179697804
 31
0.0
  0
ARC
  5
1D9
330
2
100
AcDbEntity
  8
0
100
AcDbCircle
 10
5.951527999160106
 20
5.789714179697803
 30
0.0
 40
0.083053
100
AcDbArc
 50
100.939462
 51
265.0416969999999
  0
LINE
  5
1DE
330
2
100
AcDbEntity
  8
0
  6
DASHED
100
AcDbLine
 10
-4.452354788187694
 20
0.0207691796978015
 30
0.0
 11
-5.730351517200468
 21
0.0207691796978015
 31
0.0
  0
LINE
  5
1DF
330
2
100
AcDbEntity
  8
0
100
AcDbLine
 10
-5.62342536330231
 20
6.364519179697801
 30
0.0
 11
-6.24842536330231
 21
6.364519179697801
 31
0.0
  0
LINE
  5
1E0
330
2
100
AcDbEntity
  8
0
100
AcDbLine
 10
-5.81092536330231
 20
-0.0417308203021985
 30
0.0
 11
-4.31092536330231
 21
-0.0417308203021985
 31
0.0
  0
ARC
  5
1E1
330
2
100
AcDbEntity
  8
0
100
AcDbCircle
 10
-5.310944363302312
 20
3.199637179697803
 30
0.0
 40
0.3125
100
AcDbArc
 50
113.962489
 51
160.515889
  0
LINE
  5
1E2
330
2
100
AcDbEntity
  8
0
100
AcDbLine
 10
-5.196099470962592
 20
1.490052169997157
 30
0.0
 11
-4.43108336330231
 21
0.1649971796978015
 31
0.0
  0
ARC
  5
1E3
330
2
100
AcDbEntity
  8
0
100
AcDbCircle
 10
-4.38458336330231
 20
0.0844561796978013
 30
0.0
 40
0.093
100
AcDbArc
 50
120.0000000000001
 51
223.2203875666705
  0
LINE
  5
1E4
330
2
100
AcDbEntity
  8
0
100
AcDbLine
 10
-4.31092536330231
 20
0.0207691796978015
 30
0.0
 11
-4.45235478818773
 21
0.0207691796978015
 31
0.0
  0
LINE
  5
1E5
330
2
100
AcDbEntity
  8
0
100
AcDbLine
 10
-4.31092536330231
 20
0.0207691796978015
 30
0.0
 11
-4.31092536330231
 21
-0.0417308203021985
 31
0.0
  0
LINE
  5
1E6
330
2
100
AcDbEntity
  8
0
100
AcDbLine
 10
-4.43592536330231
 20
-0.0417308203021985
 30
0.0
 11
-4.43592536330231
 21
0.0207691796978015
 31
0.0
  0
LINE
  5
1E7
330
2
100
AcDbEntity
  8
0
100
AcDbLine
 10
-4.43108336330231
 20
0.1649971796978015
 30
0.0
 11
-4.43043336330231
 21
0.1653721796978016
 31
0.0
  0
LINE
  5
1E8
330
2
100
AcDbEntity
  8
0
100
AcDbLine
 10
-5.427394791963494
 20
2.152978906697979
 30
0.0
 11
-5.19609947096259
 21
1.49005216999715
 31
0.0
  0
ARC
  5
1EA
330
2
100
AcDbEntity
  8
0
100
AcDbCircle
 10
-5.564781363302311
 20
2.645769179697805
 30
0.0
 40
0.3125
100
AcDbArc
 50
0.000000000000007
 51
66.02586609865172
  0
ARC
  5
1EB
330
2
100
AcDbEntity
  8
0
100
AcDbCircle
 10
-5.123425363302312
 20
2.208269179697803
 30
0.0
 40
0.308957
100
AcDbArc
 50
135.0
 51
190.309062
  0
ARC
  5
1EC
330
2
100
AcDbEntity
  8
0
100
AcDbCircle
 10
-5.564781363302311
 20
2.645769179697805
 30
0.0
 40
0.3125
100
AcDbArc
 50
315.499871
 51
0.000000000000007
  0
ARC
  5
1F0
330
2
100
AcDbEntity
  8
0
100
AcDbCircle
 10
-5.310944363302312
 20
3.216901179697806
 30
0.0
 40
0.3125
100
AcDbArc
 50
180.0
 51
246.04906287211
  0
CIRCLE
  5
1F1
330
2
100
AcDbEntity
  8
0
100
AcDbCircle
 10
-5.502281363302311
 20
2.645769179697803
 30
0.0
 40
0.078
  0
ARC
  5
1F5
330
2
100
AcDbEntity
  8
0
100
AcDbCircle
 10
-5.310944363302312
 20
3.199637179697803
 30
0.0
 40
0.3125
100
AcDbArc
 50
167.359537
 51
180.0
  0
LINE
  5
1F6
330
2
100
AcDbEntity
  8
0
100
AcDbLine
 10
-5.615870133017555
 20
3.268022302082474
 30
0.0
 11
-5.603867324769754
 21
3.308505855840869
 31
0.0
  0
LINE
  5
1F9
330
2
100
AcDbEntity
  8
0
100
AcDbLine
 10
-5.624713363302313
 20
4.944124991815761
 30
0.0
 11
-5.624713363302313
 21
4.542325179697802
 31
0.0
  0
ARC
  5
1FB
330
2
100
AcDbEntity
  8
0
100
AcDbCircle
 10
-5.310944363302312
 20
4.341901179697805
 30
0.0
 40
0.3125
100
AcDbArc
 50
180.0
 51
246.04906287211
  0
ARC
  5
1FC
330
2
100
AcDbEntity
  8
0
100
AcDbCircle
 10
-5.564781363302311
 20
3.770769179697805
 30
0.0
 40
0.3125
100
AcDbArc
 50
293.962489
 51
0.000000000000007
  0
ARC
  5
1FD
330
2
100
AcDbEntity
  8
0
100
AcDbCircle
 10
-5.564781363302311
 20
3.770769179697805
 30
0.0
 40
0.3125
100
AcDbArc
 50
25.853674
 51
66.02586609865172
  0
ARC
  5
200
330
2
100
AcDbEntity
  8
0
100
AcDbCircle
 10
-5.4657181727294
 20
3.793506518908619
 30
0.0
 40
0.2146444926216439
100
AcDbArc
 50
353.9192366121273
 51
31.93443738787299
  0
CIRCLE
  5
203
330
2
100
AcDbEntity
  8
0
100
AcDbCircle
 10
-5.502281363302311
 20
3.770769179697805
 30
0.0
 40
0.078
  0
LINE
  5
205
330
2
100
AcDbEntity
  8
0
100
AcDbLine
 10
-5.623425363302312
 20
4.398706179697802
 30
0.0
 11
-5.624713363302313
 21
4.542325179697802
 31
0.0
  0
LINE
  5
207
330
2
100
AcDbEntity
  8
0
100
AcDbLine
 10
-5.623425363302312
 20
4.398706179697802
 30
0.0
 11
-5.623425363302312
 21
4.338448179697801
 31
0.0
  0
ARC
  5
209
330
2
100
AcDbEntity
  8
0
100
AcDbCircle
 10
-5.564781363302311
 20
5.520769179697805
 30
0.0
 40
0.3125
100
AcDbArc
 50
293.962489
 51
0.000000000000007
  0
ARC
  5
20A
330
2
100
AcDbEntity
  8
0
100
AcDbCircle
 10
-5.310944363302312
 20
4.949637179697803
 30
0.0
 40
0.3125
100
AcDbArc
 50
113.962489
 51
180.0
  0
ARC
  5
20B
330
2
100
AcDbEntity
  8
0
100
AcDbCircle
 10
-5.566069363302313
 20
5.521593003186453
 30
0.0
 40
0.3125
100
AcDbArc
 50
0.000000000000007
 51
66.03751100000001
  0
ARC
  5
20E
330
2
100
AcDbEntity
  8
0
100
AcDbCircle
 10
-5.312232363302313
 20
6.092725003186454
 30
0.0
 40
0.3125
100
AcDbArc
 50
180.0
 51
246.037511
  0
CIRCLE
  5
20F
330
2
100
AcDbEntity
  8
0
100
AcDbCircle
 10
-5.502281363302311
 20
5.520769179697803
 30
0.0
 40
0.078
  0
ARC
  5
212
330
2
100
AcDbEntity
  8
0
100
AcDbCircle
 10
-6.24842536330231
 20
3.141011179697803
 30
0.0
 40
0.156
100
AcDbArc
 50
270.0
 51
90.0
  0
LINE
  5
213
330
2
100
AcDbEntity
  8
0
100
AcDbLine
 10
-6.24842536330231
 20
6.364519179697801
 30
0.0
 11
-6.24842536330231
 21
0.9347911796978008
 31
0.0
  0
LINE
  5
214
330
2
100
AcDbEntity
  8
0
100
AcDbLine
 10
-6.31092536330231
 20
6.364519179697801
 30
0.0
 11
-6.31092536330231
 21
1.043044179697802
 31
0.0
  0
LINE
  5
215
330
2
100
AcDbEntity
  8
0
100
AcDbLine
 10
-6.31092536330231
 20
1.043044179697802
 30
0.0
 11
-5.90152636330231
 21
0.1489651796978006
 31
0.0
  0
ARC
  5
216
330
2
100
AcDbEntity
  8
0
100
AcDbCircle
 10
-5.855026363302311
 20
0.0684241796978022
 30
0.0
 40
0.093
100
AcDbArc
 50
30.00000000000003
 51
120.0000000000001
  0
LINE
  5
217
330
2
100
AcDbEntity
  8
0
100
AcDbLine
 10
-5.742485363302311
 20
0.0594991796978026
 30
0.0
 11
-5.774485363302311
 21
0.1149241796978022
 31
0.0
  0
ARC
  5
218
330
2
100
AcDbEntity
  8
0
100
AcDbCircle
 10
-5.823026363302311
 20
0.0129991796978008
 30
0.0
 40
0.093
100
AcDbArc
 50
4.254115000000009
 51
30.00000000000003
  0
LINE
  5
219
330
2
100
AcDbEntity
  8
0
100
AcDbLine
 10
-5.730351517200468
 20
0.0207691796978015
 30
0.0
 11
-5.81092536330231
 21
0.0207691796978015
 31
0.0
  0
LINE
  5
21A
330
2
100
AcDbEntity
  8
0
100
AcDbLine
 10
-5.81092536330231
 20
-0.0417308203021985
 30
0.0
 11
-5.81092536330231
 21
0.0207691796978015
 31
0.0
  0
LINE
  5
21B
330
2
100
AcDbEntity
  8
0
100
AcDbLine
 10
-5.73028236330231
 20
0.0198981796978014
 30
0.0
 11
-5.73028236330231
 21
-0.0417308203021985
 31
0.0
  0
LINE
  5
21C
330
2
100
AcDbEntity
  8
0
100
AcDbLine
 10
-5.938108363302312
 20
5.874821179697804
 30
0.0
 11
-6.24710536330231
 21
6.051441179697804
 31
0.0
  0
LINE
  5
21D
330
2
100
AcDbEntity
  8
0
100
AcDbLine
 10
-5.977980363302311
 20
5.832740179697803
 30
0.0
 11
-6.24871236330231
 21
5.988588179697803
 31
0.0
  0
LINE
  5
21E
330
2
100
AcDbEntity
  8
0
100
AcDbLine
 10
-5.92374636330231
 20
5.712022179697803
 30
0.0
 11
-6.24842536330231
 21
5.614519179697803
 31
0.0
  0
ARC
  5
21F
330
2
100
AcDbEntity
  8
0
100
AcDbCircle
 10
-5.980046363302311
 20
5.812842179697803
 30
0.0
 40
0.019337
100
AcDbArc
 50
267.056462
 51
66.88987799999998
  0
ARC
  5
220
330
2
100
AcDbEntity
  8
0
100
AcDbCircle
 10
-5.951026363302312
 20
5.789714179697803
 30
0.0
 40
0.083053
100
AcDbArc
 50
274.958303
 51
79.06053800000001
  0
LINE
  5
221
330
2
100
AcDbEntity
  8
0
100
AcDbLine
 10
-6.24710536330231
 20
5.712271179697803
 30
0.0
 11
-5.975005363302312
 21
5.794261179697802
 31
0.0
  0
LINE
  5
222
330
2
100
AcDbEntity
  8
0
100
AcDbLine
 10
-6.24842536330231
 20
6.364519179697801
 30
0.0
 11
-6.31092536330231
 21
6.364519179697801
 31
0.0
  0
LINE
  5
224
330
2
100
AcDbEntity
  8
0
100
AcDbLine
 10
-5.62342536330231
 20
6.364519179697801
 30
0.0
 11
-5.624732363302313
 21
6.092725003186454
 31
0.0
  0
ENDSEC
  0
SECTION
  2
OBJECTS
  0
DICTIONARY
  5
9
330
0
100
AcDbDictionary
281
     1
  3
ACAD_COLOR
350
229
  3
ACAD_GROUP
350
23
  3
ACAD_LAYOUT
350
D
  3
ACAD_MATERIAL
350
228
  3
ACAD_MLINESTYLE
350
24
  3
ACAD_PLOTSETTINGS
350
25
  3
ACAD_PLOTSTYLENAME
350
8
  3
ACAD_TABLESTYLE
350
22A
  3
ACDBHEADERROUNDTRIPXREC
350
241
  3
AcDbVariableDictionary
350
108
  0
DICTIONARY
  5
229
102
{ACAD_REACTORS
330
9
102
}
330
9
100
AcDbDictionary
281
     1
  0
DICTIONARY
  5
23
102
{ACAD_REACTORS
330
9
102
}
330
9
100
AcDbDictionary
281
     1
  0
DICTIONARY
  5
D
102
{ACAD_REACTORS
330
9
102
}
330
9
100
AcDbDictionary
281
     1
  3
Layout1
350
13
  3
Model
350
C
  0
DICTIONARY
  5
228
102
{ACAD_REACTORS
330
9
102
}
330
9
100
AcDbDictionary
281
     1
  0
DICTIONARY
  5
24
102
{ACAD_REACTORS
330
9
102
}
330
9
100
AcDbDictionary
281
     1
  3
Standard
350
27
  0
DICTIONARY
  5
25
102
{ACAD_REACTORS
330
9
102
}
330
9
100
AcDbDictionary
281
     1
  0
ACDBDICTIONARYWDFLT
  5
8
102
{ACAD_REACTORS
330
9
102
}
330
9
100
AcDbDictionary
281
     1
  3
Normal
350
7
100
AcDbDictionaryWithDefault
340
7
  0
DICTIONARY
  5
22A
102
{ACAD_REACTORS
330
9
102
}
330
9
100
AcDbDictionary
281
     1
  3
Standard
350
22B
  0
DICTIONARY
  5
241
102
{ACAD_REACTORS
330
9
102
}
330
9
100
AcDbDictionary
281
     1
  3
COLORDICT
350
242
  3
MATERIALDICT
350
243
  0
DICTIONARY
  5
108
102
{ACAD_REACTORS
330
9
102
}
330
9
100
AcDbDictionary
281
     1
  3
CTABLESTYLE
350
235
  3
HIDETEXT
350
240
  0
LAYOUT
  5
13
102
{ACAD_REACTORS
330
D
102
}
102
{ACAD_XDICTIONARY
360
244
102
}
330
D
100
AcDbPlotSettings
  1

  2
C:\ACAD2000\plotters\HP LaserJet 2100 Series PS.pc3
  4

  6

 40
0.0
 41
0.0
 42
0.0
 43
0.0
 44
0.0
 45
0.0
 46
0.0
 47
0.0
 48
0.0
 49
0.0
140
0.0
141
0.0
142
1.0
143
1.0
 70
   688
 72
     0
 73
     0
 74
     5
  7

 75
    16
147
1.0
148
0.0
149
0.0
100
AcDbLayout
  1
Layout1
 70
     0
 71
     1
 10
0.0
 20
0.0
 11
12.0
 21
9.0
 12
0.0
 22
0.0
 32
0.0
 14
1.000000000000000E+20
 24
1.000000000000000E+20
 34
1.000000000000000E+20
 15
-1.000000000000000E+20
 25
-1.000000000000000E+20
 35
-1.000000000000000E+20
146
0.0
 13
0.0
 23
0.0
 33
0.0
 16
1.0
 26
0.0
 36
0.0
 17
0.0
 27
1.0
 37
0.0
 76
     0
330
E
  0
LAYOUT
  5
C
102
{ACAD_REACTORS
330
D
102
}
102
{ACAD_XDICTIONARY
360
246
102
}
330
D
100
AcDbPlotSettings
  1

  2
HP LaserJet 2100 Series PS
  4
Letter
  6

 40
5.365749835968018
 41
5.408073902130127
 42
5.132904052734375
 43
5.090576171875
 44
215.8999938964844
 45
279.3999938964844
 46
0.0
 47
0.0
 48
0.0
 49
0.0
140
0.0
141
0.0
142
1.0
143
1.652956484640829
 70
 28336
 72
     0
 73
     0
 74
     2
  7

 75
     0
147
0.604976603614154
148
0.0
149
0.0
100
AcDbLayout
  1
Model
 70
     1
 71
     0
 10
0.0
 20
0.0
 11
12.0
 21
9.0
 12
0.0
 22
0.0
 32
0.0
 14
0.0
 24
0.0
 34
0.0
 15
0.0
 25
0.0
 35
0.0
146
0.0
 13
0.0
 23
0.0
 33
0.0
 16
1.0
 26
0.0
 36
0.0
 17
0.0
 27
1.0
 37
0.0
 76
     0
330
2
  0
MLINESTYLE
  5
27
102
{ACAD_REACTORS
330
24
102
}
330
24
100
AcDbMlineStyle
  2
STANDARD
 70
     0
  3

 62
   256
 51
90.0
 52
90.0
 71
     2
 49
0.5
 62
   256
  6
BYLAYER
 49
-0.5
 62
   256
  6
BYLAYER
  0
ACDBPLACEHOLDER
  5
7
102
{ACAD_REACTORS
330
8
102
}
330
8
  0
ACAD_PROXY_OBJECT
  5
22B
102
{ACAD_REACTORS
330
22A
102
}
330
22A
100
AcDbProxyObject
 90
      499
 91
      512
 95
   983063
 70
     0
 93
     1841
310
4214DD185B99185C9928B81E85EB51B8AE3F2E07A17AD46E2B8FC02B5E8DC0F42B1CFD028000000C1008070000C3001FDFF8000000C1003FBFF000000182007F7FE00000030400FEFFC00000060801FDFF8000000C1003FBFF00000018200000000000000681FA0B0000001820100E000186003FBFF000000182007F7FE000
310
00030400FEFFC00000060801FDFF8000000C1003FBFF000000182007F7FE000000304000AD7A3703D0AC73F4160000003040201C00030C007F7FE00000030400FEFFC00000060801FDFF8000000C1003FBFF000000182007F7FE00000030400FEFFC000000608000
340
16
340
16
340
16
 94
        0
  0
XRECORD
  5
242
102
{ACAD_REACTORS
330
241
102
}
330
241
100
AcDbXrecord
340
229
  0
XRECORD
  5
243
102
{ACAD_REACTORS
330
241
102
}
330
241
100
AcDbXrecord
340
228
  0
DICTIONARYVAR
  5
235
102
{ACAD_REACTORS
330
108
102
}
330
108
100
DictionaryVariables
280
     0
  1
STANDARD
  0
DICTIONARYVAR
  5
240
102
{ACAD_REACTORS
330
108
102
}
330
108
100
DictionaryVariables
280
     0
  1
0
  0
DICTIONARY
  5
244
330
13
100
AcDbDictionary
280
     1
281
     1
  3
ACAD_XREC_ROUNDTRIP
360
245
  0
DICTIONARY
  5
246
330
C
100
AcDbDictionary
280
     1
281
     1
  3
ACAD_XREC_ROUNDTRIP
360
247
  0
XRECORD
  5
245
102
{ACAD_REACTORS
330
244
102
}
330
244
100
AcDbXrecord
102
SHADEPLOT
 70
     0
102
SHADEPLOTRESLEVEL
 70
     2
102
SHADEPLOTCUSTOMDPI
 70
   300
  0
XRECORD
  5
247
102
{ACAD_REACTORS
330
246
102
}
330
246
100
AcDbXrecord
102
SHADEPLOT
 70
     0
102
SHADEPLOTRESLEVEL
 70
     2
102
SHADEPLOTCUSTOMDPI
 70
   300
  0
ENDSEC
  0
EOF
