  0
SECTION
  2
HEADER
  9
$ACADVER
  1
AC1015
  9
$ACADMAINTVER
 70
     6
  9
$DWGCODEPAGE
  3
ANSI_1252
  9
$INSBASE
 10
0.0
 20
0.0
 30
0.0
  9
$EXTMIN
 10
-10.77862863877471
 20
-0.026865625633036
 30
-0.0015258207003583
  9
$EXTMAX
 10
10.60244175132749
 20
14.63830936198306
 30
0.0000000349246037
  9
$LIMMIN
 10
0.0
 20
0.0
  9
$LIMMAX
 10
42.0
 20
32.0
  9
$ORTHOMODE
 70
     1
  9
$REGENMODE
 70
     1
  9
$FILLMODE
 70
     1
  9
$QTEXTMODE
 70
     0
  9
$MIRRTEXT
 70
     1
  9
$LTSCALE
 40
0.75
  9
$ATTMODE
 70
     1
  9
$TEXTSIZE
 40
0.27
  9
$TRACEWID
 40
0.05
  9
$TEXTSTYLE
  7
STANDARD
  9
$CLAYER
  8
0
  9
$CELTYPE
  6
BYLAYER
  9
$CECOLOR
 62
   256
  9
$CELTSCALE
 40
1.0
  9
$DISPSILH
 70
     0
  9
$DIMSCALE
 40
1.0
  9
$DIMASZ
 40
0.375
  9
$DIMEXO
 40
0.0625
  9
$DIMDLI
 40
1.25
  9
$DIMRND
 40
0.0
  9
$DIMDLE
 40
0.0
  9
$DIMEXE
 40
0.18
  9
$DIMTP
 40
0.0
  9
$DIMTM
 40
0.0
  9
$DIMTXT
 40
0.27
  9
$DIMCEN
 40
-0.06
  9
$DIMTSZ
 40
0.0
  9
$DIMTOL
 70
     0
  9
$DIMLIM
 70
     0
  9
$DIMTIH
 70
     1
  9
$DIMTOH
 70
     1
  9
$DIMSE1
 70
     0
  9
$DIMSE2
 70
     0
  9
$DIMTAD
 70
     0
  9
$DIMZIN
 70
     0
  9
$DIMBLK
  1

  9
$DIMASO
 70
     0
  9
$DIMSHO
 70
     0
  9
$DIMPOST
  1

  9
$DIMAPOST
  1

  9
$DIMALT
 70
     0
  9
$DIMALTD
 70
     2
  9
$DIMALTF
 40
25.4
  9
$DIMLFAC
 40
1.0
  9
$DIMTOFL
 70
     0
  9
$DIMTVP
 40
0.0
  9
$DIMTIX
 70
     0
  9
$DIMSOXD
 70
     0
  9
$DIMSAH
 70
     0
  9
$DIMBLK1
  1

  9
$DIMBLK2
  1

  9
$DIMSTYLE
  2
STANDARD
  9
$DIMCLRD
 70
     0
  9
$DIMCLRE
 70
     0
  9
$DIMCLRT
 70
     0
  9
$DIMTFAC
 40
1.0
  9
$DIMGAP
 40
0.09375
  9
$DIMJUST
 70
     0
  9
$DIMSD1
 70
     0
  9
$DIMSD2
 70
     0
  9
$DIMTOLJ
 70
     1
  9
$DIMTZIN
 70
     0
  9
$DIMALTZ
 70
     0
  9
$DIMALTTZ
 70
     0
  9
$DIMUPT
 70
     0
  9
$DIMDEC
 70
     5
  9
$DIMTDEC
 70
     5
  9
$DIMALTU
 70
     5
  9
$DIMALTTD
 70
     2
  9
$DIMTXSTY
  7
STANDARD
  9
$DIMAUNIT
 70
     0
  9
$DIMADEC
 70
     0
  9
$DIMALTRND
 40
0.0
  9
$DIMAZIN
 70
     0
  9
$DIMDSEP
 70
    46
  9
$DIMATFIT
 70
     3
  9
$DIMFRAC
 70
     2
  9
$DIMLDRBLK
  1

  9
$DIMLUNIT
 70
     5
  9
$DIMLWD
 70
    -2
  9
$DIMLWE
 70
    -2
  9
$DIMTMOVE
 70
     2
  9
$LUNITS
 70
     5
  9
$LUPREC
 70
     5
  9
$SKETCHINC
 40
0.1
  9
$FILLETRAD
 40
0.0
  9
$AUNITS
 70
     0
  9
$AUPREC
 70
     0
  9
$MENU
  1
ACAD
  9
$ELEVATION
 40
0.0
  9
$PELEVATION
 40
0.0
  9
$THICKNESS
 40
0.0
  9
$LIMCHECK
 70
     0
  9
$CHAMFERA
 40
0.0
  9
$CHAMFERB
 40
0.0
  9
$CHAMFERC
 40
0.0
  9
$CHAMFERD
 40
0.0
  9
$SKPOLY
 70
     0
  9
$TDCREATE
 40
2448923.662847454
  9
$TDUCREATE
 40
2448923.996180787
  9
$TDUPDATE
 40
2454173.718401921
  9
$TDUUPDATE
 40
2454174.051735255
  9
$TDINDWG
 40
0.1929074537
  9
$TDUSRTIMER
 40
0.1929074537
  9
$USRTIMER
 70
     1
  9
$ANGBASE
 50
0.0
  9
$ANGDIR
 70
     0
  9
$PDMODE
 70
     0
  9
$PDSIZE
 40
0.0
  9
$PLINEWID
 40
0.0
  9
$SPLFRAME
 70
     0
  9
$SPLINETYPE
 70
     6
  9
$SPLINESEGS
 70
     8
  9
$HANDSEED
  5
28C
  9
$SURFTAB1
 70
     6
  9
$SURFTAB2
 70
     6
  9
$SURFTYPE
 70
     6
  9
$SURFU
 70
     6
  9
$SURFV
 70
     6
  9
$UCSBASE
  2

  9
$UCSNAME
  2

  9
$UCSORG
 10
0.0
 20
0.0
 30
0.0
  9
$UCSXDIR
 10
1.0
 20
0.0
 30
0.0
  9
$UCSYDIR
 10
0.0
 20
1.0
 30
0.0
  9
$UCSORTHOREF
  2

  9
$UCSORTHOVIEW
 70
     0
  9
$UCSORGTOP
 10
0.0
 20
0.0
 30
0.0
  9
$UCSORGBOTTOM
 10
0.0
 20
0.0
 30
0.0
  9
$UCSORGLEFT
 10
0.0
 20
0.0
 30
0.0
  9
$UCSORGRIGHT
 10
0.0
 20
0.0
 30
0.0
  9
$UCSORGFRONT
 10
0.0
 20
0.0
 30
0.0
  9
$UCSORGBACK
 10
0.0
 20
0.0
 30
0.0
  9
$PUCSBASE
  2

  9
$PUCSNAME
  2

  9
$PUCSORG
 10
0.0
 20
0.0
 30
0.0
  9
$PUCSXDIR
 10
1.0
 20
0.0
 30
0.0
  9
$PUCSYDIR
 10
0.0
 20
1.0
 30
0.0
  9
$PUCSORTHOREF
  2

  9
$PUCSORTHOVIEW
 70
     0
  9
$PUCSORGTOP
 10
0.0
 20
0.0
 30
0.0
  9
$PUCSORGBOTTOM
 10
0.0
 20
0.0
 30
0.0
  9
$PUCSORGLEFT
 10
0.0
 20
0.0
 30
0.0
  9
$PUCSORGRIGHT
 10
0.0
 20
0.0
 30
0.0
  9
$PUCSORGFRONT
 10
0.0
 20
0.0
 30
0.0
  9
$PUCSORGBACK
 10
0.0
 20
0.0
 30
0.0
  9
$USERI1
 70
     0
  9
$USERI2
 70
     0
  9
$USERI3
 70
     0
  9
$USERI4
 70
     0
  9
$USERI5
 70
     0
  9
$USERR1
 40
0.0
  9
$USERR2
 40
0.0
  9
$USERR3
 40
0.0
  9
$USERR4
 40
0.0
  9
$USERR5
 40
0.0
  9
$WORLDVIEW
 70
     1
  9
$SHADEDGE
 70
     3
  9
$SHADEDIF
 70
    70
  9
$TILEMODE
 70
     1
  9
$MAXACTVP
 70
    16
  9
$PINSBASE
 10
0.0
 20
0.0
 30
0.0
  9
$PLIMCHECK
 70
     0
  9
$PEXTMIN
 10
1.000000000000000E+20
 20
1.000000000000000E+20
 30
1.000000000000000E+20
  9
$PEXTMAX
 10
-1.000000000000000E+20
 20
-1.000000000000000E+20
 30
-1.000000000000000E+20
  9
$PLIMMIN
 10
0.0
 20
0.0
  9
$PLIMMAX
 10
12.0
 20
9.0
  9
$UNITMODE
 70
     0
  9
$VISRETAIN
 70
     0
  9
$PLINEGEN
 70
     0
  9
$PSLTSCALE
 70
     0
  9
$TREEDEPTH
 70
  3020
  9
$CMLSTYLE
  2
STANDARD
  9
$CMLJUST
 70
     0
  9
$CMLSCALE
 40
1.0
  9
$PROXYGRAPHICS
 70
     1
  9
$MEASUREMENT
 70
     0
  9
$CELWEIGHT
370
    -1
  9
$ENDCAPS
280
     0
  9
$JOINSTYLE
280
     0
  9
$LWDISPLAY
290
     0
  9
$INSUNITS
 70
     0
  9
$HYPERLINKBASE
  1

  9
$STYLESHEET
  1

  9
$XEDIT
290
     1
  9
$CEPSNTYPE
380
     0
  9
$PSTYLEMODE
290
     1
  9
$FINGERPRINTGUID
  2
{81491937-CD26-11D5-BE3F-00508B5FCD51}
  9
$VERSIONGUID
  2
{9BCE7FCE-7BC0-4B89-8699-3ADB871BD086}
  9
$EXTNAMES
290
     1
  9
$PSVPSCALE
 40
0.0
  9
$OLESTARTUP
290
     0
  0
ENDSEC
  0
SECTION
  2
CLASSES
  0
CLASS
  1
DICTIONARYVAR
  2
AcDbDictionaryVar
  3
AutoCAD 2000
 90
        0
280
     0
281
     0
  0
CLASS
  1
LWPOLYLINE
  2
AcDbPolyline
  3
AutoCAD 2000
 90
        0
280
     0
281
     1
  0
CLASS
  1
ACDBDICTIONARYWDFLT
  2
AcDbDictionaryWithDefault
  3
AutoCAD 2000
 90
        0
280
     0
281
     0
  0
CLASS
  1
ACDBPLACEHOLDER
  2
AcDbPlaceHolder
  3
ObjectDBX Classes
 90
        0
280
     0
281
     0
  0
CLASS
  1
LAYOUT
  2
AcDbLayout
  3
ObjectDBX Classes
 90
        0
280
     0
281
     0
  0
CLASS
  1
LONG_TRANSACTION
  2
AcDbLongTransaction
  3
ObjectDBX Classes
 90
   -65536
280
     1
281
     0
  0
CLASS
  1
LWPOLYLINE
  2
AcDbPolyline
  3
AutoCAD 2000
 90
        0
280
     0
281
     1
  0
CLASS
  1
HATCH
  2
AcDbHatch
  3
AutoCAD 2000
 90
        0
280
     0
281
     1
  0
CLASS
  1
XRECORD
  2
AcDbXrecord
  3
AutoCAD 2000
 90
        0
280
     0
281
     0
  0
CLASS
  1
LONG_TRANSACTION
  2
AcDbLongTransaction
  3
ObjectDBX Classes
 90
   -65536
280
     1
281
     0
  0
CLASS
  1
LWPOLYLINE
  2
AcDbPolyline
  3
AutoCAD 2000
 90
        0
280
     0
281
     1
  0
CLASS
  1
HATCH
  2
AcDbHatch
  3
AutoCAD 2000
 90
        0
280
     0
281
     1
  0
CLASS
  1
XRECORD
  2
AcDbXrecord
  3
AutoCAD 2000
 90
        0
280
     0
281
     0
  0
CLASS
  1
LONG_TRANSACTION
  2
AcDbLongTransaction
  3
ObjectDBX Classes
 90
   -65536
280
     1
281
     0
  0
CLASS
  1
LWPOLYLINE
  2
AcDbPolyline
  3
AutoCAD 2000
 90
        0
280
     0
281
     1
  0
CLASS
  1
HATCH
  2
AcDbHatch
  3
AutoCAD 2000
 90
        0
280
     0
281
     1
  0
CLASS
  1
XRECORD
  2
AcDbXrecord
  3
AutoCAD 2000
 90
        0
280
     0
281
     0
  0
CLASS
  1
LONG_TRANSACTION
  2
AcDbLongTransaction
  3
ObjectDBX Classes
 90
   -65536
280
     1
281
     0
  0
CLASS
  1
LWPOLYLINE
  2
AcDbPolyline
  3
AutoCAD 2000
 90
        0
280
     0
281
     1
  0
CLASS
  1
HATCH
  2
AcDbHatch
  3
AutoCAD 2000
 90
        0
280
     0
281
     1
  0
CLASS
  1
XRECORD
  2
AcDbXrecord
  3
AutoCAD 2000
 90
        0
280
     0
281
     0
  0
CLASS
  1
LONG_TRANSACTION
  2
AcDbLongTransaction
  3
ObjectDBX Classes
 90
   -65536
280
     1
281
     0
  0
CLASS
  1
LWPOLYLINE
  2
AcDbPolyline
  3
AutoCAD 2000
 90
        0
280
     0
281
     1
  0
CLASS
  1
HATCH
  2
AcDbHatch
  3
AutoCAD 2000
 90
        0
280
     0
281
     1
  0
CLASS
  1
XRECORD
  2
AcDbXrecord
  3
AutoCAD 2000
 90
        0
280
     0
281
     0
  0
CLASS
  1
LONG_TRANSACTION
  2
AcDbLongTransaction
  3
ObjectDBX Classes
 90
   -65536
280
     1
281
     0
  0
CLASS
  1
LWPOLYLINE
  2
AcDbPolyline
  3
AutoCAD 2000
 90
        0
280
     0
281
     1
  0
CLASS
  1
HATCH
  2
AcDbHatch
  3
AutoCAD 2000
 90
        0
280
     0
281
     1
  0
CLASS
  1
XRECORD
  2
AcDbXrecord
  3
AutoCAD 2000
 90
        0
280
     0
281
     0
  0
CLASS
  1
LONG_TRANSACTION
  2
AcDbLongTransaction
  3
ObjectDBX Classes
 90
   -65536
280
     1
281
     0
  0
CLASS
  1
LWPOLYLINE
  2
AcDbPolyline
  3
AutoCAD 2000
 90
        0
280
     0
281
     1
  0
CLASS
  1
HATCH
  2
AcDbHatch
  3
AutoCAD 2000
 90
        0
280
     0
281
     1
  0
CLASS
  1
XRECORD
  2
AcDbXrecord
  3
AutoCAD 2000
 90
        0
280
     0
281
     0
  0
CLASS
  1
LONG_TRANSACTION
  2
AcDbLongTransaction
  3
ObjectDBX Classes
 90
   -65536
280
     1
281
     0
  0
CLASS
  1
LWPOLYLINE
  2
AcDbPolyline
  3
AutoCAD 2000
 90
        0
280
     0
281
     1
  0
CLASS
  1
HATCH
  2
AcDbHatch
  3
AutoCAD 2000
 90
        0
280
     0
281
     1
  0
CLASS
  1
XRECORD
  2
AcDbXrecord
  3
AutoCAD 2000
 90
        0
280
     0
281
     0
  0
CLASS
  1
LONG_TRANSACTION
  2
AcDbLongTransaction
  3
ObjectDBX Classes
 90
   -65536
280
     1
281
     0
  0
CLASS
  1
LWPOLYLINE
  2
AcDbPolyline
  3
AutoCAD 2000
 90
        0
280
     0
281
     1
  0
CLASS
  1
HATCH
  2
AcDbHatch
  3
AutoCAD 2000
 90
        0
280
     0
281
     1
  0
CLASS
  1
XRECORD
  2
AcDbXrecord
  3
AutoCAD 2000
 90
        0
280
     0
281
     0
  0
CLASS
  1
TABLESTYLE
  2
AcDbTableStyle
  3
ObjectDBX Classes
 90
     2047
280
     1
281
     0
  0
ENDSEC
  0
SECTION
  2
TABLES
  0
TABLE
  2
VPORT
  5
1D
330
0
100
AcDbSymbolTable
 70
     5
  0
VPORT
  5
27E
330
1D
100
AcDbSymbolTableRecord
100
AcDbViewportTableRecord
  2
*Active
 70
     0
 10
0.0
 20
0.0
 11
1.0
 21
1.0
 12
14.19203205380106
 22
13.68969938982529
 13
0.0
 23
0.0
 14
0.03125
 24
0.03125
 15
0.5
 25
0.5
 16
0.0
 26
0.0
 36
1.0
 17
0.0
 27
0.0
 37
0.0
 40
32.42636916667821
 41
1.814583333333333
 42
50.0
 43
0.0
 44
0.0
 50
0.0
 51
0.0
 71
     0
 72
   100
 73
     1
 74
     0
 75
     0
 76
     0
 77
     0
 78
     0
281
     0
 65
     1
110
0.0
120
0.0
130
0.0
111
1.0
121
0.0
131
0.0
112
0.0
122
1.0
132
0.0
 79
     0
146
0.0
  0
ENDTAB
  0
TABLE
  2
LTYPE
  5
18
330
0
100
AcDbSymbolTable
 70
     2
  0
LTYPE
  5
19
330
18
100
AcDbSymbolTableRecord
100
AcDbLinetypeTableRecord
  2
BYBLOCK
 70
     0
  3

 72
    65
 73
     0
 40
0.0
  0
LTYPE
  5
1A
330
18
100
AcDbSymbolTableRecord
100
AcDbLinetypeTableRecord
  2
BYLAYER
 70
     0
  3

 72
    65
 73
     0
 40
0.0
  0
LTYPE
  5
A
330
18
100
AcDbSymbolTableRecord
100
AcDbLinetypeTableRecord
  2
CONTINUOUS
 70
     0
  3
Solid line
 72
    65
 73
     0
 40
0.0
  0
LTYPE
  5
25E
330
18
100
AcDbSymbolTableRecord
100
AcDbLinetypeTableRecord
  2
HIDDEN
 70
     0
  3
Hidden __ __ __ __ __ __ __ __ __ __ __ __ __ _
 72
    65
 73
     2
 40
0.375
 49
0.25
 74
     0
 49
-0.125
 74
     0
  0
ENDTAB
  0
TABLE
  2
LAYER
  5
14
330
0
100
AcDbSymbolTable
 70
     1
  0
LAYER
  5
6
330
14
100
AcDbSymbolTableRecord
100
AcDbLayerTableRecord
  2
0
 70
     0
 62
     7
  6
CONTINUOUS
370
    -3
390
7
  0
ENDTAB
  0
TABLE
  2
STYLE
  5
15
330
0
100
AcDbSymbolTable
 70
     1
  0
STYLE
  5
16
330
15
100
AcDbSymbolTableRecord
100
AcDbTextStyleTableRecord
  2
STANDARD
 70
     0
 40
0.0
 41
1.0
 50
0.0
 71
     0
 42
0.27
  3
txt
  4

  0
ENDTAB
  0
TABLE
  2
VIEW
  5
1B
330
0
100
AcDbSymbolTable
 70
     0
  0
ENDTAB
  0
TABLE
  2
UCS
  5
1C
330
0
100
AcDbSymbolTable
 70
     0
  0
ENDTAB
  0
TABLE
  2
APPID
  5
1F
330
0
100
AcDbSymbolTable
 70
     1
  0
APPID
  5
20
330
1F
100
AcDbSymbolTableRecord
100
AcDbRegAppTableRecord
  2
ACAD
 70
     0
  0
ENDTAB
  0
TABLE
  2
DIMSTYLE
  5
21
330
0
100
AcDbSymbolTable
 70
     1
100
AcDbDimStyleTable
  0
DIMSTYLE
105
22
330
21
100
AcDbSymbolTableRecord
100
AcDbDimStyleTableRecord
  2
STANDARD
 70
     0
  3

  4

340
16
  0
ENDTAB
  0
TABLE
  2
BLOCK_RECORD
  5
1
330
0
100
AcDbSymbolTable
 70
     0
  0
BLOCK_RECORD
  5
2
330
1
100
AcDbSymbolTableRecord
100
AcDbBlockTableRecord
  2
*MODEL_SPACE
340
C
  0
BLOCK_RECORD
  5
E
330
1
100
AcDbSymbolTableRecord
100
AcDbBlockTableRecord
  2
*PAPER_SPACE
340
13
  0
ENDTAB
  0
ENDSEC
  0
SECTION
  2
BLOCKS
  0
BLOCK
  5
5
330
2
100
AcDbEntity
  8
0
100
AcDbBlockBegin
  2
*MODEL_SPACE
 70
     0
 10
0.0
 20
0.0
 30
0.0
  3
*MODEL_SPACE
  1

  4

  0
ENDBLK
  5
B
330
2
100
AcDbEntity
  8
0
100
AcDbBlockEnd
  0
BLOCK
  5
11
330
E
100
AcDbEntity
 67
     1
  8
0
100
AcDbBlockBegin
  2
*PAPER_SPACE
 70
     0
 10
0.0
 20
0.0
 30
0.0
  3
*PAPER_SPACE
  1

  4

  0
ENDBLK
  5
12
330
E
100
AcDbEntity
 67
     1
  8
0
100
AcDbBlockEnd
  0
ENDSEC
  0
SECTION
  2
ENTITIES
  0
LINE
  5
2B
330
2
100
AcDbEntity
  8
0
100
AcDbLine
 10
-2.365627322159677
 20
0.0987908047351418
 30
0.0
 11
-3.411547148656211
 21
1.655676240467251
 31
0.0
  0
LINE
  5
2C
330
2
100
AcDbEntity
  8
0
100
AcDbLine
 10
-2.3125
 20
8.0625
 30
0.0
 11
-3.4375
 21
8.0625
 31
0.0
  0
LINE
  5
2D
330
2
100
AcDbEntity
  8
0
100
AcDbLine
 10
-2.87384
 20
7.4375
 30
0.0
 11
-2.68634
 21
7.4375
 31
0.0
  0
LINE
  5
2E
330
2
100
AcDbEntity
  8
0
100
AcDbLine
 10
-2.78009
 20
6.5625
 30
0.0
 11
-2.68634
 21
6.6875
 31
0.0
  0
LINE
  5
2F
330
2
100
AcDbEntity
  8
0
100
AcDbLine
 10
-2.78009
 20
6.9375
 30
0.0
 11
-2.68634
 21
7.0625
 31
0.0
  0
LINE
  5
33
330
2
100
AcDbEntity
  8
0
100
AcDbLine
 10
-3.437000000000001
 20
5.75
 30
0.0
 11
-3.436999999999999
 21
6.375
 31
0.0
  0
ARC
  5
64
330
2
100
AcDbEntity
  8
0
100
AcDbCircle
 10
-3.3125
 20
3.380199999999999
 30
0.0
 40
0.1875
100
AcDbArc
 50
0.0
 51
90.0
  0
LINE
  5
65
330
2
100
AcDbEntity
  8
0
100
AcDbLine
 10
-3.436999999999999
 20
1.75
 30
0.0
 11
-3.436999999999999
 21
2.375
 31
0.0
  0
ARC
  5
66
330
2
100
AcDbEntity
  8
0
100
AcDbCircle
 10
-3.249499999999999
 20
1.75
 30
0.0
 40
0.1875
100
AcDbArc
 50
180.0
 51
210.2026586833964
  0
CIRCLE
  5
67
330
2
100
AcDbEntity
  8
0
100
AcDbCircle
 10
-3.125
 20
2.0
 30
0.0
 40
0.0855
  0
LINE
  5
68
330
2
100
AcDbEntity
  8
0
100
AcDbLine
 10
-3.125
 20
3.380199999999999
 30
0.0
 11
-3.125
 21
2.744800000000002
 31
0.0
  0
ARC
  5
69
330
2
100
AcDbEntity
  8
0
100
AcDbCircle
 10
-3.249499999999999
 20
2.375
 30
0.0
 40
0.1875
100
AcDbArc
 50
90.0
 51
180.0
  0
ARC
  5
6A
330
2
100
AcDbEntity
  8
0
100
AcDbCircle
 10
-3.3125
 20
2.744800000000002
 30
0.0
 40
0.1875
100
AcDbArc
 50
289.6333588975685
 51
0.0
  0
LINE
  5
6B
330
2
100
AcDbEntity
  8
0
100
AcDbLine
 10
-3.125
 20
4.744799788214706
 30
0.0
 11
-3.125
 21
5.380199999999999
 31
0.0
  0
LINE
  5
6C
330
2
100
AcDbEntity
  8
0
100
AcDbLine
 10
-3.437000000000001
 20
3.75
 30
0.0
 11
-3.437000000000001
 21
4.375
 31
0.0
  0
ARC
  5
6D
330
2
100
AcDbEntity
  8
0
100
AcDbCircle
 10
-3.249499999999999
 20
3.75
 30
0.0
 40
0.1875
100
AcDbArc
 50
180.0
 51
250.3666411024103
  0
CIRCLE
  5
6E
330
2
100
AcDbEntity
  8
0
100
AcDbCircle
 10
-3.125
 20
3.8125
 30
0.0
 40
0.0855
  0
ARC
  5
6F
330
2
100
AcDbEntity
  8
0
100
AcDbCircle
 10
-3.249499999999999
 20
4.375
 30
0.0
 40
0.1875
100
AcDbArc
 50
90.0
 51
180.0
  0
ARC
  5
70
330
2
100
AcDbEntity
  8
0
100
AcDbCircle
 10
-3.3125
 20
4.744800000000002
 30
0.0
 40
0.1875
100
AcDbArc
 50
289.6333588975685
 51
0.0
  0
ARC
  5
71
330
2
100
AcDbEntity
  8
0
100
AcDbCircle
 10
-3.3125
 20
5.380199999999999
 30
0.0
 40
0.1875
100
AcDbArc
 50
0.0
 51
90.0
  0
ARC
  5
72
330
2
100
AcDbEntity
  8
0
100
AcDbCircle
 10
-3.249499999999999
 20
5.75
 30
0.0
 40
0.1875
100
AcDbArc
 50
180.0
 51
250.3666411024103
  0
CIRCLE
  5
73
330
2
100
AcDbEntity
  8
0
100
AcDbCircle
 10
-3.125
 20
5.8125
 30
0.0
 40
0.0855
  0
LINE
  5
80
330
2
100
AcDbEntity
  8
0
100
AcDbLine
 10
-3.125
 20
6.744800000000002
 30
0.0
 11
-3.125
 21
7.380200227943934
 31
0.0
  0
LINE
  5
81
330
2
100
AcDbEntity
  8
0
100
AcDbLine
 10
-2.87384
 20
6.6875
 30
0.0
 11
-2.87384
 21
7.4375
 31
0.0
  0
ARC
  5
82
330
2
100
AcDbEntity
  8
0
100
AcDbCircle
 10
-3.3125
 20
6.744800000000002
 30
0.0
 40
0.1875
100
AcDbArc
 50
289.6333588975685
 51
0.0
  0
LINE
  5
83
330
2
100
AcDbEntity
  8
0
100
AcDbLine
 10
-2.78009
 20
6.5625
 30
0.0
 11
-2.87384
 21
6.6875
 31
0.0
  0
ARC
  5
84
330
2
100
AcDbEntity
  8
0
100
AcDbCircle
 10
-3.238210462182121
 20
6.369660356708938
 30
0.0
 40
0.198861238395826
100
AcDbArc
 50
93.25448456194563
 51
178.46136028408
  0
LINE
  5
85
330
2
100
AcDbEntity
  8
0
100
AcDbLine
 10
-2.78009
 20
6.9375
 30
0.0
 11
-2.87384
 21
7.0625
 31
0.0
  0
LINE
  5
86
330
2
100
AcDbEntity
  8
0
100
AcDbLine
 10
-3.436999999999999
 20
7.75
 30
0.0
 11
-3.436999999999999
 21
8.0625
 31
0.0
  0
CIRCLE
  5
87
330
2
100
AcDbEntity
  8
0
100
AcDbCircle
 10
-3.125
 20
7.8125
 30
0.0
 40
0.0855
  0
ARC
  5
88
330
2
100
AcDbEntity
  8
0
100
AcDbCircle
 10
-3.249499999999999
 20
7.75
 30
0.0
 40
0.1875
100
AcDbArc
 50
180.0
 51
257.2535862916184
  0
ARC
  5
89
330
2
100
AcDbEntity
  8
0
100
AcDbCircle
 10
-3.313160788675804
 20
7.380285021508932
 30
0.0
 40
0.1881608078845258
100
AcDbArc
 50
359.9741105820587
 51
83.19617282319443
  0
LINE
  5
8E
330
2
100
AcDbEntity
  8
0
100
AcDbLine
 10
3.436500000000004
 20
5.75
 30
0.0
 11
3.436500000000004
 21
6.375
 31
0.0
  0
LINE
  5
8F
330
2
100
AcDbEntity
  8
0
100
AcDbLine
 10
-2.3125
 20
0.125
 30
0.0
 11
-2.3125
 21
8.0625
 31
0.0
  0
LINE
  5
90
330
2
100
AcDbEntity
  8
0
100
AcDbLine
 10
-2.375
 20
0.125
 30
0.0
 11
-2.375
 21
8.0625
 31
0.0
  0
LINE
  5
91
330
2
100
AcDbEntity
  8
0
100
AcDbLine
 10
2.3125
 20
0.125
 30
0.0
 11
2.3125
 21
8.0625
 31
0.0
  0
LINE
  5
92
330
2
100
AcDbEntity
  8
0
100
AcDbLine
 10
2.375
 20
0.125
 30
0.0
 11
2.375
 21
8.0625
 31
0.0
  0
LINE
  5
95
330
2
100
AcDbEntity
  8
0
100
AcDbLine
 10
2.375283717524138
 20
0.1274886404400348
 30
0.0
 11
3.411047148656211
 21
1.655676240467251
 31
0.0
  0
LINE
  5
96
330
2
100
AcDbEntity
  8
0
100
AcDbLine
 10
-2.25
 20
0.0
 30
0.0
 11
2.25
 21
0.0
 31
0.0
  0
LINE
  5
97
330
2
100
AcDbEntity
  8
0
100
AcDbLine
 10
-2.250499999999999
 20
0.0625
 30
0.0
 11
2.25
 21
0.0625
 31
0.0
  0
LINE
  5
98
330
2
100
AcDbEntity
  8
0
100
AcDbLine
 10
-2.3125
 20
0.1245000000000012
 30
0.0
 11
-2.3125
 21
0.125
 31
0.0
  0
LINE
  5
99
330
2
100
AcDbEntity
  8
0
100
AcDbLine
 10
-2.375
 20
0.125
 30
0.0
 11
-2.375
 21
0.125
 31
0.0
  0
ARC
  5
9A
330
2
100
AcDbEntity
  8
0
100
AcDbCircle
 10
-2.250499999999999
 20
0.1245000000000012
 30
0.0
 40
0.062
100
AcDbArc
 50
180.0
 51
270.0
  0
ARC
  5
9B
330
2
100
AcDbEntity
  8
0
100
AcDbCircle
 10
-2.25
 20
0.125
 30
0.0
 40
0.125
100
AcDbArc
 50
180.0
 51
270.0
  0
ARC
  5
9D
330
2
100
AcDbEntity
  8
0
100
AcDbCircle
 10
-2.427636839002005
 20
1.087968304379245
 30
0.0
 40
0.0986370922929614
100
AcDbArc
 50
273.8580859450529
 51
302.2518233885157
  0
ARC
  5
9E
330
2
100
AcDbEntity
  8
0
100
AcDbCircle
 10
-2.427636839002005
 20
0.6544153735153842
 30
0.0
 40
0.0986370922929614
100
AcDbArc
 50
57.74817661148475
 51
86.14191405494711
  0
POINT
  5
A0
330
2
100
AcDbEntity
  8
0
100
AcDbPoint
 10
-2.374999999999998
 20
0.7194163996591101
 30
0.0
  0
ARC
  5
A1
330
2
100
AcDbEntity
  8
0
100
AcDbCircle
 10
-2.426988878756845
 20
0.6545379288272599
 30
0.0
 40
0.0519900307039585
100
AcDbArc
 50
359.6185877246038
 51
83.38525270417912
  0
ARC
  5
A2
330
2
100
AcDbEntity
  8
0
100
AcDbCircle
 10
-2.426988878756845
 20
1.08784574906737
 30
0.0
 40
0.0519900307039585
100
AcDbArc
 50
276.6147472958209
 51
0.3814122753966671
  0
LINE
  5
A3
330
2
100
AcDbEntity
  8
0
100
AcDbLine
 10
2.375
 20
0.9774273003924918
 30
0.0
 11
2.375
 21
0.1875
 31
0.0
  0
ARC
  5
A4
330
2
100
AcDbEntity
  8
0
100
AcDbCircle
 10
2.25
 20
0.125
 30
0.0
 40
0.125
100
AcDbArc
 50
270.0
 51
0.0
  0
LINE
  5
A5
330
2
100
AcDbEntity
  8
0
100
AcDbLine
 10
2.3125
 20
0.1245000000000012
 30
0.0
 11
2.3125
 21
0.125
 31
0.0
  0
ARC
  5
A6
330
2
100
AcDbEntity
  8
0
100
AcDbCircle
 10
2.250500000000002
 20
0.1245000000000012
 30
0.0
 40
0.062
100
AcDbArc
 50
270.0
 51
0.0
  0
LINE
  5
A7
330
2
100
AcDbEntity
  8
0
100
AcDbLine
 10
2.375
 20
0.125
 30
0.0
 11
2.375
 21
0.125
 31
0.0
  0
ARC
  5
A8
330
2
100
AcDbEntity
  8
0
100
AcDbCircle
 10
2.426988878756847
 20
1.039307928827249
 30
0.0
 40
0.0519900307039585
100
AcDbArc
 50
96.61474729582089
 51
180.3814122753962
  0
ARC
  5
A9
330
2
100
AcDbEntity
  8
0
100
AcDbCircle
 10
2.427636839002007
 20
1.039185373515373
 30
0.0
 40
0.0986370922929614
100
AcDbArc
 50
93.85808594505291
 51
122.2518233885153
  0
POINT
  5
AA
330
2
100
AcDbEntity
  8
0
100
AcDbPoint
 10
2.375
 20
1.104186399659099
 30
0.0
  0
ARC
  5
AB
330
2
100
AcDbEntity
  8
0
100
AcDbCircle
 10
-2.375
 20
1.8125
 30
0.0
 40
0.156
100
AcDbArc
 50
90.0
 51
270.0
  0
ARC
  5
AC
330
2
100
AcDbEntity
  8
0
100
AcDbCircle
 10
-2.426988878756847
 20
3.557995749067356
 30
0.0
 40
0.0519900307039585
100
AcDbArc
 50
276.6147472958209
 51
0.3814122753966671
  0
ARC
  5
AD
330
2
100
AcDbEntity
  8
0
100
AcDbCircle
 10
-2.427636839002007
 20
3.558118304379232
 30
0.0
 40
0.0986370922929614
100
AcDbArc
 50
273.8580859450529
 51
302.2518233885157
  0
ARC
  5
AE
330
2
100
AcDbEntity
  8
0
100
AcDbCircle
 10
-2.427636839002007
 20
3.12456537351537
 30
0.0
 40
0.0986370922929614
100
AcDbArc
 50
57.74817661148475
 51
86.14191405494711
  0
POINT
  5
B0
330
2
100
AcDbEntity
  8
0
100
AcDbPoint
 10
-2.375
 20
3.189566399659096
 30
0.0
  0
ARC
  5
B1
330
2
100
AcDbEntity
  8
0
100
AcDbCircle
 10
-2.426988878756847
 20
3.124687928827246
 30
0.0
 40
0.0519900307039585
100
AcDbArc
 50
359.6185877246038
 51
83.38525270417912
  0
ARC
  5
B3
330
2
100
AcDbEntity
  8
0
100
AcDbCircle
 10
-2.426988878756847
 20
5.597615749067355
 30
0.0
 40
0.0519900307039585
100
AcDbArc
 50
276.6147472958209
 51
0.3814122753966671
  0
ARC
  5
B5
330
2
100
AcDbEntity
  8
0
100
AcDbCircle
 10
-2.427636839002007
 20
5.597738304379231
 30
0.0
 40
0.0986370922929614
100
AcDbArc
 50
273.8580859450529
 51
302.2518233885157
  0
ARC
  5
B6
330
2
100
AcDbEntity
  8
0
100
AcDbCircle
 10
-2.427636839002007
 20
5.16418537351537
 30
0.0
 40
0.0986370922929614
100
AcDbArc
 50
57.74817661148475
 51
86.14191405494711
  0
POINT
  5
B8
330
2
100
AcDbEntity
  8
0
100
AcDbPoint
 10
-2.375
 20
5.229186399659096
 30
0.0
  0
ARC
  5
B9
330
2
100
AcDbEntity
  8
0
100
AcDbCircle
 10
-2.426988878756847
 20
5.164307928827245
 30
0.0
 40
0.0519900307039585
100
AcDbArc
 50
359.6185877246038
 51
83.38525270417912
  0
ARC
  5
BA
330
2
100
AcDbEntity
  8
0
100
AcDbCircle
 10
3.311999999999999
 20
3.380199999999999
 30
0.0
 40
0.1875
100
AcDbArc
 50
90.00000000000003
 51
180.0000000000001
  0
LINE
  5
BB
330
2
100
AcDbEntity
  8
0
100
AcDbLine
 10
3.436500000000004
 20
1.75
 30
0.0
 11
3.436500000000004
 21
2.375
 31
0.0
  0
ARC
  5
BC
330
2
100
AcDbEntity
  8
0
100
AcDbCircle
 10
2.426988878756847
 20
1.472615749067359
 30
0.0
 40
0.0519900307039585
100
AcDbArc
 50
179.6185877246033
 51
263.3852527041791
  0
ARC
  5
BD
330
2
100
AcDbEntity
  8
0
100
AcDbCircle
 10
2.427636839002007
 20
1.472738304379234
 30
0.0
 40
0.0986370922929614
100
AcDbArc
 50
237.7481766114843
 51
266.1419140549471
  0
ARC
  5
BE
330
2
100
AcDbEntity
  8
0
100
AcDbCircle
 10
2.375
 20
1.8125
 30
0.0
 40
0.156
100
AcDbArc
 50
270.0
 51
90.0
  0
CIRCLE
  5
BF
330
2
100
AcDbEntity
  8
0
100
AcDbCircle
 10
3.124499999999999
 20
2.0
 30
0.0
 40
0.0855
  0
ARC
  5
C0
330
2
100
AcDbEntity
  8
0
100
AcDbCircle
 10
3.249000000000004
 20
1.75
 30
0.0
 40
0.1875
100
AcDbArc
 50
329.7973413166037
 51
0.0000000000000254
  0
ARC
  5
C2
330
2
100
AcDbEntity
  8
0
100
AcDbCircle
 10
2.426988878756847
 20
2.876370673431602
 30
0.0
 40
0.0519900307039585
100
AcDbArc
 50
96.61474729582089
 51
180.3814122753962
  0
ARC
  5
C4
330
2
100
AcDbEntity
  8
0
100
AcDbCircle
 10
2.427636839002007
 20
2.876248118119726
 30
0.0
 40
0.0986370922929614
100
AcDbArc
 50
93.85808594505291
 51
122.2518233885153
  0
ARC
  5
C5
330
2
100
AcDbEntity
  8
0
100
AcDbCircle
 10
2.427636839002007
 20
3.309801048983587
 30
0.0
 40
0.0986370922929614
100
AcDbArc
 50
237.7481766114843
 51
266.1419140549471
  0
POINT
  5
C6
330
2
100
AcDbEntity
  8
0
100
AcDbPoint
 10
2.375
 20
2.941249144263452
 30
0.0
  0
ARC
  5
C7
330
2
100
AcDbEntity
  8
0
100
AcDbCircle
 10
2.426988878756847
 20
3.309678493671711
 30
0.0
 40
0.0519900307039585
100
AcDbArc
 50
179.6185877246033
 51
263.3852527041791
  0
LINE
  5
C8
330
2
100
AcDbEntity
  8
0
100
AcDbLine
 10
3.124499999999999
 20
3.380199999999999
 30
0.0
 11
3.124499999999999
 21
2.744800000000002
 31
0.0
  0
ARC
  5
C9
330
2
100
AcDbEntity
  8
0
100
AcDbCircle
 10
3.311999999999999
 20
2.744800000000002
 30
0.0
 40
0.1875
100
AcDbArc
 50
180.0000000000001
 51
250.3666411024315
  0
ARC
  5
CA
330
2
100
AcDbEntity
  8
0
100
AcDbCircle
 10
3.249000000000004
 20
2.375
 30
0.0
 40
0.1875
100
AcDbArc
 50
0.0000000000000254
 51
90.00000000000003
  0
LINE
  5
CD
330
2
100
AcDbEntity
  8
0
100
AcDbLine
 10
3.124499999999999
 20
4.744799788214706
 30
0.0
 11
3.124499999999999
 21
5.380199999999999
 31
0.0
  0
ARC
  5
CE
330
2
100
AcDbEntity
  8
0
100
AcDbCircle
 10
2.426988878756847
 20
4.813870673431595
 30
0.0
 40
0.0519900307039585
100
AcDbArc
 50
96.61474729582089
 51
180.3814122753962
  0
ARC
  5
CF
330
2
100
AcDbEntity
  8
0
100
AcDbCircle
 10
2.427636839002007
 20
4.813748118119719
 30
0.0
 40
0.0986370922929614
100
AcDbArc
 50
93.85808594505291
 51
122.2518233885153
  0
POINT
  5
D0
330
2
100
AcDbEntity
  8
0
100
AcDbPoint
 10
2.375
 20
4.878749144263445
 30
0.0
  0
LINE
  5
D1
330
2
100
AcDbEntity
  8
0
100
AcDbLine
 10
3.436500000000004
 20
3.75
 30
0.0
 11
3.436500000000004
 21
4.375
 31
0.0
  0
CIRCLE
  5
D2
330
2
100
AcDbEntity
  8
0
100
AcDbCircle
 10
3.124499999999999
 20
3.8125
 30
0.0
 40
0.0855
  0
ARC
  5
D3
330
2
100
AcDbEntity
  8
0
100
AcDbCircle
 10
3.249000000000004
 20
3.75
 30
0.0
 40
0.1875
100
AcDbArc
 50
289.6333588975897
 51
0.0000000000000254
  0
ARC
  5
D4
330
2
100
AcDbEntity
  8
0
100
AcDbCircle
 10
3.249000000000004
 20
4.375
 30
0.0
 40
0.1875
100
AcDbArc
 50
0.0000000000000254
 51
90.00000000000003
  0
ARC
  5
D5
330
2
100
AcDbEntity
  8
0
100
AcDbCircle
 10
3.311999999999999
 20
4.744800000000002
 30
0.0
 40
0.1875
100
AcDbArc
 50
180.0000000000001
 51
250.3666411024315
  0
ARC
  5
D6
330
2
100
AcDbEntity
  8
0
100
AcDbCircle
 10
2.426988878756847
 20
5.247178493671704
 30
0.0
 40
0.0519900307039585
100
AcDbArc
 50
179.6185877246033
 51
263.3852527041791
  0
ARC
  5
D7
330
2
100
AcDbEntity
  8
0
100
AcDbCircle
 10
2.427636839002007
 20
5.24730104898358
 30
0.0
 40
0.0986370922929614
100
AcDbArc
 50
237.7481766114843
 51
266.1419140549471
  0
ARC
  5
D8
330
2
100
AcDbEntity
  8
0
100
AcDbCircle
 10
3.311999999999999
 20
5.380199999999999
 30
0.0
 40
0.1875
100
AcDbArc
 50
90.00000000000003
 51
180.0000000000001
  0
CIRCLE
  5
D9
330
2
100
AcDbEntity
  8
0
100
AcDbCircle
 10
3.124499999999999
 20
5.8125
 30
0.0
 40
0.0855
  0
ARC
  5
DA
330
2
100
AcDbEntity
  8
0
100
AcDbCircle
 10
3.249000000000004
 20
5.75
 30
0.0
 40
0.1875
100
AcDbArc
 50
289.6333588975897
 51
0.0000000000000254
  0
LINE
  5
109
330
2
100
AcDbEntity
  8
0
100
AcDbLine
 10
-2.68634
 20
7.4375
 30
0.0
 11
-2.68634
 21
6.6875
 31
0.0
  0
LINE
  5
10A
330
2
100
AcDbEntity
  8
0
100
AcDbLine
 10
3.124499999999999
 20
6.744800000000002
 30
0.0
 11
3.124499999999999
 21
7.380200227943934
 31
0.0
  0
LINE
  5
10B
330
2
100
AcDbEntity
  8
0
100
AcDbLine
 10
2.873839999999996
 20
6.6875
 30
0.0
 11
2.873839999999996
 21
7.4375
 31
0.0
  0
LINE
  5
10C
330
2
100
AcDbEntity
  8
0
100
AcDbLine
 10
2.686340000000003
 20
7.4375
 30
0.0
 11
2.686340000000003
 21
6.6875
 31
0.0
  0
LINE
  5
10D
330
2
100
AcDbEntity
  8
0
100
AcDbLine
 10
2.780090000000003
 20
6.5625
 30
0.0
 11
2.873839999999996
 21
6.6875
 31
0.0
  0
LINE
  5
10E
330
2
100
AcDbEntity
  8
0
100
AcDbLine
 10
2.780090000000003
 20
6.5625
 30
0.0
 11
2.686340000000003
 21
6.6875
 31
0.0
  0
LINE
  5
10F
330
2
100
AcDbEntity
  8
0
100
AcDbLine
 10
2.780090000000003
 20
6.9375
 30
0.0
 11
2.686340000000003
 21
7.0625
 31
0.0
  0
LINE
  5
110
330
2
100
AcDbEntity
  8
0
100
AcDbLine
 10
2.780090000000003
 20
6.9375
 30
0.0
 11
2.873839999999996
 21
7.0625
 31
0.0
  0
ARC
  5
111
330
2
100
AcDbEntity
  8
0
100
AcDbCircle
 10
3.311999999999999
 20
6.744800000000002
 30
0.0
 40
0.1875
100
AcDbArc
 50
180.0000000000001
 51
250.3666411024315
  0
ARC
  5
112
330
2
100
AcDbEntity
  8
0
100
AcDbCircle
 10
3.237710462182124
 20
6.369660356708938
 30
0.0
 40
0.198861238395826
100
AcDbArc
 50
1.538639715920054
 51
86.74551543805441
  0
LINE
  5
113
330
2
100
AcDbEntity
  8
0
100
AcDbLine
 10
2.3125
 20
8.0625
 30
0.0
 11
3.437500000000002
 21
8.0625
 31
0.0
  0
LINE
  5
114
330
2
100
AcDbEntity
  8
0
100
AcDbLine
 10
2.873839999999996
 20
7.4375
 30
0.0
 11
2.686340000000003
 21
7.4375
 31
0.0
  0
CIRCLE
  5
115
330
2
100
AcDbEntity
  8
0
100
AcDbCircle
 10
3.124499999999999
 20
7.8125
 30
0.0
 40
0.0855
  0
LINE
  5
116
330
2
100
AcDbEntity
  8
0
100
AcDbLine
 10
3.436500000000004
 20
7.75
 30
0.0
 11
3.436500000000004
 21
8.0625
 31
0.0
  0
ARC
  5
117
330
2
100
AcDbEntity
  8
0
100
AcDbCircle
 10
3.249000000000004
 20
7.75
 30
0.0
 40
0.1875
100
AcDbArc
 50
282.7464137083816
 51
0.0000000000000254
  0
ARC
  5
118
330
2
100
AcDbEntity
  8
0
100
AcDbCircle
 10
3.312660788675808
 20
7.380285021508932
 30
0.0
 40
0.1881608078845258
100
AcDbArc
 50
96.8038271768056
 51
180.0258894179414
  0
ARC
  5
19C
330
2
100
AcDbEntity
  8
0
100
AcDbCircle
 10
-2.374999999999993
 20
0.8334661377848249
 30
0.0
 40
0.1627257011624917
100
AcDbArc
 50
106.4204773143158
 51
109.9326970463662
  0
ARC
  5
19D
330
2
100
AcDbEntity
  8
0
100
AcDbCircle
 10
-2.381684477804658
 20
0.851898930634448
 30
0.0
 40
0.1431183021570608
100
AcDbArc
 50
109.9326970463561
 51
131.2018769840323
  0
ARC
  5
19E
330
2
100
AcDbEntity
  8
0
100
AcDbCircle
 10
-2.391978162061973
 20
0.86365653423994
 30
0.0
 40
0.1274913645769336
100
AcDbArc
 50
131.2018769840263
 51
154.6801826141883
  0
ARC
  5
19F
330
2
100
AcDbEntity
  8
0
100
AcDbCircle
 10
-2.407904962283565
 20
0.8711918389473183
 30
0.0
 40
0.1098719496510183
100
AcDbArc
 50
154.6801826141994
 51
180.0000000000037
  0
ARC
  5
1A0
330
2
100
AcDbEntity
  8
0
100
AcDbCircle
 10
-2.407904962283579
 20
0.8711918389473041
 30
0.0
 40
0.1098719496510032
100
AcDbArc
 50
179.9999999999963
 51
205.3198173858004
  0
ARC
  5
1A1
330
2
100
AcDbEntity
  8
0
100
AcDbCircle
 10
-2.391978162061955
 20
0.878727143654686
 30
0.0
 40
0.1274913645769478
100
AcDbArc
 50
205.3198173858069
 51
228.7981230159687
  0
ARC
  5
1A2
330
2
100
AcDbEntity
  8
0
100
AcDbCircle
 10
-2.38168447780466
 20
0.8904847472601674
 30
0.0
 40
0.1431183021570535
100
AcDbArc
 50
228.7981230159663
 51
250.0673029536437
  0
ARC
  5
1A3
330
2
100
AcDbEntity
  8
0
100
AcDbCircle
 10
-2.374999999999993
 20
0.9089175401097975
 30
0.0
 40
0.1627257011624917
100
AcDbArc
 50
250.0673029536338
 51
253.5795226856842
  0
ARC
  5
1A4
330
2
100
AcDbEntity
  8
0
100
AcDbCircle
 10
-2.374999999999996
 20
0.8625700161065737
 30
0.0
 40
0.1796218228407433
100
AcDbArc
 50
104.8383959934706
 51
112.0008925954779
  0
ARC
  5
1A5
330
2
100
AcDbEntity
  8
0
100
AcDbCircle
 10
-2.376695882090488
 20
0.8667672833127611
 30
0.0
 40
0.1750948958405604
100
AcDbArc
 50
112.0008925954737
 51
134.2879713357527
  0
ARC
  5
1A6
330
2
100
AcDbEntity
  8
0
100
AcDbCircle
 10
-2.379320116518768
 20
0.8694575659443764
 30
0.0
 40
0.1713366745894175
100
AcDbArc
 50
134.2879713357522
 51
156.9920431300937
  0
ARC
  5
1A7
330
2
100
AcDbEntity
  8
0
100
AcDbCircle
 10
-2.383404230649155
 20
0.8711918389473183
 30
0.0
 40
0.1668995932200081
100
AcDbArc
 50
156.9920431300973
 51
180.0000000000024
  0
ARC
  5
1A8
330
2
100
AcDbEntity
  8
0
100
AcDbCircle
 10
-2.383404230649161
 20
0.8711918389473041
 30
0.0
 40
0.1668995932200037
100
AcDbArc
 50
179.9999999999976
 51
203.0079568699034
  0
ARC
  5
1A9
330
2
100
AcDbEntity
  8
0
100
AcDbCircle
 10
-2.379320116518768
 20
0.8729261119502496
 30
0.0
 40
0.1713366745894194
100
AcDbArc
 50
203.0079568699074
 51
225.7120286642487
  0
ARC
  5
1AA
330
2
100
AcDbEntity
  8
0
100
AcDbCircle
 10
-2.376695882090486
 20
0.8756163945818649
 30
0.0
 40
0.1750948958405643
100
AcDbArc
 50
225.7120286642477
 51
247.9991074045262
  0
ARC
  5
1AB
330
2
100
AcDbEntity
  8
0
100
AcDbCircle
 10
-2.375000000000055
 20
0.8798136617880452
 30
0.0
 40
0.1796218228407181
100
AcDbArc
 50
247.9991074045391
 51
255.1616040065466
  0
ARC
  5
1AC
330
2
100
AcDbEntity
  8
0
100
AcDbCircle
 10
-2.374999999999995
 20
5.343236137784807
 30
0.0
 40
0.1627257011624951
100
AcDbArc
 50
106.4204773143154
 51
109.9326970463658
  0
ARC
  5
1AD
330
2
100
AcDbEntity
  8
0
100
AcDbCircle
 10
-2.38168447780466
 20
5.361668930634437
 30
0.0
 40
0.1431183021570574
100
AcDbArc
 50
109.9326970463565
 51
131.2018769840333
  0
ARC
  5
1AE
330
2
100
AcDbEntity
  8
0
100
AcDbCircle
 10
-2.391978162061974
 20
5.373426534239925
 30
0.0
 40
0.1274913645769336
100
AcDbArc
 50
131.2018769840263
 51
154.6801826141883
  0
ARC
  5
1AF
330
2
100
AcDbEntity
  8
0
100
AcDbCircle
 10
-2.407904962283567
 20
5.380961838947307
 30
0.0
 40
0.1098719496510168
100
AcDbArc
 50
154.680182614201
 51
180.0000000000055
  0
ARC
  5
1B0
330
2
100
AcDbEntity
  8
0
100
AcDbCircle
 10
-2.407904962283581
 20
5.380961838947293
 30
0.0
 40
0.1098719496510032
100
AcDbArc
 50
179.9999999999982
 51
205.3198173858021
  0
ARC
  5
1B1
330
2
100
AcDbEntity
  8
0
100
AcDbCircle
 10
-2.391978162061957
 20
5.388497143654668
 30
0.0
 40
0.1274913645769462
100
AcDbArc
 50
205.3198173858054
 51
228.7981230159677
  0
ARC
  5
1B2
330
2
100
AcDbEntity
  8
0
100
AcDbCircle
 10
-2.38168447780466
 20
5.400254747260156
 30
0.0
 40
0.1431183021570573
100
AcDbArc
 50
228.7981230159667
 51
250.0673029536435
  0
ARC
  5
1B3
330
2
100
AcDbEntity
  8
0
100
AcDbCircle
 10
-2.374999999999995
 20
5.418687540109787
 30
0.0
 40
0.1627257011624951
100
AcDbArc
 50
250.0673029536342
 51
253.5795226856846
  0
ARC
  5
1B4
330
2
100
AcDbEntity
  8
0
100
AcDbCircle
 10
-2.374999999999998
 20
5.372340016106559
 30
0.0
 40
0.1796218228407433
100
AcDbArc
 50
104.8383959934706
 51
112.0008925954779
  0
ARC
  5
1B5
330
2
100
AcDbEntity
  8
0
100
AcDbCircle
 10
-2.376695882090489
 20
5.376537283312747
 30
0.0
 40
0.1750948958405604
100
AcDbArc
 50
112.0008925954737
 51
134.2879713357527
  0
ARC
  5
1B6
330
2
100
AcDbEntity
  8
0
100
AcDbCircle
 10
-2.37932011651877
 20
5.379227565944362
 30
0.0
 40
0.1713366745894175
100
AcDbArc
 50
134.2879713357522
 51
156.9920431300937
  0
ARC
  5
1B7
330
2
100
AcDbEntity
  8
0
100
AcDbCircle
 10
-2.383404230649157
 20
5.3809618389473
 30
0.0
 40
0.1668995932200094
100
AcDbArc
 50
156.9920431300962
 51
180.0000000000013
  0
ARC
  5
1B8
330
2
100
AcDbEntity
  8
0
100
AcDbCircle
 10
-2.383404230649163
 20
5.380961838947293
 30
0.0
 40
0.1668995932200037
100
AcDbArc
 50
179.9999999999988
 51
203.0079568699046
  0
ARC
  5
1B9
330
2
100
AcDbEntity
  8
0
100
AcDbCircle
 10
-2.37932011651877
 20
5.382696111950232
 30
0.0
 40
0.171336674589418
100
AcDbArc
 50
203.0079568699063
 51
225.7120286642478
  0
ARC
  5
1BA
330
2
100
AcDbEntity
  8
0
100
AcDbCircle
 10
-2.376695882090488
 20
5.38538639458185
 30
0.0
 40
0.1750948958405643
100
AcDbArc
 50
225.7120286642477
 51
247.9991074045262
  0
ARC
  5
1BB
330
2
100
AcDbEntity
  8
0
100
AcDbCircle
 10
-2.375000000000057
 20
5.389583661788031
 30
0.0
 40
0.1796218228407181
100
AcDbArc
 50
247.9991074045391
 51
255.1616040065466
  0
ARC
  5
1BC
330
2
100
AcDbEntity
  8
0
100
AcDbCircle
 10
-2.374999999999998
 20
3.33272001610656
 30
0.0
 40
0.1796218228407433
100
AcDbArc
 50
104.8383959934706
 51
112.0008925954779
  0
ARC
  5
1BD
330
2
100
AcDbEntity
  8
0
100
AcDbCircle
 10
-2.376695882090489
 20
3.336917283312747
 30
0.0
 40
0.1750948958405604
100
AcDbArc
 50
112.0008925954737
 51
134.2879713357527
  0
ARC
  5
1BE
330
2
100
AcDbEntity
  8
0
100
AcDbCircle
 10
-2.37932011651877
 20
3.339607565944363
 30
0.0
 40
0.1713366745894175
100
AcDbArc
 50
134.2879713357522
 51
156.9920431300937
  0
ARC
  5
1BF
330
2
100
AcDbEntity
  8
0
100
AcDbCircle
 10
-2.383404230649157
 20
3.341341838947301
 30
0.0
 40
0.1668995932200094
100
AcDbArc
 50
156.9920431300962
 51
180.0000000000013
  0
ARC
  5
1C0
330
2
100
AcDbEntity
  8
0
100
AcDbCircle
 10
-2.383404230649163
 20
3.341341838947294
 30
0.0
 40
0.1668995932200037
100
AcDbArc
 50
179.9999999999988
 51
203.0079568699046
  0
ARC
  5
1C1
330
2
100
AcDbEntity
  8
0
100
AcDbCircle
 10
-2.37932011651877
 20
3.343076111950232
 30
0.0
 40
0.171336674589418
100
AcDbArc
 50
203.0079568699063
 51
225.7120286642478
  0
ARC
  5
1C2
330
2
100
AcDbEntity
  8
0
100
AcDbCircle
 10
-2.376695882090488
 20
3.345766394581851
 30
0.0
 40
0.1750948958405643
100
AcDbArc
 50
225.7120286642477
 51
247.9991074045262
  0
ARC
  5
1C3
330
2
100
AcDbEntity
  8
0
100
AcDbCircle
 10
-2.375000000000057
 20
3.349963661788031
 30
0.0
 40
0.1796218228407181
100
AcDbArc
 50
247.9991074045391
 51
255.1616040065466
  0
ARC
  5
1C4
330
2
100
AcDbEntity
  8
0
100
AcDbCircle
 10
-2.374999999999995
 20
3.303616137784807
 30
0.0
 40
0.1627257011624951
100
AcDbArc
 50
106.4204773143154
 51
109.9326970463658
  0
ARC
  5
1C5
330
2
100
AcDbEntity
  8
0
100
AcDbCircle
 10
-2.38168447780466
 20
3.322048930634438
 30
0.0
 40
0.1431183021570574
100
AcDbArc
 50
109.9326970463565
 51
131.2018769840333
  0
ARC
  5
1C6
330
2
100
AcDbEntity
  8
0
100
AcDbCircle
 10
-2.391978162061974
 20
3.333806534239926
 30
0.0
 40
0.1274913645769336
100
AcDbArc
 50
131.2018769840263
 51
154.6801826141883
  0
ARC
  5
1C7
330
2
100
AcDbEntity
  8
0
100
AcDbCircle
 10
-2.407904962283567
 20
3.341341838947308
 30
0.0
 40
0.1098719496510168
100
AcDbArc
 50
154.680182614201
 51
180.0000000000055
  0
ARC
  5
1C8
330
2
100
AcDbEntity
  8
0
100
AcDbCircle
 10
-2.407904962283581
 20
3.341341838947294
 30
0.0
 40
0.1098719496510032
100
AcDbArc
 50
179.9999999999982
 51
205.3198173858021
  0
ARC
  5
1C9
330
2
100
AcDbEntity
  8
0
100
AcDbCircle
 10
-2.391978162061957
 20
3.348877143654669
 30
0.0
 40
0.1274913645769462
100
AcDbArc
 50
205.3198173858054
 51
228.7981230159677
  0
ARC
  5
1CA
330
2
100
AcDbEntity
  8
0
100
AcDbCircle
 10
-2.38168447780466
 20
3.360634747260157
 30
0.0
 40
0.1431183021570573
100
AcDbArc
 50
228.7981230159667
 51
250.0673029536435
  0
ARC
  5
1CB
330
2
100
AcDbEntity
  8
0
100
AcDbCircle
 10
-2.374999999999995
 20
3.379067540109787
 30
0.0
 40
0.1627257011624951
100
AcDbArc
 50
250.0673029536342
 51
253.5795226856846
  0
ARC
  5
1CC
330
2
100
AcDbEntity
  8
0
100
AcDbCircle
 10
2.374999999999998
 20
1.247340016106563
 30
0.0
 40
0.1796218228407433
100
AcDbArc
 50
67.99910740452214
 51
75.1616040065294
  0
ARC
  5
1CD
330
2
100
AcDbEntity
  8
0
100
AcDbCircle
 10
2.376695882090489
 20
1.25153728331275
 30
0.0
 40
0.1750948958405604
100
AcDbArc
 50
45.71202866424729
 51
67.99910740452631
  0
ARC
  5
1CE
330
2
100
AcDbEntity
  8
0
100
AcDbCircle
 10
2.37932011651877
 20
1.254227565944365
 30
0.0
 40
0.1713366745894175
100
AcDbArc
 50
23.00795686990632
 51
45.71202866424785
  0
ARC
  5
1CF
330
2
100
AcDbEntity
  8
0
100
AcDbCircle
 10
2.383404230649157
 20
1.255961838947307
 30
0.0
 40
0.1668995932200081
100
AcDbArc
 50
359.9999999999976
 51
23.00795686990271
  0
ARC
  5
1D0
330
2
100
AcDbEntity
  8
0
100
AcDbCircle
 10
2.383404230649163
 20
1.255961838947293
 30
0.0
 40
0.1668995932200037
100
AcDbArc
 50
336.9920431300965
 51
0.0000000000024393
  0
ARC
  5
1D1
330
2
100
AcDbEntity
  8
0
100
AcDbCircle
 10
2.37932011651877
 20
1.257696111950239
 30
0.0
 40
0.1713366745894194
100
AcDbArc
 50
314.2879713357513
 51
336.9920431300926
  0
ARC
  5
1D2
330
2
100
AcDbEntity
  8
0
100
AcDbCircle
 10
2.376695882090488
 20
1.260386394581854
 30
0.0
 40
0.1750948958405643
100
AcDbArc
 50
292.0008925954738
 51
314.2879713357523
  0
ARC
  5
1D3
330
2
100
AcDbEntity
  8
0
100
AcDbCircle
 10
2.375000000000057
 20
1.264583661788034
 30
0.0
 40
0.1796218228407181
100
AcDbArc
 50
284.8383959934534
 51
292.0008925954609
  0
ARC
  5
1D4
330
2
100
AcDbEntity
  8
0
100
AcDbCircle
 10
2.374999999999995
 20
1.218236137784814
 30
0.0
 40
0.1627257011624917
100
AcDbArc
 50
70.06730295363376
 51
73.57952268568424
  0
ARC
  5
1D5
330
2
100
AcDbEntity
  8
0
100
AcDbCircle
 10
2.38168447780466
 20
1.236668930634437
 30
0.0
 40
0.1431183021570608
100
AcDbArc
 50
48.79812301596765
 51
70.06730295364395
  0
ARC
  5
1D6
330
2
100
AcDbEntity
  8
0
100
AcDbCircle
 10
2.391978162061974
 20
1.248426534239929
 30
0.0
 40
0.1274913645769336
100
AcDbArc
 50
25.3198173858117
 51
48.79812301597369
  0
ARC
  5
1D7
330
2
100
AcDbEntity
  8
0
100
AcDbCircle
 10
2.407904962283565
 20
1.255961838947307
 30
0.0
 40
0.1098719496510199
100
AcDbArc
 50
359.9999999999963
 51
25.31981738580025
  0
ARC
  5
1D8
330
2
100
AcDbEntity
  8
0
100
AcDbCircle
 10
2.407904962283583
 20
1.255961838947293
 30
0.0
 40
0.1098719496510014
100
AcDbArc
 50
334.6801826141992
 51
0.0000000000037053
  0
ARC
  5
1D9
330
2
100
AcDbEntity
  8
0
100
AcDbCircle
 10
2.391978162061957
 20
1.263497143654675
 30
0.0
 40
0.1274913645769478
100
AcDbArc
 50
311.2018769840313
 51
334.6801826141931
  0
ARC
  5
1DA
330
2
100
AcDbEntity
  8
0
100
AcDbCircle
 10
2.38168447780466
 20
1.275254747260156
 30
0.0
 40
0.1431183021570547
100
AcDbArc
 50
289.932697046357
 51
311.2018769840342
  0
ARC
  5
1DB
330
2
100
AcDbEntity
  8
0
100
AcDbCircle
 10
2.374999999999995
 20
1.293687540109787
 30
0.0
 40
0.1627257011624917
100
AcDbArc
 50
286.4204773143158
 51
289.9326970463663
  0
ARC
  5
1DC
330
2
100
AcDbEntity
  8
0
100
AcDbCircle
 10
2.374999999999995
 20
3.055298882389167
 30
0.0
 40
0.1627257011624917
100
AcDbArc
 50
70.06730295363376
 51
73.57952268568424
  0
ARC
  5
1DD
330
2
100
AcDbEntity
  8
0
100
AcDbCircle
 10
2.38168447780466
 20
3.07373167523879
 30
0.0
 40
0.1431183021570608
100
AcDbArc
 50
48.79812301596765
 51
70.06730295364395
  0
ARC
  5
1DE
330
2
100
AcDbEntity
  8
0
100
AcDbCircle
 10
2.391978162061974
 20
3.085489278844282
 30
0.0
 40
0.1274913645769336
100
AcDbArc
 50
25.3198173858117
 51
48.79812301597369
  0
ARC
  5
1DF
330
2
100
AcDbEntity
  8
0
100
AcDbCircle
 10
2.407904962283565
 20
3.09302458355166
 30
0.0
 40
0.1098719496510199
100
AcDbArc
 50
359.9999999999963
 51
25.31981738580025
  0
ARC
  5
1E0
330
2
100
AcDbEntity
  8
0
100
AcDbCircle
 10
2.407904962283583
 20
3.093024583551646
 30
0.0
 40
0.1098719496510014
100
AcDbArc
 50
334.6801826141992
 51
0.0000000000037053
  0
ARC
  5
1E1
330
2
100
AcDbEntity
  8
0
100
AcDbCircle
 10
2.391978162061957
 20
3.100559888259028
 30
0.0
 40
0.1274913645769478
100
AcDbArc
 50
311.2018769840313
 51
334.6801826141931
  0
ARC
  5
1E2
330
2
100
AcDbEntity
  8
0
100
AcDbCircle
 10
2.38168447780466
 20
3.112317491864509
 30
0.0
 40
0.1431183021570547
100
AcDbArc
 50
289.932697046357
 51
311.2018769840342
  0
ARC
  5
1E3
330
2
100
AcDbEntity
  8
0
100
AcDbCircle
 10
2.374999999999995
 20
3.130750284714139
 30
0.0
 40
0.1627257011624917
100
AcDbArc
 50
286.4204773143158
 51
289.9326970463663
  0
ARC
  5
1E4
330
2
100
AcDbEntity
  8
0
100
AcDbCircle
 10
2.374999999999998
 20
3.084402760710916
 30
0.0
 40
0.1796218228407433
100
AcDbArc
 50
67.99910740452214
 51
75.1616040065294
  0
ARC
  5
1E5
330
2
100
AcDbEntity
  8
0
100
AcDbCircle
 10
2.376695882090489
 20
3.088600027917103
 30
0.0
 40
0.1750948958405604
100
AcDbArc
 50
45.71202866424729
 51
67.99910740452631
  0
ARC
  5
1E6
330
2
100
AcDbEntity
  8
0
100
AcDbCircle
 10
2.37932011651877
 20
3.091290310548718
 30
0.0
 40
0.1713366745894175
100
AcDbArc
 50
23.00795686990632
 51
45.71202866424785
  0
ARC
  5
1E7
330
2
100
AcDbEntity
  8
0
100
AcDbCircle
 10
2.383404230649157
 20
3.09302458355166
 30
0.0
 40
0.1668995932200081
100
AcDbArc
 50
359.9999999999976
 51
23.00795686990271
  0
ARC
  5
1E8
330
2
100
AcDbEntity
  8
0
100
AcDbCircle
 10
2.383404230649163
 20
3.093024583551646
 30
0.0
 40
0.1668995932200037
100
AcDbArc
 50
336.9920431300965
 51
0.0000000000024393
  0
ARC
  5
1E9
330
2
100
AcDbEntity
  8
0
100
AcDbCircle
 10
2.37932011651877
 20
3.094758856554591
 30
0.0
 40
0.1713366745894194
100
AcDbArc
 50
314.2879713357513
 51
336.9920431300926
  0
ARC
  5
1EA
330
2
100
AcDbEntity
  8
0
100
AcDbCircle
 10
2.376695882090488
 20
3.097449139186207
 30
0.0
 40
0.1750948958405643
100
AcDbArc
 50
292.0008925954738
 51
314.2879713357523
  0
ARC
  5
1EB
330
2
100
AcDbEntity
  8
0
100
AcDbCircle
 10
2.375000000000057
 20
3.101646406392387
 30
0.0
 40
0.1796218228407181
100
AcDbArc
 50
284.8383959934534
 51
292.0008925954609
  0
ARC
  5
1EC
330
2
100
AcDbEntity
  8
0
100
AcDbCircle
 10
2.374999999999998
 20
5.021902760710908
 30
0.0
 40
0.1796218228407433
100
AcDbArc
 50
67.99910740452214
 51
75.1616040065294
  0
ARC
  5
1ED
330
2
100
AcDbEntity
  8
0
100
AcDbCircle
 10
2.376695882090489
 20
5.026100027917096
 30
0.0
 40
0.1750948958405604
100
AcDbArc
 50
45.71202866424729
 51
67.99910740452631
  0
ARC
  5
1EE
330
2
100
AcDbEntity
  8
0
100
AcDbCircle
 10
2.37932011651877
 20
5.028790310548711
 30
0.0
 40
0.1713366745894175
100
AcDbArc
 50
23.00795686990632
 51
45.71202866424785
  0
ARC
  5
1EF
330
2
100
AcDbEntity
  8
0
100
AcDbCircle
 10
2.383404230649157
 20
5.030524583551653
 30
0.0
 40
0.1668995932200081
100
AcDbArc
 50
359.9999999999976
 51
23.00795686990271
  0
ARC
  5
1F0
330
2
100
AcDbEntity
  8
0
100
AcDbCircle
 10
2.383404230649163
 20
5.030524583551639
 30
0.0
 40
0.1668995932200037
100
AcDbArc
 50
336.9920431300965
 51
0.0000000000024393
  0
ARC
  5
1F1
330
2
100
AcDbEntity
  8
0
100
AcDbCircle
 10
2.37932011651877
 20
5.032258856554584
 30
0.0
 40
0.1713366745894194
100
AcDbArc
 50
314.2879713357513
 51
336.9920431300926
  0
ARC
  5
1F2
330
2
100
AcDbEntity
  8
0
100
AcDbCircle
 10
2.376695882090488
 20
5.0349491391862
 30
0.0
 40
0.1750948958405643
100
AcDbArc
 50
292.0008925954738
 51
314.2879713357523
  0
ARC
  5
1F3
330
2
100
AcDbEntity
  8
0
100
AcDbCircle
 10
2.375000000000057
 20
5.03914640639238
 30
0.0
 40
0.1796218228407181
100
AcDbArc
 50
284.8383959934534
 51
292.0008925954609
  0
ARC
  5
1F4
330
2
100
AcDbEntity
  8
0
100
AcDbCircle
 10
2.374999999999995
 20
4.99279888238916
 30
0.0
 40
0.1627257011624917
100
AcDbArc
 50
70.06730295363376
 51
73.57952268568424
  0
ARC
  5
1F5
330
2
100
AcDbEntity
  8
0
100
AcDbCircle
 10
2.38168447780466
 20
5.011231675238783
 30
0.0
 40
0.1431183021570608
100
AcDbArc
 50
48.79812301596765
 51
70.06730295364395
  0
ARC
  5
1F6
330
2
100
AcDbEntity
  8
0
100
AcDbCircle
 10
2.391978162061974
 20
5.022989278844275
 30
0.0
 40
0.1274913645769336
100
AcDbArc
 50
25.3198173858117
 51
48.79812301597369
  0
ARC
  5
1F7
330
2
100
AcDbEntity
  8
0
100
AcDbCircle
 10
2.407904962283565
 20
5.030524583551653
 30
0.0
 40
0.1098719496510199
100
AcDbArc
 50
359.9999999999963
 51
25.31981738580025
  0
ARC
  5
1F8
330
2
100
AcDbEntity
  8
0
100
AcDbCircle
 10
2.407904962283583
 20
5.030524583551639
 30
0.0
 40
0.1098719496510014
100
AcDbArc
 50
334.6801826141992
 51
0.0000000000037053
  0
ARC
  5
1F9
330
2
100
AcDbEntity
  8
0
100
AcDbCircle
 10
2.391978162061957
 20
5.038059888259021
 30
0.0
 40
0.1274913645769478
100
AcDbArc
 50
311.2018769840313
 51
334.6801826141931
  0
ARC
  5
1FA
330
2
100
AcDbEntity
  8
0
100
AcDbCircle
 10
2.38168447780466
 20
5.049817491864502
 30
0.0
 40
0.1431183021570547
100
AcDbArc
 50
289.932697046357
 51
311.2018769840342
  0
ARC
  5
1FB
330
2
100
AcDbEntity
  8
0
100
AcDbCircle
 10
2.374999999999995
 20
5.068250284714132
 30
0.0
 40
0.1627257011624917
100
AcDbArc
 50
286.4204773143158
 51
289.9326970463663
  0
ENDSEC
  0
SECTION
  2
OBJECTS
  0
DICTIONARY
  5
9
330
0
100
AcDbDictionary
281
     1
  3
ACAD_COLOR
350
257
  3
ACAD_GROUP
350
24
  3
ACAD_LAYOUT
350
D
  3
ACAD_MATERIAL
350
256
  3
ACAD_MLINESTYLE
350
25
  3
ACAD_PLOTSETTINGS
350
26
  3
ACAD_PLOTSTYLENAME
350
8
  3
ACAD_TABLESTYLE
350
258
  3
ACDBHEADERROUNDTRIPXREC
350
285
  3
AcDbVariableDictionary
350
14E
  0
DICTIONARY
  5
257
102
{ACAD_REACTORS
330
9
102
}
330
9
100
AcDbDictionary
281
     1
  0
DICTIONARY
  5
24
102
{ACAD_REACTORS
330
9
102
}
330
9
100
AcDbDictionary
281
     1
  0
DICTIONARY
  5
D
102
{ACAD_REACTORS
330
9
102
}
330
9
100
AcDbDictionary
281
     1
  3
Layout1
350
13
  3
Model
350
C
  0
DICTIONARY
  5
256
102
{ACAD_REACTORS
330
9
102
}
330
9
100
AcDbDictionary
281
     1
  0
DICTIONARY
  5
25
102
{ACAD_REACTORS
330
9
102
}
330
9
100
AcDbDictionary
281
     1
  3
STANDARD
350
28
  0
DICTIONARY
  5
26
102
{ACAD_REACTORS
330
9
102
}
330
9
100
AcDbDictionary
281
     1
  0
ACDBDICTIONARYWDFLT
  5
8
102
{ACAD_REACTORS
330
9
102
}
330
9
100
AcDbDictionary
281
     1
  3
Normal
350
7
100
AcDbDictionaryWithDefault
340
7
  0
DICTIONARY
  5
258
102
{ACAD_REACTORS
330
9
102
}
330
9
100
AcDbDictionary
281
     1
  3
Standard
350
259
  0
DICTIONARY
  5
285
102
{ACAD_REACTORS
330
9
102
}
330
9
100
AcDbDictionary
281
     1
  3
COLORDICT
350
286
  3
MATERIALDICT
350
287
  0
DICTIONARY
  5
14E
102
{ACAD_REACTORS
330
9
102
}
330
9
100
AcDbDictionary
281
     1
  3
CTABLESTYLE
350
265
  3
HIDETEXT
350
284
  0
LAYOUT
  5
13
102
{ACAD_REACTORS
330
D
102
}
102
{ACAD_XDICTIONARY
360
288
102
}
330
D
100
AcDbPlotSettings
  1

  2
HP LaserJet 2100 Series PS
  4

  6

 40
0.0
 41
0.0
 42
0.0
 43
0.0
 44
0.0
 45
0.0
 46
0.0
 47
0.0
 48
0.0
 49
0.0
140
0.0
141
0.0
142
1.0
143
1.0
 70
   688
 72
     0
 73
     0
 74
     5
  7

 75
    16
147
1.0
148
0.0
149
0.0
100
AcDbLayout
  1
Layout1
 70
     0
 71
     1
 10
0.0
 20
0.0
 11
12.0
 21
9.0
 12
0.0
 22
0.0
 32
0.0
 14
1.000000000000000E+20
 24
1.000000000000000E+20
 34
1.000000000000000E+20
 15
-1.000000000000000E+20
 25
-1.000000000000000E+20
 35
-1.000000000000000E+20
146
0.0
 13
0.0
 23
0.0
 33
0.0
 16
1.0
 26
0.0
 36
0.0
 17
0.0
 27
1.0
 37
0.0
 76
     0
330
E
  0
LAYOUT
  5
C
102
{ACAD_REACTORS
330
D
102
}
102
{ACAD_XDICTIONARY
360
28A
102
}
330
D
100
AcDbPlotSettings
  1

  2
HP LaserJet 2100 Series PS
  4
Letter
  6

 40
5.365749835968018
 41
5.408084392547607
 42
5.4080810546875
 43
5.365753173828125
 44
215.8999938964844
 45
279.3999938964844
 46
0.0
 47
0.0
 48
0.0
 49
0.0
140
0.0
141
0.0
142
1.0
143
1.0
 70
 11952
 72
     0
 73
     1
 74
     0
  7

 75
     0
147
1.0
148
-338.0822261472657
149
25.39604704401305
100
AcDbLayout
  1
Model
 70
     1
 71
     0
 10
0.0
 20
0.0
 11
12.0
 21
9.0
 12
0.0
 22
0.0
 32
0.0
 14
0.0
 24
0.0
 34
0.0
 15
0.0
 25
0.0
 35
0.0
146
0.0
 13
0.0
 23
0.0
 33
0.0
 16
1.0
 26
0.0
 36
0.0
 17
0.0
 27
1.0
 37
0.0
 76
     0
330
2
  0
MLINESTYLE
  5
28
102
{ACAD_REACTORS
330
25
102
}
330
25
100
AcDbMlineStyle
  2
STANDARD
 70
     0
  3

 62
   256
 51
90.0
 52
90.0
 71
     2
 49
0.5
 62
   256
  6
BYLAYER
 49
-0.5
 62
   256
  6
BYLAYER
  0
ACDBPLACEHOLDER
  5
7
102
{ACAD_REACTORS
330
8
102
}
330
8
  0
ACAD_PROXY_OBJECT
  5
259
102
{ACAD_REACTORS
330
258
102
}
330
258
100
AcDbProxyObject
 90
      499
 91
      541
 95
   983063
 70
     0
 93
     1841
310
4214DD185B99185C9928B81E85EB51B8AE3F2E07A17AD46E2B8FC02B5E8DC0F42B1CFD028000000C1008070000C3001FDFF8000000C1003FBFF000000182007F7FE00000030400FEFFC00000060801FDFF8000000C1003FBFF00000018200000000000000681FA0B0000001820100E000186003FBFF000000182007F7FE000
310
00030400FEFFC00000060801FDFF8000000C1003FBFF000000182007F7FE000000304000AD7A3703D0AC73F4160000003040201C00030C007F7FE00000030400FEFFC00000060801FDFF8000000C1003FBFF000000182007F7FE00000030400FEFFC000000608000
340
16
340
16
340
16
 94
        0
  0
XRECORD
  5
286
102
{ACAD_REACTORS
330
285
102
}
330
285
100
AcDbXrecord
340
257
  0
XRECORD
  5
287
102
{ACAD_REACTORS
330
285
102
}
330
285
100
AcDbXrecord
340
256
  0
DICTIONARYVAR
  5
265
102
{ACAD_REACTORS
330
14E
102
}
330
14E
100
DictionaryVariables
280
     0
  1
STANDARD
  0
DICTIONARYVAR
  5
284
102
{ACAD_REACTORS
330
14E
102
}
330
14E
100
DictionaryVariables
280
     0
  1
0
  0
DICTIONARY
  5
288
330
13
100
AcDbDictionary
280
     1
281
     1
  3
ACAD_XREC_ROUNDTRIP
360
289
  0
DICTIONARY
  5
28A
330
C
100
AcDbDictionary
280
     1
281
     1
  3
ACAD_XREC_ROUNDTRIP
360
28B
  0
XRECORD
  5
289
102
{ACAD_REACTORS
330
288
102
}
330
288
100
AcDbXrecord
102
SHADEPLOT
 70
     0
102
SHADEPLOTRESLEVEL
 70
     2
102
SHADEPLOTCUSTOMDPI
 70
   300
  0
XRECORD
  5
28B
102
{ACAD_REACTORS
330
28A
102
}
330
28A
100
AcDbXrecord
102
SHADEPLOT
 70
     0
102
SHADEPLOTRESLEVEL
 70
     2
102
SHADEPLOTCUSTOMDPI
 70
   300
  0
ENDSEC
  0
EOF
