  0
SECTION
  2
HEADER
  9
$ACADVER
  1
AC1015
  9
$ACADMAINTVER
 70
     6
  9
$DWGCODEPAGE
  3
ANSI_1252
  9
$INSBASE
 10
0.0
 20
0.0
 30
0.0
  9
$EXTMIN
 10
-10.77701813487976
 20
-0.0258883476483184
 30
0.0
  9
$EXTMAX
 10
10.60189087078845
 20
14.63602154559705
 30
0.0
  9
$LIMMIN
 10
0.0
 20
0.0
  9
$LIMMAX
 10
42.0
 20
32.0
  9
$ORTHOMODE
 70
     1
  9
$REGENMODE
 70
     1
  9
$FILLMODE
 70
     1
  9
$QTEXTMODE
 70
     0
  9
$MIRRTEXT
 70
     1
  9
$LTSCALE
 40
0.75
  9
$ATTMODE
 70
     1
  9
$TEXTSIZE
 40
0.27
  9
$TRACEWID
 40
0.05
  9
$TEXTSTYLE
  7
STANDARD
  9
$CLAYER
  8
0
  9
$CELTYPE
  6
BYLAYER
  9
$CECOLOR
 62
   256
  9
$CELTSCALE
 40
1.0
  9
$DISPSILH
 70
     0
  9
$DIMSCALE
 40
1.0
  9
$DIMASZ
 40
0.375
  9
$DIMEXO
 40
0.0625
  9
$DIMDLI
 40
1.25
  9
$DIMRND
 40
0.0
  9
$DIMDLE
 40
0.0
  9
$DIMEXE
 40
0.18
  9
$DIMTP
 40
0.0
  9
$DIMTM
 40
0.0
  9
$DIMTXT
 40
0.27
  9
$DIMCEN
 40
-0.06
  9
$DIMTSZ
 40
0.0
  9
$DIMTOL
 70
     0
  9
$DIMLIM
 70
     0
  9
$DIMTIH
 70
     1
  9
$DIMTOH
 70
     1
  9
$DIMSE1
 70
     0
  9
$DIMSE2
 70
     0
  9
$DIMTAD
 70
     0
  9
$DIMZIN
 70
     0
  9
$DIMBLK
  1

  9
$DIMASO
 70
     0
  9
$DIMSHO
 70
     0
  9
$DIMPOST
  1

  9
$DIMAPOST
  1

  9
$DIMALT
 70
     0
  9
$DIMALTD
 70
     2
  9
$DIMALTF
 40
25.4
  9
$DIMLFAC
 40
1.0
  9
$DIMTOFL
 70
     0
  9
$DIMTVP
 40
0.0
  9
$DIMTIX
 70
     0
  9
$DIMSOXD
 70
     0
  9
$DIMSAH
 70
     0
  9
$DIMBLK1
  1

  9
$DIMBLK2
  1

  9
$DIMSTYLE
  2
STANDARD
  9
$DIMCLRD
 70
     0
  9
$DIMCLRE
 70
     0
  9
$DIMCLRT
 70
     0
  9
$DIMTFAC
 40
1.0
  9
$DIMGAP
 40
0.09375
  9
$DIMJUST
 70
     0
  9
$DIMSD1
 70
     0
  9
$DIMSD2
 70
     0
  9
$DIMTOLJ
 70
     1
  9
$DIMTZIN
 70
     0
  9
$DIMALTZ
 70
     0
  9
$DIMALTTZ
 70
     0
  9
$DIMUPT
 70
     0
  9
$DIMDEC
 70
     5
  9
$DIMTDEC
 70
     5
  9
$DIMALTU
 70
     5
  9
$DIMALTTD
 70
     2
  9
$DIMTXSTY
  7
STANDARD
  9
$DIMAUNIT
 70
     0
  9
$DIMADEC
 70
     0
  9
$DIMALTRND
 40
0.0
  9
$DIMAZIN
 70
     0
  9
$DIMDSEP
 70
    46
  9
$DIMATFIT
 70
     3
  9
$DIMFRAC
 70
     2
  9
$DIMLDRBLK
  1

  9
$DIMLUNIT
 70
     5
  9
$DIMLWD
 70
    -2
  9
$DIMLWE
 70
    -2
  9
$DIMTMOVE
 70
     2
  9
$LUNITS
 70
     5
  9
$LUPREC
 70
     5
  9
$SKETCHINC
 40
0.1
  9
$FILLETRAD
 40
0.0
  9
$AUNITS
 70
     0
  9
$AUPREC
 70
     0
  9
$MENU
  1
ACAD
  9
$ELEVATION
 40
0.0
  9
$PELEVATION
 40
0.0
  9
$THICKNESS
 40
0.0
  9
$LIMCHECK
 70
     0
  9
$CHAMFERA
 40
0.0
  9
$CHAMFERB
 40
0.0
  9
$CHAMFERC
 40
0.0
  9
$CHAMFERD
 40
0.0
  9
$SKPOLY
 70
     0
  9
$TDCREATE
 40
2448923.662847454
  9
$TDUCREATE
 40
2448923.996180787
  9
$TDUPDATE
 40
2454173.71886669
  9
$TDUUPDATE
 40
2454174.052200023
  9
$TDINDWG
 40
0.1929240856
  9
$TDUSRTIMER
 40
0.1929240856
  9
$USRTIMER
 70
     1
  9
$ANGBASE
 50
0.0
  9
$ANGDIR
 70
     0
  9
$PDMODE
 70
     0
  9
$PDSIZE
 40
0.0
  9
$PLINEWID
 40
0.0
  9
$SPLFRAME
 70
     0
  9
$SPLINETYPE
 70
     6
  9
$SPLINESEGS
 70
     8
  9
$HANDSEED
  5
28F
  9
$SURFTAB1
 70
     6
  9
$SURFTAB2
 70
     6
  9
$SURFTYPE
 70
     6
  9
$SURFU
 70
     6
  9
$SURFV
 70
     6
  9
$UCSBASE
  2

  9
$UCSNAME
  2

  9
$UCSORG
 10
0.0
 20
0.0
 30
0.0
  9
$UCSXDIR
 10
1.0
 20
0.0
 30
0.0
  9
$UCSYDIR
 10
0.0
 20
1.0
 30
0.0
  9
$UCSORTHOREF
  2

  9
$UCSORTHOVIEW
 70
     0
  9
$UCSORGTOP
 10
0.0
 20
0.0
 30
0.0
  9
$UCSORGBOTTOM
 10
0.0
 20
0.0
 30
0.0
  9
$UCSORGLEFT
 10
0.0
 20
0.0
 30
0.0
  9
$UCSORGRIGHT
 10
0.0
 20
0.0
 30
0.0
  9
$UCSORGFRONT
 10
0.0
 20
0.0
 30
0.0
  9
$UCSORGBACK
 10
0.0
 20
0.0
 30
0.0
  9
$PUCSBASE
  2

  9
$PUCSNAME
  2

  9
$PUCSORG
 10
0.0
 20
0.0
 30
0.0
  9
$PUCSXDIR
 10
1.0
 20
0.0
 30
0.0
  9
$PUCSYDIR
 10
0.0
 20
1.0
 30
0.0
  9
$PUCSORTHOREF
  2

  9
$PUCSORTHOVIEW
 70
     0
  9
$PUCSORGTOP
 10
0.0
 20
0.0
 30
0.0
  9
$PUCSORGBOTTOM
 10
0.0
 20
0.0
 30
0.0
  9
$PUCSORGLEFT
 10
0.0
 20
0.0
 30
0.0
  9
$PUCSORGRIGHT
 10
0.0
 20
0.0
 30
0.0
  9
$PUCSORGFRONT
 10
0.0
 20
0.0
 30
0.0
  9
$PUCSORGBACK
 10
0.0
 20
0.0
 30
0.0
  9
$USERI1
 70
     0
  9
$USERI2
 70
     0
  9
$USERI3
 70
     0
  9
$USERI4
 70
     0
  9
$USERI5
 70
     0
  9
$USERR1
 40
0.0
  9
$USERR2
 40
0.0
  9
$USERR3
 40
0.0
  9
$USERR4
 40
0.0
  9
$USERR5
 40
0.0
  9
$WORLDVIEW
 70
     1
  9
$SHADEDGE
 70
     3
  9
$SHADEDIF
 70
    70
  9
$TILEMODE
 70
     1
  9
$MAXACTVP
 70
    16
  9
$PINSBASE
 10
0.0
 20
0.0
 30
0.0
  9
$PLIMCHECK
 70
     0
  9
$PEXTMIN
 10
1.000000000000000E+20
 20
1.000000000000000E+20
 30
1.000000000000000E+20
  9
$PEXTMAX
 10
-1.000000000000000E+20
 20
-1.000000000000000E+20
 30
-1.000000000000000E+20
  9
$PLIMMIN
 10
0.0
 20
0.0
  9
$PLIMMAX
 10
12.0
 20
9.0
  9
$UNITMODE
 70
     0
  9
$VISRETAIN
 70
     0
  9
$PLINEGEN
 70
     0
  9
$PSLTSCALE
 70
     0
  9
$TREEDEPTH
 70
  3020
  9
$CMLSTYLE
  2
STANDARD
  9
$CMLJUST
 70
     0
  9
$CMLSCALE
 40
1.0
  9
$PROXYGRAPHICS
 70
     1
  9
$MEASUREMENT
 70
     0
  9
$CELWEIGHT
370
    -1
  9
$ENDCAPS
280
     0
  9
$JOINSTYLE
280
     0
  9
$LWDISPLAY
290
     0
  9
$INSUNITS
 70
     0
  9
$HYPERLINKBASE
  1

  9
$STYLESHEET
  1

  9
$XEDIT
290
     1
  9
$CEPSNTYPE
380
     0
  9
$PSTYLEMODE
290
     1
  9
$FINGERPRINTGUID
  2
{81491937-CD26-11D5-BE3F-00508B5FCD51}
  9
$VERSIONGUID
  2
{F279A7C3-36E4-4C58-8A14-2D39DB14315F}
  9
$EXTNAMES
290
     1
  9
$PSVPSCALE
 40
0.0
  9
$OLESTARTUP
290
     0
  0
ENDSEC
  0
SECTION
  2
CLASSES
  0
CLASS
  1
DICTIONARYVAR
  2
AcDbDictionaryVar
  3
AutoCAD 2000
 90
        0
280
     0
281
     0
  0
CLASS
  1
LWPOLYLINE
  2
AcDbPolyline
  3
AutoCAD 2000
 90
        0
280
     0
281
     1
  0
CLASS
  1
ACDBDICTIONARYWDFLT
  2
AcDbDictionaryWithDefault
  3
AutoCAD 2000
 90
        0
280
     0
281
     0
  0
CLASS
  1
ACDBPLACEHOLDER
  2
AcDbPlaceHolder
  3
ObjectDBX Classes
 90
        0
280
     0
281
     0
  0
CLASS
  1
LAYOUT
  2
AcDbLayout
  3
ObjectDBX Classes
 90
        0
280
     0
281
     0
  0
CLASS
  1
LONG_TRANSACTION
  2
AcDbLongTransaction
  3
ObjectDBX Classes
 90
   -65536
280
     1
281
     0
  0
CLASS
  1
LWPOLYLINE
  2
AcDbPolyline
  3
AutoCAD 2000
 90
        0
280
     0
281
     1
  0
CLASS
  1
HATCH
  2
AcDbHatch
  3
AutoCAD 2000
 90
        0
280
     0
281
     1
  0
CLASS
  1
XRECORD
  2
AcDbXrecord
  3
AutoCAD 2000
 90
        0
280
     0
281
     0
  0
CLASS
  1
LONG_TRANSACTION
  2
AcDbLongTransaction
  3
ObjectDBX Classes
 90
   -65536
280
     1
281
     0
  0
CLASS
  1
LWPOLYLINE
  2
AcDbPolyline
  3
AutoCAD 2000
 90
        0
280
     0
281
     1
  0
CLASS
  1
HATCH
  2
AcDbHatch
  3
AutoCAD 2000
 90
        0
280
     0
281
     1
  0
CLASS
  1
XRECORD
  2
AcDbXrecord
  3
AutoCAD 2000
 90
        0
280
     0
281
     0
  0
CLASS
  1
LONG_TRANSACTION
  2
AcDbLongTransaction
  3
ObjectDBX Classes
 90
   -65536
280
     1
281
     0
  0
CLASS
  1
LWPOLYLINE
  2
AcDbPolyline
  3
AutoCAD 2000
 90
        0
280
     0
281
     1
  0
CLASS
  1
HATCH
  2
AcDbHatch
  3
AutoCAD 2000
 90
        0
280
     0
281
     1
  0
CLASS
  1
XRECORD
  2
AcDbXrecord
  3
AutoCAD 2000
 90
        0
280
     0
281
     0
  0
CLASS
  1
LONG_TRANSACTION
  2
AcDbLongTransaction
  3
ObjectDBX Classes
 90
   -65536
280
     1
281
     0
  0
CLASS
  1
LWPOLYLINE
  2
AcDbPolyline
  3
AutoCAD 2000
 90
        0
280
     0
281
     1
  0
CLASS
  1
HATCH
  2
AcDbHatch
  3
AutoCAD 2000
 90
        0
280
     0
281
     1
  0
CLASS
  1
XRECORD
  2
AcDbXrecord
  3
AutoCAD 2000
 90
        0
280
     0
281
     0
  0
CLASS
  1
LONG_TRANSACTION
  2
AcDbLongTransaction
  3
ObjectDBX Classes
 90
   -65536
280
     1
281
     0
  0
CLASS
  1
LWPOLYLINE
  2
AcDbPolyline
  3
AutoCAD 2000
 90
        0
280
     0
281
     1
  0
CLASS
  1
HATCH
  2
AcDbHatch
  3
AutoCAD 2000
 90
        0
280
     0
281
     1
  0
CLASS
  1
XRECORD
  2
AcDbXrecord
  3
AutoCAD 2000
 90
        0
280
     0
281
     0
  0
CLASS
  1
LONG_TRANSACTION
  2
AcDbLongTransaction
  3
ObjectDBX Classes
 90
   -65536
280
     1
281
     0
  0
CLASS
  1
LWPOLYLINE
  2
AcDbPolyline
  3
AutoCAD 2000
 90
        0
280
     0
281
     1
  0
CLASS
  1
HATCH
  2
AcDbHatch
  3
AutoCAD 2000
 90
        0
280
     0
281
     1
  0
CLASS
  1
XRECORD
  2
AcDbXrecord
  3
AutoCAD 2000
 90
        0
280
     0
281
     0
  0
CLASS
  1
LONG_TRANSACTION
  2
AcDbLongTransaction
  3
ObjectDBX Classes
 90
   -65536
280
     1
281
     0
  0
CLASS
  1
LWPOLYLINE
  2
AcDbPolyline
  3
AutoCAD 2000
 90
        0
280
     0
281
     1
  0
CLASS
  1
HATCH
  2
AcDbHatch
  3
AutoCAD 2000
 90
        0
280
     0
281
     1
  0
CLASS
  1
XRECORD
  2
AcDbXrecord
  3
AutoCAD 2000
 90
        0
280
     0
281
     0
  0
CLASS
  1
LONG_TRANSACTION
  2
AcDbLongTransaction
  3
ObjectDBX Classes
 90
   -65536
280
     1
281
     0
  0
CLASS
  1
LWPOLYLINE
  2
AcDbPolyline
  3
AutoCAD 2000
 90
        0
280
     0
281
     1
  0
CLASS
  1
HATCH
  2
AcDbHatch
  3
AutoCAD 2000
 90
        0
280
     0
281
     1
  0
CLASS
  1
XRECORD
  2
AcDbXrecord
  3
AutoCAD 2000
 90
        0
280
     0
281
     0
  0
CLASS
  1
LONG_TRANSACTION
  2
AcDbLongTransaction
  3
ObjectDBX Classes
 90
   -65536
280
     1
281
     0
  0
CLASS
  1
LWPOLYLINE
  2
AcDbPolyline
  3
AutoCAD 2000
 90
        0
280
     0
281
     1
  0
CLASS
  1
HATCH
  2
AcDbHatch
  3
AutoCAD 2000
 90
        0
280
     0
281
     1
  0
CLASS
  1
XRECORD
  2
AcDbXrecord
  3
AutoCAD 2000
 90
        0
280
     0
281
     0
  0
CLASS
  1
TABLESTYLE
  2
AcDbTableStyle
  3
ObjectDBX Classes
 90
     2047
280
     1
281
     0
  0
ENDSEC
  0
SECTION
  2
TABLES
  0
TABLE
  2
VPORT
  5
1D
330
0
100
AcDbSymbolTable
 70
     3
  0
VPORT
  5
281
330
1D
100
AcDbSymbolTableRecord
100
AcDbViewportTableRecord
  2
*Active
 70
     0
 10
0.0
 20
0.0
 11
1.0
 21
1.0
 12
14.19203205380106
 22
13.68969938982529
 13
0.0
 23
0.0
 14
0.03125
 24
0.03125
 15
0.5
 25
0.5
 16
0.0
 26
0.0
 36
1.0
 17
0.0
 27
0.0
 37
0.0
 40
32.42636916667821
 41
1.814583333333333
 42
50.0
 43
0.0
 44
0.0
 50
0.0
 51
0.0
 71
     0
 72
   100
 73
     1
 74
     0
 75
     0
 76
     0
 77
     0
 78
     0
281
     0
 65
     1
110
0.0
120
0.0
130
0.0
111
1.0
121
0.0
131
0.0
112
0.0
122
1.0
132
0.0
 79
     0
146
0.0
  0
ENDTAB
  0
TABLE
  2
LTYPE
  5
18
330
0
100
AcDbSymbolTable
 70
     2
  0
LTYPE
  5
19
330
18
100
AcDbSymbolTableRecord
100
AcDbLinetypeTableRecord
  2
BYBLOCK
 70
     0
  3

 72
    65
 73
     0
 40
0.0
  0
LTYPE
  5
1A
330
18
100
AcDbSymbolTableRecord
100
AcDbLinetypeTableRecord
  2
BYLAYER
 70
     0
  3

 72
    65
 73
     0
 40
0.0
  0
LTYPE
  5
A
330
18
100
AcDbSymbolTableRecord
100
AcDbLinetypeTableRecord
  2
CONTINUOUS
 70
     0
  3
Solid line
 72
    65
 73
     0
 40
0.0
  0
LTYPE
  5
25E
330
18
100
AcDbSymbolTableRecord
100
AcDbLinetypeTableRecord
  2
HIDDEN
 70
     0
  3
Hidden __ __ __ __ __ __ __ __ __ __ __ __ __ _
 72
    65
 73
     2
 40
0.375
 49
0.25
 74
     0
 49
-0.125
 74
     0
  0
ENDTAB
  0
TABLE
  2
LAYER
  5
14
330
0
100
AcDbSymbolTable
 70
     1
  0
LAYER
  5
6
330
14
100
AcDbSymbolTableRecord
100
AcDbLayerTableRecord
  2
0
 70
     0
 62
     7
  6
CONTINUOUS
370
    -3
390
7
  0
ENDTAB
  0
TABLE
  2
STYLE
  5
15
330
0
100
AcDbSymbolTable
 70
     1
  0
STYLE
  5
16
330
15
100
AcDbSymbolTableRecord
100
AcDbTextStyleTableRecord
  2
STANDARD
 70
     0
 40
0.0
 41
1.0
 50
0.0
 71
     0
 42
0.27
  3
txt
  4

  0
ENDTAB
  0
TABLE
  2
VIEW
  5
1B
330
0
100
AcDbSymbolTable
 70
     0
  0
ENDTAB
  0
TABLE
  2
UCS
  5
1C
330
0
100
AcDbSymbolTable
 70
     0
  0
ENDTAB
  0
TABLE
  2
APPID
  5
1F
330
0
100
AcDbSymbolTable
 70
     1
  0
APPID
  5
20
330
1F
100
AcDbSymbolTableRecord
100
AcDbRegAppTableRecord
  2
ACAD
 70
     0
  0
ENDTAB
  0
TABLE
  2
DIMSTYLE
  5
21
330
0
100
AcDbSymbolTable
 70
     1
100
AcDbDimStyleTable
  0
DIMSTYLE
105
22
330
21
100
AcDbSymbolTableRecord
100
AcDbDimStyleTableRecord
  2
STANDARD
 70
     0
  3

  4

340
16
  0
ENDTAB
  0
TABLE
  2
BLOCK_RECORD
  5
1
330
0
100
AcDbSymbolTable
 70
     0
  0
BLOCK_RECORD
  5
2
330
1
100
AcDbSymbolTableRecord
100
AcDbBlockTableRecord
  2
*MODEL_SPACE
340
C
  0
BLOCK_RECORD
  5
E
330
1
100
AcDbSymbolTableRecord
100
AcDbBlockTableRecord
  2
*PAPER_SPACE
340
13
  0
ENDTAB
  0
ENDSEC
  0
SECTION
  2
BLOCKS
  0
BLOCK
  5
5
330
2
100
AcDbEntity
  8
0
100
AcDbBlockBegin
  2
*MODEL_SPACE
 70
     0
 10
0.0
 20
0.0
 30
0.0
  3
*MODEL_SPACE
  1

  4

  0
ENDBLK
  5
B
330
2
100
AcDbEntity
  8
0
100
AcDbBlockEnd
  0
BLOCK
  5
11
330
E
100
AcDbEntity
 67
     1
  8
0
100
AcDbBlockBegin
  2
*PAPER_SPACE
 70
     0
 10
0.0
 20
0.0
 30
0.0
  3
*PAPER_SPACE
  1

  4

  0
ENDBLK
  5
12
330
E
100
AcDbEntity
 67
     1
  8
0
100
AcDbBlockEnd
  0
ENDSEC
  0
SECTION
  2
ENTITIES
  0
LINE
  5
8B
330
2
100
AcDbEntity
  8
0
100
AcDbLine
 10
-0.3847738961509091
 20
5.947365568435657
 30
0.0
 11
-0.3847738961509091
 21
6.572365568435657
 31
0.0
  0
LINE
  5
8C
330
2
100
AcDbEntity
  8
0
100
AcDbLine
 10
0.5527261038490909
 20
0.3417687069261959
 30
0.0
 11
0.5527261038490909
 21
8.259865568435657
 31
0.0
  0
LINE
  5
8D
330
2
100
AcDbEntity
  8
0
100
AcDbLine
 10
0.6152261038490909
 20
0.431027957347581
 30
0.0
 11
0.6152261038490909
 21
8.259865568435657
 31
0.0
  0
LINE
  5
DD
330
2
100
AcDbEntity
  8
0
100
AcDbLine
 10
-0.447273896150902
 20
1.038961838947309
 30
0.0
 11
-0.447273896150902
 21
1.472961838947306
 31
0.0
  0
LINE
  5
DE
330
2
100
AcDbEntity
  8
0
100
AcDbLine
 10
-1.613341424376381
 20
0.1045996975063659
 30
0.0
 11
-0.4102267474946952
 21
1.811864630887108
 31
0.0
  0
LINE
  5
DF
330
2
100
AcDbEntity
  8
0
100
AcDbLine
 10
-1.635947418840258
 20
0.0
 30
0.0
 11
0.3640525811597417
 21
0.0
 31
0.0
  0
LINE
  5
E0
330
2
100
AcDbEntity
  8
0
100
AcDbLine
 10
-1.635947418840258
 20
0.0
 30
0.0
 11
-1.635947418840258
 21
0.0329026429624975
 31
0.0
  0
ARC
  5
E1
330
2
100
AcDbEntity
  8
0
100
AcDbCircle
 10
-1.510947418840258
 20
0.0329026429624832
 30
0.0
 40
0.125
100
AcDbArc
 50
144.9999999999999
 51
180.0
  0
LINE
  5
E5
330
2
100
AcDbEntity
  8
0
100
AcDbLine
 10
0.3866585756236152
 20
0.1045996975063872
 30
0.0
 11
0.6152261038490909
 21
0.431027957347581
 31
0.0
  0
LINE
  5
E6
330
2
100
AcDbEntity
  8
0
100
AcDbLine
 10
0.3640525811597417
 20
0.0
 30
0.0
 11
0.3640525811597417
 21
0.0329026429625117
 31
0.0
  0
LINE
  5
E7
330
2
100
AcDbEntity
  8
0
100
AcDbLine
 10
0.3640525811597417
 20
0.0000000000000142
 30
0.0
 11
0.3640525811597417
 21
0.0329028366059561
 31
0.0
  0
ARC
  5
E8
330
2
100
AcDbEntity
  8
0
100
AcDbCircle
 10
0.4890525811597417
 20
0.0329026429624975
 30
0.0
 40
0.125
100
AcDbArc
 50
144.9999999999999
 51
180.0
  0
LINE
  5
EA
330
2
100
AcDbEntity
  8
0
100
AcDbLine
 10
-0.6967738961509138
 20
3.577565568435659
 30
0.0
 11
-0.6967738961509138
 21
2.942165568435662
 31
0.0
  0
LINE
  5
EB
330
2
100
AcDbEntity
  8
0
100
AcDbLine
 10
-0.3847738961509091
 20
1.906188390419857
 30
0.0
 11
-0.3847738961509091
 21
2.572365568435657
 31
0.0
  0
ARC
  5
ED
330
2
100
AcDbEntity
  8
0
100
AcDbCircle
 10
-0.5722738961509091
 20
1.906188390419857
 30
0.0
 40
0.1875
100
AcDbArc
 50
329.7973413166036
 51
0.0
  0
ARC
  5
EE
330
2
100
AcDbEntity
  8
0
100
AcDbCircle
 10
0.5527261038490909
 20
2.010395568435655
 30
0.0
 40
0.156
100
AcDbArc
 50
90.0
 51
270.0
  0
ARC
  5
F2
330
2
100
AcDbEntity
  8
0
100
AcDbCircle
 10
-0.5092738961509138
 20
2.942165568435662
 30
0.0
 40
0.1875
100
AcDbArc
 50
180.0
 51
250.3666411024315
  0
LINE
  5
F3
330
2
100
AcDbEntity
  8
0
100
AcDbLine
 10
-0.447273896150902
 20
2.881095542321162
 30
0.0
 11
-0.447273896150902
 21
3.31509554232116
 31
0.0
  0
ARC
  5
F4
330
2
100
AcDbEntity
  8
0
100
AcDbCircle
 10
-0.5722738961509091
 20
2.572365568435657
 30
0.0
 40
0.1875
100
AcDbArc
 50
0.0
 51
90.0
  0
ARC
  5
F9
330
2
100
AcDbEntity
  8
0
100
AcDbCircle
 10
-0.5722738961509091
 20
4.572365568435657
 30
0.0
 40
0.1875
100
AcDbArc
 50
0.0
 51
90.0
  0
ARC
  5
FA
330
2
100
AcDbEntity
  8
0
100
AcDbCircle
 10
-0.5092738961509138
 20
4.942165568435662
 30
0.0
 40
0.1875
100
AcDbArc
 50
180.0
 51
250.3666411024315
  0
LINE
  5
FB
330
2
100
AcDbEntity
  8
0
100
AcDbLine
 10
-0.3847738961509091
 20
3.947365568435657
 30
0.0
 11
-0.3847738961509091
 21
4.572365568435657
 31
0.0
  0
ARC
  5
FC
330
2
100
AcDbEntity
  8
0
100
AcDbCircle
 10
-0.5092738961509138
 20
3.577565568435659
 30
0.0
 40
0.1875
100
AcDbArc
 50
90.0
 51
180.0
  0
ARC
  5
FD
330
2
100
AcDbEntity
  8
0
100
AcDbCircle
 10
-0.5722738961509091
 20
3.947365568435657
 30
0.0
 40
0.1875
100
AcDbArc
 50
289.6333588975897
 51
0.0
  0
LINE
  5
100
330
2
100
AcDbEntity
  8
0
100
AcDbLine
 10
-0.6967738961509138
 20
4.942165356650364
 30
0.0
 11
-0.6967738961509138
 21
5.577565568435659
 31
0.0
  0
LINE
  5
105
330
2
100
AcDbEntity
  8
0
100
AcDbLine
 10
-0.447273896150902
 20
4.886225542321171
 30
0.0
 11
-0.447273896150902
 21
5.320225542321168
 31
0.0
  0
ARC
  5
106
330
2
100
AcDbEntity
  8
0
100
AcDbCircle
 10
-0.5722738961509091
 20
5.947365568435657
 30
0.0
 40
0.1875
100
AcDbArc
 50
289.6333588975897
 51
0.0
  0
ARC
  5
107
330
2
100
AcDbEntity
  8
0
100
AcDbCircle
 10
-0.5092738961509138
 20
5.577565568435659
 30
0.0
 40
0.1875
100
AcDbArc
 50
90.0
 51
180.0
  0
LINE
  5
142
330
2
100
AcDbEntity
  8
0
100
AcDbLine
 10
-0.6967738961509138
 20
6.942165568435662
 30
0.0
 11
-0.6967738961509138
 21
7.577565796379595
 31
0.0
  0
ARC
  5
143
330
2
100
AcDbEntity
  8
0
100
AcDbCircle
 10
-0.5835634339687896
 20
6.567025925144598
 30
0.0
 40
0.198861238395826
100
AcDbArc
 50
1.53863971592008
 51
86.74551543805441
  0
ARC
  5
144
330
2
100
AcDbEntity
  8
0
100
AcDbCircle
 10
-0.5092738961509138
 20
6.942165568435662
 30
0.0
 40
0.1875
100
AcDbArc
 50
180.0
 51
250.3666411024315
  0
LINE
  5
145
330
2
100
AcDbEntity
  8
0
100
AcDbLine
 10
-0.3847738961509091
 20
8.259865568435657
 30
0.0
 11
0.6152261038490909
 21
8.259865568435657
 31
0.0
  0
ARC
  5
146
330
2
100
AcDbEntity
  8
0
100
AcDbCircle
 10
-0.5722738961509091
 20
7.947365568435657
 30
0.0
 40
0.1875
100
AcDbArc
 50
282.7464137083816
 51
0.0
  0
ARC
  5
147
330
2
100
AcDbEntity
  8
0
100
AcDbCircle
 10
-0.5086131074751048
 20
7.577650589944589
 30
0.0
 40
0.1881608078845258
100
AcDbArc
 50
96.80382717680557
 51
180.0258894179414
  0
LINE
  5
148
330
2
100
AcDbEntity
  8
0
100
AcDbLine
 10
-0.3847738961509091
 20
7.947365568435657
 30
0.0
 11
-0.3847738961509091
 21
8.259865568435657
 31
0.0
  0
LINE
  5
149
330
2
100
AcDbEntity
  8
0
100
AcDbLine
 10
0.5527261038490909
 20
7.853615568435657
 30
0.0
 11
0.2402261038490909
 21
7.603615568435657
 31
0.0
  0
LINE
  5
14A
330
2
100
AcDbEntity
  8
0
100
AcDbLine
 10
0.2402261038490909
 20
7.603615568435657
 30
0.0
 11
0.5527261038490909
 21
7.416115568435657
 31
0.0
  0
LINE
  5
14B
330
2
100
AcDbEntity
  8
0
100
AcDbLine
 10
0.3313161038490922
 20
7.608005568435658
 30
0.0
 11
0.5527261038490909
 21
7.791115568435657
 31
0.0
  0
LINE
  5
14C
330
2
100
AcDbEntity
  8
0
100
AcDbLine
 10
0.5527261038490909
 20
7.416115568435657
 30
0.0
 11
0.5527261038490909
 21
7.478615568435657
 31
0.0
  0
LINE
  5
14D
330
2
100
AcDbEntity
  8
0
100
AcDbLine
 10
0.5527261038490909
 20
7.478615568435657
 30
0.0
 11
0.3313161038490922
 21
7.608005568435658
 31
0.0
  0
ARC
  5
1FC
330
2
100
AcDbEntity
  8
0
100
AcDbCircle
 10
-0.4472738961508913
 20
1.158387365326494
 30
0.0
 40
0.0734255263791788
100
AcDbArc
 50
269.9999999999917
 51
302.6079210151868
  0
ARC
  5
1FD
330
2
100
AcDbEntity
  8
0
100
AcDbCircle
 10
-0.4771444911184073
 20
1.205080489630941
 30
0.0
 40
0.1288556653021863
100
AcDbArc
 50
302.6079210151953
 51
327.0773280975511
  0
ARC
  5
1FE
330
2
100
AcDbEntity
  8
0
100
AcDbCircle
 10
-0.5246078814133615
 20
1.235812582174116
 30
0.0
 40
0.1853997625217313
100
AcDbArc
 50
327.0773280975416
 51
344.9866289979941
  0
ARC
  5
1FF
330
2
100
AcDbEntity
  8
0
100
AcDbCircle
 10
-0.599735797230375
 20
1.255961838947293
 30
0.0
 40
0.2631827702002704
100
AcDbArc
 50
344.986628998006
 51
0.0000000000030938
  0
ARC
  5
200
330
2
100
AcDbEntity
  8
0
100
AcDbCircle
 10
-0.5997357972303679
 20
1.255961838947322
 30
0.0
 40
0.2631827702002632
100
AcDbArc
 50
359.9999999999969
 51
15.01337100199443
  0
ARC
  5
201
330
2
100
AcDbEntity
  8
0
100
AcDbCircle
 10
-0.5246078814133544
 20
1.276111095720502
 30
0.0
 40
0.1853997625217234
100
AcDbArc
 50
15.01337100200542
 51
32.92267190245869
  0
ARC
  5
202
330
2
100
AcDbEntity
  8
0
100
AcDbCircle
 10
-0.4771444911184108
 20
1.30684318826367
 30
0.0
 40
0.1288556653021905
100
AcDbArc
 50
32.92267190244941
 51
57.39207898480424
  0
ARC
  5
203
330
2
100
AcDbEntity
  8
0
100
AcDbCircle
 10
-0.4472738961508913
 20
1.353536312568117
 30
0.0
 40
0.0734255263791815
100
AcDbArc
 50
57.39207898481474
 51
90.00000000000831
  0
ARC
  5
204
330
2
100
AcDbEntity
  8
0
100
AcDbCircle
 10
-0.3642335183372598
 20
1.210234663110526
 30
0.0
 40
0.242397530879118
100
AcDbArc
 50
50.43639217035425
 51
55.25172445454089
  0
ARC
  5
205
330
2
100
AcDbEntity
  8
0
100
AcDbCircle
 10
-0.4144237250347143
 20
1.137881129456954
 30
0.0
 40
0.330454845626343
100
AcDbArc
 50
55.25172445458021
 51
64.66892074214606
  0
ARC
  5
206
330
2
100
AcDbEntity
  8
0
100
AcDbCircle
 10
-0.2876545867453952
 20
1.255961838947336
 30
0.0
 40
0.153205001069999
100
AcDbArc
 50
336.9842081995419
 51
359.9999999999894
  0
ARC
  5
207
330
2
100
AcDbEntity
  8
0
100
AcDbCircle
 10
-0.2876545867453952
 20
1.255961838947279
 30
0.0
 40
0.153205001069999
100
AcDbArc
 50
0.0000000000106292
 51
23.01579180045814
  0
ARC
  5
208
330
2
100
AcDbEntity
  8
0
100
AcDbCircle
 10
-0.447273896150902
 20
1.488370937358539
 30
0.0
 40
0.4494090984112305
100
AcDbArc
 50
270.0
 51
284.3044795065292
  0
ARC
  5
209
330
2
100
AcDbEntity
  8
0
100
AcDbCircle
 10
-0.447273896150902
 20
1.181241447767832
 30
0.0
 40
0.0502796088205244
100
AcDbArc
 50
270.0
 51
303.5108229556709
  0
ARC
  5
20A
330
2
100
AcDbEntity
  8
0
100
AcDbCircle
 10
-0.4709209840941053
 20
1.21695364167314
 30
0.0
 40
0.0931112041880084
100
AcDbArc
 50
303.5108229556701
 51
327.9718933333913
  0
ARC
  5
20B
330
2
100
AcDbEntity
  8
0
100
AcDbCircle
 10
-0.5085734162881632
 20
1.240507183040631
 30
0.0
 40
0.1375237582811734
100
AcDbArc
 50
327.9718933333988
 51
345.4734521832093
  0
ARC
  5
20C
330
2
100
AcDbEntity
  8
0
100
AcDbCircle
 10
-0.568218114603555
 20
1.255961838947322
 30
0.0
 40
0.1991381756388689
100
AcDbArc
 50
345.4734521831987
 51
359.9999999999959
  0
ARC
  5
20D
330
2
100
AcDbEntity
  8
0
100
AcDbCircle
 10
-0.5682181146036118
 20
1.2559618389473
 30
0.0
 40
0.1991381756389252
100
AcDbArc
 50
0.0000000000020444
 51
14.5265478167992
  0
ARC
  5
20E
330
2
100
AcDbEntity
  8
0
100
AcDbCircle
 10
-0.5085734162881064
 20
1.271416494853995
 30
0.0
 40
0.1375237582811191
100
AcDbArc
 50
14.52654781679805
 51
32.02810666661003
  0
ARC
  5
20F
330
2
100
AcDbEntity
  8
0
100
AcDbCircle
 10
-0.4709209840941053
 20
1.294970036221471
 30
0.0
 40
0.093111204188011
100
AcDbArc
 50
32.02810666661055
 51
56.48917704433114
  0
ARC
  5
210
330
2
100
AcDbEntity
  8
0
100
AcDbCircle
 10
-0.447273896150902
 20
1.330682230126783
 30
0.0
 40
0.050279608820524
100
AcDbArc
 50
56.48917704432905
 51
90.0
  0
ARC
  5
211
330
2
100
AcDbEntity
  8
0
100
AcDbCircle
 10
-0.4144237250347214
 20
1.374042548437622
 30
0.0
 40
0.330454845626311
100
AcDbArc
 50
295.331079257858
 51
304.7482755454237
  0
ARC
  5
212
330
2
100
AcDbEntity
  8
0
100
AcDbCircle
 10
-0.3642335183372421
 20
1.301689014784145
 30
0.0
 40
0.2423975308791505
100
AcDbArc
 50
304.7482755454466
 51
309.563607829634
  0
ARC
  5
213
330
2
100
AcDbEntity
  8
0
100
AcDbCircle
 10
-0.4472738961509588
 20
1.023552740536083
 30
0.0
 40
0.4494090984112377
100
AcDbArc
 50
75.69552049346355
 51
89.99999999999277
  0
ARC
  5
214
330
2
100
AcDbEntity
  8
0
100
AcDbCircle
 10
-0.447273896150902
 20
3.330504640732393
 30
0.0
 40
0.4494090984112305
100
AcDbArc
 50
270.0
 51
284.3044795065292
  0
ARC
  5
215
330
2
100
AcDbEntity
  8
0
100
AcDbCircle
 10
-0.2876545867453952
 20
3.09809554232119
 30
0.0
 40
0.153205001069999
100
AcDbArc
 50
336.9842081995419
 51
359.9999999999894
  0
ARC
  5
216
330
2
100
AcDbEntity
  8
0
100
AcDbCircle
 10
-0.2876545867453952
 20
3.098095542321133
 30
0.0
 40
0.153205001069999
100
AcDbArc
 50
0.0000000000106292
 51
23.01579180045814
  0
ARC
  5
217
330
2
100
AcDbEntity
  8
0
100
AcDbCircle
 10
-0.4472738961508913
 20
3.000521068700348
 30
0.0
 40
0.0734255263791788
100
AcDbArc
 50
269.9999999999917
 51
302.6079210151868
  0
ARC
  5
218
330
2
100
AcDbEntity
  8
0
100
AcDbCircle
 10
-0.4771444911184073
 20
3.047214193004795
 30
0.0
 40
0.1288556653021863
100
AcDbArc
 50
302.6079210151953
 51
327.0773280975511
  0
ARC
  5
219
330
2
100
AcDbEntity
  8
0
100
AcDbCircle
 10
-0.5246078814133615
 20
3.07794628554797
 30
0.0
 40
0.1853997625217313
100
AcDbArc
 50
327.0773280975416
 51
344.9866289979941
  0
ARC
  5
21A
330
2
100
AcDbEntity
  8
0
100
AcDbCircle
 10
-0.599735797230375
 20
3.098095542321147
 30
0.0
 40
0.2631827702002704
100
AcDbArc
 50
344.986628998006
 51
0.0000000000030938
  0
ARC
  5
21B
330
2
100
AcDbEntity
  8
0
100
AcDbCircle
 10
-0.5997357972303679
 20
3.098095542321175
 30
0.0
 40
0.2631827702002632
100
AcDbArc
 50
359.9999999999969
 51
15.01337100199443
  0
ARC
  5
21C
330
2
100
AcDbEntity
  8
0
100
AcDbCircle
 10
-0.5246078814133544
 20
3.118244799094356
 30
0.0
 40
0.1853997625217234
100
AcDbArc
 50
15.01337100200542
 51
32.92267190245869
  0
ARC
  5
21D
330
2
100
AcDbEntity
  8
0
100
AcDbCircle
 10
-0.4771444911184108
 20
3.148976891637524
 30
0.0
 40
0.1288556653021905
100
AcDbArc
 50
32.92267190244941
 51
57.39207898480424
  0
ARC
  5
21E
330
2
100
AcDbEntity
  8
0
100
AcDbCircle
 10
-0.4472738961508913
 20
3.195670015941971
 30
0.0
 40
0.0734255263791815
100
AcDbArc
 50
57.39207898481474
 51
90.00000000000831
  0
ARC
  5
21F
330
2
100
AcDbEntity
  8
0
100
AcDbCircle
 10
-0.447273896150902
 20
3.023375151141686
 30
0.0
 40
0.0502796088205244
100
AcDbArc
 50
270.0
 51
303.5108229556709
  0
ARC
  5
220
330
2
100
AcDbEntity
  8
0
100
AcDbCircle
 10
-0.4709209840941053
 20
3.059087345046994
 30
0.0
 40
0.0931112041880084
100
AcDbArc
 50
303.5108229556701
 51
327.9718933333913
  0
ARC
  5
221
330
2
100
AcDbEntity
  8
0
100
AcDbCircle
 10
-0.5085734162881632
 20
3.082640886414485
 30
0.0
 40
0.1375237582811734
100
AcDbArc
 50
327.9718933333988
 51
345.4734521832093
  0
ARC
  5
222
330
2
100
AcDbEntity
  8
0
100
AcDbCircle
 10
-0.568218114603555
 20
3.098095542321175
 30
0.0
 40
0.1991381756388689
100
AcDbArc
 50
345.4734521831987
 51
359.9999999999959
  0
ARC
  5
223
330
2
100
AcDbEntity
  8
0
100
AcDbCircle
 10
-0.5682181146036118
 20
3.098095542321154
 30
0.0
 40
0.1991381756389252
100
AcDbArc
 50
0.0000000000020444
 51
14.5265478167992
  0
ARC
  5
224
330
2
100
AcDbEntity
  8
0
100
AcDbCircle
 10
-0.5085734162881064
 20
3.113550198227848
 30
0.0
 40
0.1375237582811191
100
AcDbArc
 50
14.52654781679805
 51
32.02810666661003
  0
ARC
  5
225
330
2
100
AcDbEntity
  8
0
100
AcDbCircle
 10
-0.4709209840941053
 20
3.137103739595325
 30
0.0
 40
0.093111204188011
100
AcDbArc
 50
32.02810666661055
 51
56.48917704433114
  0
ARC
  5
226
330
2
100
AcDbEntity
  8
0
100
AcDbCircle
 10
-0.447273896150902
 20
3.172815933500637
 30
0.0
 40
0.050279608820524
100
AcDbArc
 50
56.48917704432905
 51
90.0
  0
ARC
  5
227
330
2
100
AcDbEntity
  8
0
100
AcDbCircle
 10
-0.4472738961509588
 20
2.865686443909937
 30
0.0
 40
0.4494090984112377
100
AcDbArc
 50
75.69552049346355
 51
89.99999999999277
  0
ARC
  5
228
330
2
100
AcDbEntity
  8
0
100
AcDbCircle
 10
-0.4144237250347214
 20
3.216176251811476
 30
0.0
 40
0.330454845626311
100
AcDbArc
 50
295.331079257858
 51
304.7482755454237
  0
ARC
  5
229
330
2
100
AcDbEntity
  8
0
100
AcDbCircle
 10
-0.3642335183372421
 20
3.143822718157999
 30
0.0
 40
0.2423975308791505
100
AcDbArc
 50
304.7482755454466
 51
309.563607829634
  0
ARC
  5
22A
330
2
100
AcDbEntity
  8
0
100
AcDbCircle
 10
-0.3642335183372598
 20
3.05236836648438
 30
0.0
 40
0.242397530879118
100
AcDbArc
 50
50.43639217035425
 51
55.25172445454089
  0
ARC
  5
22B
330
2
100
AcDbEntity
  8
0
100
AcDbCircle
 10
-0.4144237250347143
 20
2.980014832830808
 30
0.0
 40
0.330454845626343
100
AcDbArc
 50
55.25172445458021
 51
64.66892074214606
  0
ARC
  5
22C
330
2
100
AcDbEntity
  8
0
100
AcDbCircle
 10
-0.2876545867453952
 20
5.103225542321198
 30
0.0
 40
0.153205001069999
100
AcDbArc
 50
336.9842081995419
 51
359.9999999999894
  0
ARC
  5
22D
330
2
100
AcDbEntity
  8
0
100
AcDbCircle
 10
-0.2876545867453952
 20
5.103225542321141
 30
0.0
 40
0.153205001069999
100
AcDbArc
 50
0.0000000000106292
 51
23.01579180045814
  0
ARC
  5
22E
330
2
100
AcDbEntity
  8
0
100
AcDbCircle
 10
-0.447273896150902
 20
5.028505151141694
 30
0.0
 40
0.0502796088205244
100
AcDbArc
 50
270.0
 51
303.5108229556709
  0
ARC
  5
22F
330
2
100
AcDbEntity
  8
0
100
AcDbCircle
 10
-0.4709209840941053
 20
5.064217345047002
 30
0.0
 40
0.0931112041880084
100
AcDbArc
 50
303.5108229556701
 51
327.9718933333913
  0
ARC
  5
230
330
2
100
AcDbEntity
  8
0
100
AcDbCircle
 10
-0.5085734162881632
 20
5.087770886414493
 30
0.0
 40
0.1375237582811734
100
AcDbArc
 50
327.9718933333988
 51
345.4734521832093
  0
ARC
  5
231
330
2
100
AcDbEntity
  8
0
100
AcDbCircle
 10
-0.568218114603555
 20
5.103225542321184
 30
0.0
 40
0.1991381756388689
100
AcDbArc
 50
345.4734521831987
 51
359.9999999999959
  0
ARC
  5
232
330
2
100
AcDbEntity
  8
0
100
AcDbCircle
 10
-0.5682181146036118
 20
5.103225542321162
 30
0.0
 40
0.1991381756389252
100
AcDbArc
 50
0.0000000000020444
 51
14.5265478167992
  0
ARC
  5
233
330
2
100
AcDbEntity
  8
0
100
AcDbCircle
 10
-0.5085734162881064
 20
5.118680198227857
 30
0.0
 40
0.1375237582811191
100
AcDbArc
 50
14.52654781679805
 51
32.02810666661003
  0
ARC
  5
234
330
2
100
AcDbEntity
  8
0
100
AcDbCircle
 10
-0.4709209840941053
 20
5.142233739595334
 30
0.0
 40
0.093111204188011
100
AcDbArc
 50
32.02810666661055
 51
56.48917704433114
  0
ARC
  5
235
330
2
100
AcDbEntity
  8
0
100
AcDbCircle
 10
-0.447273896150902
 20
5.177945933500645
 30
0.0
 40
0.050279608820524
100
AcDbArc
 50
56.48917704432905
 51
90.0
  0
ARC
  5
236
330
2
100
AcDbEntity
  8
0
100
AcDbCircle
 10
-0.4472738961508913
 20
5.005651068700356
 30
0.0
 40
0.0734255263791788
100
AcDbArc
 50
269.9999999999917
 51
302.6079210151868
  0
ARC
  5
237
330
2
100
AcDbEntity
  8
0
100
AcDbCircle
 10
-0.4771444911184073
 20
5.052344193004803
 30
0.0
 40
0.1288556653021863
100
AcDbArc
 50
302.6079210151953
 51
327.0773280975511
  0
ARC
  5
238
330
2
100
AcDbEntity
  8
0
100
AcDbCircle
 10
-0.5246078814133615
 20
5.083076285547978
 30
0.0
 40
0.1853997625217313
100
AcDbArc
 50
327.0773280975416
 51
344.9866289979941
  0
ARC
  5
239
330
2
100
AcDbEntity
  8
0
100
AcDbCircle
 10
-0.599735797230375
 20
5.103225542321155
 30
0.0
 40
0.2631827702002704
100
AcDbArc
 50
344.986628998006
 51
0.0000000000030938
  0
ARC
  5
23A
330
2
100
AcDbEntity
  8
0
100
AcDbCircle
 10
-0.5997357972303679
 20
5.103225542321184
 30
0.0
 40
0.2631827702002632
100
AcDbArc
 50
359.9999999999969
 51
15.01337100199443
  0
ARC
  5
23B
330
2
100
AcDbEntity
  8
0
100
AcDbCircle
 10
-0.5246078814133544
 20
5.123374799094364
 30
0.0
 40
0.1853997625217234
100
AcDbArc
 50
15.01337100200542
 51
32.92267190245869
  0
ARC
  5
23C
330
2
100
AcDbEntity
  8
0
100
AcDbCircle
 10
-0.4771444911184108
 20
5.154106891637532
 30
0.0
 40
0.1288556653021905
100
AcDbArc
 50
32.92267190244941
 51
57.39207898480424
  0
ARC
  5
23D
330
2
100
AcDbEntity
  8
0
100
AcDbCircle
 10
-0.4472738961508913
 20
5.200800015941979
 30
0.0
 40
0.0734255263791815
100
AcDbArc
 50
57.39207898481474
 51
90.00000000000831
  0
ARC
  5
23E
330
2
100
AcDbEntity
  8
0
100
AcDbCircle
 10
-0.447273896150902
 20
5.335634640732401
 30
0.0
 40
0.4494090984112305
100
AcDbArc
 50
270.0
 51
284.3044795065292
  0
ARC
  5
23F
330
2
100
AcDbEntity
  8
0
100
AcDbCircle
 10
-0.4472738961509588
 20
4.870816443909945
 30
0.0
 40
0.4494090984112377
100
AcDbArc
 50
75.69552049346355
 51
89.99999999999277
  0
ARC
  5
240
330
2
100
AcDbEntity
  8
0
100
AcDbCircle
 10
-0.4144237250347214
 20
5.221306251811484
 30
0.0
 40
0.330454845626311
100
AcDbArc
 50
295.331079257858
 51
304.7482755454237
  0
ARC
  5
241
330
2
100
AcDbEntity
  8
0
100
AcDbCircle
 10
-0.3642335183372421
 20
5.148952718158007
 30
0.0
 40
0.2423975308791505
100
AcDbArc
 50
304.7482755454466
 51
309.563607829634
  0
ARC
  5
242
330
2
100
AcDbEntity
  8
0
100
AcDbCircle
 10
-0.3642335183372598
 20
5.057498366484388
 30
0.0
 40
0.242397530879118
100
AcDbArc
 50
50.43639217035425
 51
55.25172445454089
  0
ARC
  5
243
330
2
100
AcDbEntity
  8
0
100
AcDbCircle
 10
-0.4144237250347143
 20
4.985144832830816
 30
0.0
 40
0.330454845626343
100
AcDbArc
 50
55.25172445458021
 51
64.66892074214606
  0
LINE
  5
26B
330
2
100
AcDbEntity
  8
0
  6
HIDDEN
100
AcDbLine
 10
-1.632392865261249
 20
0.0625
 30
0.0
 11
0.3676071347387477
 21
0.0625
 31
0.0
  0
ENDSEC
  0
SECTION
  2
OBJECTS
  0
DICTIONARY
  5
9
330
0
100
AcDbDictionary
281
     1
  3
ACAD_COLOR
350
257
  3
ACAD_GROUP
350
24
  3
ACAD_LAYOUT
350
D
  3
ACAD_MATERIAL
350
256
  3
ACAD_MLINESTYLE
350
25
  3
ACAD_PLOTSETTINGS
350
26
  3
ACAD_PLOTSTYLENAME
350
8
  3
ACAD_TABLESTYLE
350
258
  3
ACDBHEADERROUNDTRIPXREC
350
288
  3
AcDbVariableDictionary
350
14E
  0
DICTIONARY
  5
257
102
{ACAD_REACTORS
330
9
102
}
330
9
100
AcDbDictionary
281
     1
  0
DICTIONARY
  5
24
102
{ACAD_REACTORS
330
9
102
}
330
9
100
AcDbDictionary
281
     1
  0
DICTIONARY
  5
D
102
{ACAD_REACTORS
330
9
102
}
330
9
100
AcDbDictionary
281
     1
  3
Layout1
350
13
  3
Model
350
C
  0
DICTIONARY
  5
256
102
{ACAD_REACTORS
330
9
102
}
330
9
100
AcDbDictionary
281
     1
  0
DICTIONARY
  5
25
102
{ACAD_REACTORS
330
9
102
}
330
9
100
AcDbDictionary
281
     1
  3
STANDARD
350
28
  0
DICTIONARY
  5
26
102
{ACAD_REACTORS
330
9
102
}
330
9
100
AcDbDictionary
281
     1
  0
ACDBDICTIONARYWDFLT
  5
8
102
{ACAD_REACTORS
330
9
102
}
330
9
100
AcDbDictionary
281
     1
  3
Normal
350
7
100
AcDbDictionaryWithDefault
340
7
  0
DICTIONARY
  5
258
102
{ACAD_REACTORS
330
9
102
}
330
9
100
AcDbDictionary
281
     1
  3
Standard
350
259
  0
DICTIONARY
  5
288
102
{ACAD_REACTORS
330
9
102
}
330
9
100
AcDbDictionary
281
     1
  3
COLORDICT
350
289
  3
MATERIALDICT
350
28A
  0
DICTIONARY
  5
14E
102
{ACAD_REACTORS
330
9
102
}
330
9
100
AcDbDictionary
281
     1
  3
CTABLESTYLE
350
265
  3
HIDETEXT
350
287
  0
LAYOUT
  5
13
102
{ACAD_REACTORS
330
D
102
}
102
{ACAD_XDICTIONARY
360
28B
102
}
330
D
100
AcDbPlotSettings
  1

  2
HP LaserJet 2100 Series PS
  4

  6

 40
0.0
 41
0.0
 42
0.0
 43
0.0
 44
0.0
 45
0.0
 46
0.0
 47
0.0
 48
0.0
 49
0.0
140
0.0
141
0.0
142
1.0
143
1.0
 70
   688
 72
     0
 73
     0
 74
     5
  7

 75
    16
147
1.0
148
0.0
149
0.0
100
AcDbLayout
  1
Layout1
 70
     0
 71
     1
 10
0.0
 20
0.0
 11
12.0
 21
9.0
 12
0.0
 22
0.0
 32
0.0
 14
1.000000000000000E+20
 24
1.000000000000000E+20
 34
1.000000000000000E+20
 15
-1.000000000000000E+20
 25
-1.000000000000000E+20
 35
-1.000000000000000E+20
146
0.0
 13
0.0
 23
0.0
 33
0.0
 16
1.0
 26
0.0
 36
0.0
 17
0.0
 27
1.0
 37
0.0
 76
     0
330
E
  0
LAYOUT
  5
C
102
{ACAD_REACTORS
330
D
102
}
102
{ACAD_XDICTIONARY
360
28D
102
}
330
D
100
AcDbPlotSettings
  1

  2
HP LaserJet 2100 Series PS
  4
Letter
  6

 40
5.365749835968018
 41
5.408084392547607
 42
5.4080810546875
 43
5.365753173828125
 44
215.8999938964844
 45
279.3999938964844
 46
0.0
 47
0.0
 48
0.0
 49
0.0
140
0.0
141
0.0
142
1.0
143
1.0
 70
 11952
 72
     0
 73
     1
 74
     0
  7

 75
     0
147
1.0
148
-338.0822261472657
149
25.39604704401305
100
AcDbLayout
  1
Model
 70
     1
 71
     0
 10
0.0
 20
0.0
 11
12.0
 21
9.0
 12
0.0
 22
0.0
 32
0.0
 14
0.0
 24
0.0
 34
0.0
 15
0.0
 25
0.0
 35
0.0
146
0.0
 13
0.0
 23
0.0
 33
0.0
 16
1.0
 26
0.0
 36
0.0
 17
0.0
 27
1.0
 37
0.0
 76
     0
330
2
  0
MLINESTYLE
  5
28
102
{ACAD_REACTORS
330
25
102
}
330
25
100
AcDbMlineStyle
  2
STANDARD
 70
     0
  3

 62
   256
 51
90.0
 52
90.0
 71
     2
 49
0.5
 62
   256
  6
BYLAYER
 49
-0.5
 62
   256
  6
BYLAYER
  0
ACDBPLACEHOLDER
  5
7
102
{ACAD_REACTORS
330
8
102
}
330
8
  0
ACAD_PROXY_OBJECT
  5
259
102
{ACAD_REACTORS
330
258
102
}
330
258
100
AcDbProxyObject
 90
      499
 91
      541
 95
   983063
 70
     0
 93
     1841
310
4214DD185B99185C9928B81E85EB51B8AE3F2E07A17AD46E2B8FC02B5E8DC0F42B1CFD028000000C1008070000C3001FDFF8000000C1003FBFF000000182007F7FE00000030400FEFFC00000060801FDFF8000000C1003FBFF00000018200000000000000681FA0B0000001820100E000186003FBFF000000182007F7FE000
310
00030400FEFFC00000060801FDFF8000000C1003FBFF000000182007F7FE000000304000AD7A3703D0AC73F4160000003040201C00030C007F7FE00000030400FEFFC00000060801FDFF8000000C1003FBFF000000182007F7FE00000030400FEFFC000000608000
340
16
340
16
340
16
 94
        0
  0
XRECORD
  5
289
102
{ACAD_REACTORS
330
288
102
}
330
288
100
AcDbXrecord
340
257
  0
XRECORD
  5
28A
102
{ACAD_REACTORS
330
288
102
}
330
288
100
AcDbXrecord
340
256
  0
DICTIONARYVAR
  5
265
102
{ACAD_REACTORS
330
14E
102
}
330
14E
100
DictionaryVariables
280
     0
  1
STANDARD
  0
DICTIONARYVAR
  5
287
102
{ACAD_REACTORS
330
14E
102
}
330
14E
100
DictionaryVariables
280
     0
  1
0
  0
DICTIONARY
  5
28B
330
13
100
AcDbDictionary
280
     1
281
     1
  3
ACAD_XREC_ROUNDTRIP
360
28C
  0
DICTIONARY
  5
28D
330
C
100
AcDbDictionary
280
     1
281
     1
  3
ACAD_XREC_ROUNDTRIP
360
28E
  0
XRECORD
  5
28C
102
{ACAD_REACTORS
330
28B
102
}
330
28B
100
AcDbXrecord
102
SHADEPLOT
 70
     0
102
SHADEPLOTRESLEVEL
 70
     2
102
SHADEPLOTCUSTOMDPI
 70
   300
  0
XRECORD
  5
28E
102
{ACAD_REACTORS
330
28D
102
}
330
28D
100
AcDbXrecord
102
SHADEPLOT
 70
     0
102
SHADEPLOTRESLEVEL
 70
     2
102
SHADEPLOTCUSTOMDPI
 70
   300
  0
ENDSEC
  0
EOF
