  0
SECTION
  2
HEADER
  9
$ACADVER
  1
AC1015
  9
$ACADMAINTVER
 70
     6
  9
$DWGCODEPAGE
  3
ANSI_1252
  9
$INSBASE
 10
0.0
 20
0.0
 30
0.0
  9
$EXTMIN
 10
-6.776063881633945
 20
-0.0259546231136198
 30
-0.0000000000112498
  9
$EXTMAX
 10
6.775655921051246
 20
13.908356500549
 30
0.0000000000002956
  9
$LIMMIN
 10
0.0
 20
0.0
  9
$LIMMAX
 10
16.0
 20
21.0
  9
$ORTHOMODE
 70
     1
  9
$REGENMODE
 70
     1
  9
$FILLMODE
 70
     1
  9
$QTEXTMODE
 70
     0
  9
$MIRRTEXT
 70
     0
  9
$LTSCALE
 40
0.5
  9
$ATTMODE
 70
     1
  9
$TEXTSIZE
 40
0.18
  9
$TRACEWID
 40
0.05
  9
$TEXTSTYLE
  7
STANDARD
  9
$CLAYER
  8
0
  9
$CELTYPE
  6
BYLAYER
  9
$CECOLOR
 62
   256
  9
$CELTSCALE
 40
1.0
  9
$DISPSILH
 70
     0
  9
$DIMSCALE
 40
2.0
  9
$DIMASZ
 40
0.125
  9
$DIMEXO
 40
0.062
  9
$DIMDLI
 40
0.375
  9
$DIMRND
 40
0.0
  9
$DIMDLE
 40
0.0
  9
$DIMEXE
 40
0.08
  9
$DIMTP
 40
0.0
  9
$DIMTM
 40
0.0
  9
$DIMTXT
 40
0.09
  9
$DIMCEN
 40
-0.06
  9
$DIMTSZ
 40
0.0
  9
$DIMTOL
 70
     0
  9
$DIMLIM
 70
     0
  9
$DIMTIH
 70
     1
  9
$DIMTOH
 70
     1
  9
$DIMSE1
 70
     0
  9
$DIMSE2
 70
     0
  9
$DIMTAD
 70
     0
  9
$DIMZIN
 70
     0
  9
$DIMBLK
  1

  9
$DIMASO
 70
     0
  9
$DIMSHO
 70
     0
  9
$DIMPOST
  1

  9
$DIMAPOST
  1

  9
$DIMALT
 70
     0
  9
$DIMALTD
 70
     2
  9
$DIMALTF
 40
25.4
  9
$DIMLFAC
 40
1.0
  9
$DIMTOFL
 70
     0
  9
$DIMTVP
 40
0.0
  9
$DIMTIX
 70
     0
  9
$DIMSOXD
 70
     0
  9
$DIMSAH
 70
     0
  9
$DIMBLK1
  1

  9
$DIMBLK2
  1

  9
$DIMSTYLE
  2
STANDARD
  9
$DIMCLRD
 70
     0
  9
$DIMCLRE
 70
     0
  9
$DIMCLRT
 70
     0
  9
$DIMTFAC
 40
1.0
  9
$DIMGAP
 40
0.09
  9
$DIMJUST
 70
     0
  9
$DIMSD1
 70
     0
  9
$DIMSD2
 70
     0
  9
$DIMTOLJ
 70
     1
  9
$DIMTZIN
 70
     0
  9
$DIMALTZ
 70
     0
  9
$DIMALTTZ
 70
     0
  9
$DIMUPT
 70
     0
  9
$DIMDEC
 70
     3
  9
$DIMTDEC
 70
     3
  9
$DIMALTU
 70
     5
  9
$DIMALTTD
 70
     2
  9
$DIMTXSTY
  7
STANDARD
  9
$DIMAUNIT
 70
     0
  9
$DIMADEC
 70
     0
  9
$DIMALTRND
 40
0.0
  9
$DIMAZIN
 70
     0
  9
$DIMDSEP
 70
    46
  9
$DIMATFIT
 70
     3
  9
$DIMFRAC
 70
     0
  9
$DIMLDRBLK
  1

  9
$DIMLUNIT
 70
     2
  9
$DIMLWD
 70
    -2
  9
$DIMLWE
 70
    -2
  9
$DIMTMOVE
 70
     2
  9
$LUNITS
 70
     5
  9
$LUPREC
 70
     5
  9
$SKETCHINC
 40
0.1
  9
$FILLETRAD
 40
0.0
  9
$AUNITS
 70
     0
  9
$AUPREC
 70
     0
  9
$MENU
  1
acad
  9
$ELEVATION
 40
0.0
  9
$PELEVATION
 40
0.0
  9
$THICKNESS
 40
0.0
  9
$LIMCHECK
 70
     0
  9
$CHAMFERA
 40
0.0
  9
$CHAMFERB
 40
0.0
  9
$CHAMFERC
 40
0.0
  9
$CHAMFERD
 40
0.0
  9
$SKPOLY
 70
     0
  9
$TDCREATE
 40
2450717.744391667
  9
$TDUCREATE
 40
2450718.077725
  9
$TDUPDATE
 40
2453812.870968901
  9
$TDUUPDATE
 40
2453813.204302234
  9
$TDINDWG
 40
0.2035253588
  9
$TDUSRTIMER
 40
0.2035253588
  9
$USRTIMER
 70
     1
  9
$ANGBASE
 50
0.0
  9
$ANGDIR
 70
     0
  9
$PDMODE
 70
     0
  9
$PDSIZE
 40
0.0
  9
$PLINEWID
 40
0.0
  9
$SPLFRAME
 70
     0
  9
$SPLINETYPE
 70
     6
  9
$SPLINESEGS
 70
     8
  9
$HANDSEED
  5
37B
  9
$SURFTAB1
 70
     6
  9
$SURFTAB2
 70
     6
  9
$SURFTYPE
 70
     6
  9
$SURFU
 70
     6
  9
$SURFV
 70
     6
  9
$UCSBASE
  2

  9
$UCSNAME
  2

  9
$UCSORG
 10
0.0
 20
0.0
 30
0.0
  9
$UCSXDIR
 10
1.0
 20
0.0
 30
0.0
  9
$UCSYDIR
 10
0.0
 20
1.0
 30
0.0
  9
$UCSORTHOREF
  2

  9
$UCSORTHOVIEW
 70
     0
  9
$UCSORGTOP
 10
0.0
 20
0.0
 30
0.0
  9
$UCSORGBOTTOM
 10
0.0
 20
0.0
 30
0.0
  9
$UCSORGLEFT
 10
0.0
 20
0.0
 30
0.0
  9
$UCSORGRIGHT
 10
0.0
 20
0.0
 30
0.0
  9
$UCSORGFRONT
 10
0.0
 20
0.0
 30
0.0
  9
$UCSORGBACK
 10
0.0
 20
0.0
 30
0.0
  9
$PUCSBASE
  2

  9
$PUCSNAME
  2

  9
$PUCSORG
 10
0.0
 20
0.0
 30
0.0
  9
$PUCSXDIR
 10
1.0
 20
0.0
 30
0.0
  9
$PUCSYDIR
 10
0.0
 20
1.0
 30
0.0
  9
$PUCSORTHOREF
  2

  9
$PUCSORTHOVIEW
 70
     0
  9
$PUCSORGTOP
 10
0.0
 20
0.0
 30
0.0
  9
$PUCSORGBOTTOM
 10
0.0
 20
0.0
 30
0.0
  9
$PUCSORGLEFT
 10
0.0
 20
0.0
 30
0.0
  9
$PUCSORGRIGHT
 10
0.0
 20
0.0
 30
0.0
  9
$PUCSORGFRONT
 10
0.0
 20
0.0
 30
0.0
  9
$PUCSORGBACK
 10
0.0
 20
0.0
 30
0.0
  9
$USERI1
 70
     0
  9
$USERI2
 70
     0
  9
$USERI3
 70
     0
  9
$USERI4
 70
     0
  9
$USERI5
 70
     0
  9
$USERR1
 40
0.0
  9
$USERR2
 40
0.0
  9
$USERR3
 40
0.0
  9
$USERR4
 40
0.0
  9
$USERR5
 40
0.0
  9
$WORLDVIEW
 70
     1
  9
$SHADEDGE
 70
     3
  9
$SHADEDIF
 70
    70
  9
$TILEMODE
 70
     1
  9
$MAXACTVP
 70
    16
  9
$PINSBASE
 10
0.0
 20
0.0
 30
0.0
  9
$PLIMCHECK
 70
     0
  9
$PEXTMIN
 10
1.000000000000000E+20
 20
1.000000000000000E+20
 30
1.000000000000000E+20
  9
$PEXTMAX
 10
-1.000000000000000E+20
 20
-1.000000000000000E+20
 30
-1.000000000000000E+20
  9
$PLIMMIN
 10
0.0
 20
0.0
  9
$PLIMMAX
 10
12.0
 20
9.0
  9
$UNITMODE
 70
     0
  9
$VISRETAIN
 70
     0
  9
$PLINEGEN
 70
     0
  9
$PSLTSCALE
 70
     0
  9
$TREEDEPTH
 70
  3020
  9
$CMLSTYLE
  2
STANDARD
  9
$CMLJUST
 70
     0
  9
$CMLSCALE
 40
1.0
  9
$PROXYGRAPHICS
 70
     1
  9
$MEASUREMENT
 70
     0
  9
$CELWEIGHT
370
    -1
  9
$ENDCAPS
280
     0
  9
$JOINSTYLE
280
     0
  9
$LWDISPLAY
290
     0
  9
$INSUNITS
 70
     0
  9
$HYPERLINKBASE
  1

  9
$STYLESHEET
  1

  9
$XEDIT
290
     1
  9
$CEPSNTYPE
380
     0
  9
$PSTYLEMODE
290
     1
  9
$FINGERPRINTGUID
  2
{1A65185A-63E2-11D6-BE3F-00508B5FCD51}
  9
$VERSIONGUID
  2
{4BE9959B-B695-4264-A9BB-656161D955BF}
  9
$EXTNAMES
290
     1
  9
$PSVPSCALE
 40
0.0
  9
$OLESTARTUP
290
     0
  0
ENDSEC
  0
SECTION
  2
CLASSES
  0
CLASS
  1
DICTIONARYVAR
  2
AcDbDictionaryVar
  3
AutoCAD 2000
 90
        0
280
     0
281
     0
  0
CLASS
  1
LWPOLYLINE
  2
AcDbPolyline
  3
AutoCAD 2000
 90
        0
280
     0
281
     1
  0
CLASS
  1
ACDBDICTIONARYWDFLT
  2
AcDbDictionaryWithDefault
  3
AutoCAD 2000
 90
        0
280
     0
281
     0
  0
CLASS
  1
ACDBPLACEHOLDER
  2
AcDbPlaceHolder
  3
ObjectDBX Classes
 90
        0
280
     0
281
     0
  0
CLASS
  1
LAYOUT
  2
AcDbLayout
  3
ObjectDBX Classes
 90
        0
280
     0
281
     0
  0
CLASS
  1
LONG_TRANSACTION
  2
AcDbLongTransaction
  3
AutoCAD 2000
 90
   -65536
280
     1
281
     0
  0
CLASS
  1
LWPOLYLINE
  2
AcDbPolyline
  3
AutoCAD 2000
 90
        0
280
     0
281
     1
  0
CLASS
  1
HATCH
  2
AcDbHatch
  3
AutoCAD 2000
 90
        0
280
     0
281
     1
  0
CLASS
  1
XRECORD
  2
AcDbXrecord
  3
AutoCAD 2000
 90
        0
280
     0
281
     0
  0
CLASS
  1
LONG_TRANSACTION
  2
AcDbLongTransaction
  3
AutoCAD 2000
 90
   -65536
280
     1
281
     0
  0
CLASS
  1
LWPOLYLINE
  2
AcDbPolyline
  3
AutoCAD 2000
 90
        0
280
     0
281
     1
  0
CLASS
  1
HATCH
  2
AcDbHatch
  3
AutoCAD 2000
 90
        0
280
     0
281
     1
  0
CLASS
  1
XRECORD
  2
AcDbXrecord
  3
AutoCAD 2000
 90
        0
280
     0
281
     0
  0
CLASS
  1
LONG_TRANSACTION
  2
AcDbLongTransaction
  3
AutoCAD 2000
 90
   -65536
280
     1
281
     0
  0
CLASS
  1
LWPOLYLINE
  2
AcDbPolyline
  3
AutoCAD 2000
 90
        0
280
     0
281
     1
  0
CLASS
  1
HATCH
  2
AcDbHatch
  3
AutoCAD 2000
 90
        0
280
     0
281
     1
  0
CLASS
  1
XRECORD
  2
AcDbXrecord
  3
AutoCAD 2000
 90
        0
280
     0
281
     0
  0
CLASS
  1
LONG_TRANSACTION
  2
AcDbLongTransaction
  3
AutoCAD 2000
 90
   -65536
280
     1
281
     0
  0
CLASS
  1
LWPOLYLINE
  2
AcDbPolyline
  3
AutoCAD 2000
 90
        0
280
     0
281
     1
  0
CLASS
  1
HATCH
  2
AcDbHatch
  3
AutoCAD 2000
 90
        0
280
     0
281
     1
  0
CLASS
  1
XRECORD
  2
AcDbXrecord
  3
AutoCAD 2000
 90
        0
280
     0
281
     0
  0
CLASS
  1
LONG_TRANSACTION
  2
AcDbLongTransaction
  3
AutoCAD 2000
 90
   -65536
280
     1
281
     0
  0
CLASS
  1
LWPOLYLINE
  2
AcDbPolyline
  3
AutoCAD 2000
 90
        0
280
     0
281
     1
  0
CLASS
  1
HATCH
  2
AcDbHatch
  3
AutoCAD 2000
 90
        0
280
     0
281
     1
  0
CLASS
  1
XRECORD
  2
AcDbXrecord
  3
AutoCAD 2000
 90
        0
280
     0
281
     0
  0
CLASS
  1
LONG_TRANSACTION
  2
AcDbLongTransaction
  3
AutoCAD 2000
 90
   -65536
280
     1
281
     0
  0
CLASS
  1
LWPOLYLINE
  2
AcDbPolyline
  3
AutoCAD 2000
 90
        0
280
     0
281
     1
  0
CLASS
  1
HATCH
  2
AcDbHatch
  3
AutoCAD 2000
 90
        0
280
     0
281
     1
  0
CLASS
  1
XRECORD
  2
AcDbXrecord
  3
AutoCAD 2000
 90
        0
280
     0
281
     0
  0
CLASS
  1
LONG_TRANSACTION
  2
AcDbLongTransaction
  3
AutoCAD 2000
 90
   -65536
280
     1
281
     0
  0
CLASS
  1
LWPOLYLINE
  2
AcDbPolyline
  3
AutoCAD 2000
 90
        0
280
     0
281
     1
  0
CLASS
  1
HATCH
  2
AcDbHatch
  3
AutoCAD 2000
 90
        0
280
     0
281
     1
  0
CLASS
  1
XRECORD
  2
AcDbXrecord
  3
AutoCAD 2000
 90
        0
280
     0
281
     0
  0
CLASS
  1
LONG_TRANSACTION
  2
AcDbLongTransaction
  3
AutoCAD 2000
 90
   -65536
280
     1
281
     0
  0
CLASS
  1
LWPOLYLINE
  2
AcDbPolyline
  3
AutoCAD 2000
 90
        0
280
     0
281
     1
  0
CLASS
  1
HATCH
  2
AcDbHatch
  3
AutoCAD 2000
 90
        0
280
     0
281
     1
  0
CLASS
  1
XRECORD
  2
AcDbXrecord
  3
AutoCAD 2000
 90
        0
280
     0
281
     0
  0
CLASS
  1
LONG_TRANSACTION
  2
AcDbLongTransaction
  3
AutoCAD 2000
 90
   -65536
280
     1
281
     0
  0
CLASS
  1
LWPOLYLINE
  2
AcDbPolyline
  3
AutoCAD 2000
 90
        0
280
     0
281
     1
  0
CLASS
  1
HATCH
  2
AcDbHatch
  3
AutoCAD 2000
 90
        0
280
     0
281
     1
  0
CLASS
  1
XRECORD
  2
AcDbXrecord
  3
AutoCAD 2000
 90
        0
280
     0
281
     0
  0
CLASS
  1
LONG_TRANSACTION
  2
AcDbLongTransaction
  3
AutoCAD 2000
 90
   -65536
280
     1
281
     0
  0
CLASS
  1
LWPOLYLINE
  2
AcDbPolyline
  3
AutoCAD 2000
 90
        0
280
     0
281
     1
  0
CLASS
  1
HATCH
  2
AcDbHatch
  3
AutoCAD 2000
 90
        0
280
     0
281
     1
  0
CLASS
  1
XRECORD
  2
AcDbXrecord
  3
AutoCAD 2000
 90
        0
280
     0
281
     0
  0
CLASS
  1
LONG_TRANSACTION
  2
AcDbLongTransaction
  3
AutoCAD 2000
 90
   -65536
280
     1
281
     0
  0
CLASS
  1
LWPOLYLINE
  2
AcDbPolyline
  3
AutoCAD 2000
 90
        0
280
     0
281
     1
  0
CLASS
  1
HATCH
  2
AcDbHatch
  3
AutoCAD 2000
 90
        0
280
     0
281
     1
  0
CLASS
  1
XRECORD
  2
AcDbXrecord
  3
AutoCAD 2000
 90
        0
280
     0
281
     0
  0
CLASS
  1
LONG_TRANSACTION
  2
AcDbLongTransaction
  3
AutoCAD 2000
 90
   -65536
280
     1
281
     0
  0
CLASS
  1
LWPOLYLINE
  2
AcDbPolyline
  3
AutoCAD 2000
 90
        0
280
     0
281
     1
  0
CLASS
  1
HATCH
  2
AcDbHatch
  3
AutoCAD 2000
 90
        0
280
     0
281
     1
  0
CLASS
  1
XRECORD
  2
AcDbXrecord
  3
AutoCAD 2000
 90
        0
280
     0
281
     0
  0
CLASS
  1
LONG_TRANSACTION
  2
AcDbLongTransaction
  3
AutoCAD 2000
 90
   -65536
280
     1
281
     0
  0
CLASS
  1
LWPOLYLINE
  2
AcDbPolyline
  3
AutoCAD 2000
 90
        0
280
     0
281
     1
  0
CLASS
  1
HATCH
  2
AcDbHatch
  3
AutoCAD 2000
 90
        0
280
     0
281
     1
  0
CLASS
  1
XRECORD
  2
AcDbXrecord
  3
AutoCAD 2000
 90
        0
280
     0
281
     0
  0
CLASS
  1
LONG_TRANSACTION
  2
AcDbLongTransaction
  3
AutoCAD 2000
 90
   -65536
280
     1
281
     0
  0
CLASS
  1
LWPOLYLINE
  2
AcDbPolyline
  3
AutoCAD 2000
 90
        0
280
     0
281
     1
  0
CLASS
  1
HATCH
  2
AcDbHatch
  3
AutoCAD 2000
 90
        0
280
     0
281
     1
  0
CLASS
  1
XRECORD
  2
AcDbXrecord
  3
AutoCAD 2000
 90
        0
280
     0
281
     0
  0
ENDSEC
  0
SECTION
  2
TABLES
  0
TABLE
  2
VPORT
  5
1D
330
0
100
AcDbSymbolTable
 70
     2
  0
VPORT
  5
370
330
1D
100
AcDbSymbolTableRecord
100
AcDbViewportTableRecord
  2
*Active
 70
     0
 10
0.0
 20
0.0
 11
1.0
 21
1.0
 12
4.611968059183031
 22
10.48702268844319
 13
0.0
 23
0.0
 14
0.03125
 24
0.03125
 15
0.25
 25
0.25
 16
0.0
 26
0.0
 36
1.0
 17
0.0
 27
0.0
 37
0.0
 40
21.37834492405966
 41
1.840336134453781
 42
50.0
 43
0.0
 44
0.0
 50
0.0
 51
0.0
 71
     0
 72
   100
 73
     1
 74
     0
 75
     0
 76
     0
 77
     0
 78
     0
281
     0
 65
     1
110
0.0
120
0.0
130
0.0
111
1.0
121
0.0
131
0.0
112
0.0
122
1.0
132
0.0
 79
     0
146
0.0
  0
ENDTAB
  0
TABLE
  2
LTYPE
  5
18
330
0
100
AcDbSymbolTable
 70
     2
  0
LTYPE
  5
19
330
18
100
AcDbSymbolTableRecord
100
AcDbLinetypeTableRecord
  2
BYBLOCK
 70
     0
  3

 72
    65
 73
     0
 40
0.0
  0
LTYPE
  5
1A
330
18
100
AcDbSymbolTableRecord
100
AcDbLinetypeTableRecord
  2
BYLAYER
 70
     0
  3

 72
    65
 73
     0
 40
0.0
  0
LTYPE
  5
A
330
18
100
AcDbSymbolTableRecord
100
AcDbLinetypeTableRecord
  2
CONTINUOUS
 70
     0
  3
Solid line
 72
    65
 73
     0
 40
0.0
  0
LTYPE
  5
296
330
18
100
AcDbSymbolTableRecord
100
AcDbLinetypeTableRecord
  2
HIDDEN
 70
     0
  3
Hidden __ __ __ __ __ __ __ __ __ __ __ __ __ _
 72
    65
 73
     2
 40
0.375
 49
0.25
 74
     0
 49
-0.125
 74
     0
  0
ENDTAB
  0
TABLE
  2
LAYER
  5
14
330
0
100
AcDbSymbolTable
 70
     1
  0
LAYER
  5
6
330
14
100
AcDbSymbolTableRecord
100
AcDbLayerTableRecord
  2
0
 70
     0
 62
     7
  6
CONTINUOUS
370
    -3
390
7
  0
ENDTAB
  0
TABLE
  2
STYLE
  5
15
330
0
100
AcDbSymbolTable
 70
     2
  0
STYLE
  5
16
330
15
100
AcDbSymbolTableRecord
100
AcDbTextStyleTableRecord
  2
STANDARD
 70
     0
 40
0.0
 41
1.0
 50
0.0
 71
     0
 42
0.18
  3
TXT
  4

  0
STYLE
  5
295
330
15
100
AcDbSymbolTableRecord
100
AcDbTextStyleTableRecord
  2

 70
     1
 40
0.0
 41
1.0
 50
0.0
 71
     0
 42
0.18
  3
ltypeshp.shx
  4

  0
ENDTAB
  0
TABLE
  2
VIEW
  5
1B
330
0
100
AcDbSymbolTable
 70
     0
  0
ENDTAB
  0
TABLE
  2
UCS
  5
1C
330
0
100
AcDbSymbolTable
 70
     0
  0
ENDTAB
  0
TABLE
  2
APPID
  5
1F
330
0
100
AcDbSymbolTable
 70
     1
  0
APPID
  5
20
330
1F
100
AcDbSymbolTableRecord
100
AcDbRegAppTableRecord
  2
ACAD
 70
     0
  0
ENDTAB
  0
TABLE
  2
DIMSTYLE
  5
21
330
0
100
AcDbSymbolTable
 70
     1
100
AcDbDimStyleTable
  0
DIMSTYLE
105
28
330
21
100
AcDbSymbolTableRecord
100
AcDbDimStyleTableRecord
  2
STANDARD
 70
     0
  3

  4

340
16
  0
ENDTAB
  0
TABLE
  2
BLOCK_RECORD
  5
1
330
0
100
AcDbSymbolTable
 70
     0
  0
BLOCK_RECORD
  5
2
330
1
100
AcDbSymbolTableRecord
100
AcDbBlockTableRecord
  2
*MODEL_SPACE
340
C
  0
BLOCK_RECORD
  5
E
330
1
100
AcDbSymbolTableRecord
100
AcDbBlockTableRecord
  2
*PAPER_SPACE
340
13
  0
ENDTAB
  0
ENDSEC
  0
SECTION
  2
BLOCKS
  0
BLOCK
  5
5
330
2
100
AcDbEntity
  8
0
100
AcDbBlockBegin
  2
*MODEL_SPACE
 70
     0
 10
0.0
 20
0.0
 30
0.0
  3
*MODEL_SPACE
  1

  4

  0
ENDBLK
  5
B
330
2
100
AcDbEntity
  8
0
100
AcDbBlockEnd
  0
BLOCK
  5
11
330
E
100
AcDbEntity
 67
     1
  8
0
100
AcDbBlockBegin
  2
*PAPER_SPACE
 70
     0
 10
0.0
 20
0.0
 30
0.0
  3
*PAPER_SPACE
  1

  4

  0
ENDBLK
  5
12
330
E
100
AcDbEntity
 67
     1
  8
0
100
AcDbBlockEnd
  0
ENDSEC
  0
SECTION
  2
ENTITIES
  0
LINE
  5
12F
330
2
100
AcDbEntity
  8
0
100
AcDbLine
 10
0.84375
 20
13.75675631873545
 30
0.0
 11
0.84375
 21
12.01410902913223
 31
0.0
  0
LINE
  5
130
330
2
100
AcDbEntity
  8
0
100
AcDbLine
 10
-0.84375
 20
13.75675631873545
 30
0.0
 11
-0.84375
 21
12.01433929014182
 31
0.0
  0
LINE
  5
131
330
2
100
AcDbEntity
  8
0
100
AcDbLine
 10
0.0
 20
13.56925631873545
 30
0.0
 11
-0.6875
 21
13.56925631873545
 31
0.0
  0
LINE
  5
132
330
2
100
AcDbEntity
  8
0
100
AcDbLine
 10
-0.90625
 20
13.88175631873545
 30
0.0
 11
-1.84375
 21
13.88175631873545
 31
0.0
  0
LINE
  5
133
330
2
100
AcDbEntity
  8
0
100
AcDbLine
 10
-1.84375
 20
13.81925631873545
 30
0.0
 11
-0.90625
 21
13.81925631873545
 31
0.0
  0
LINE
  5
135
330
2
100
AcDbEntity
  8
0
100
AcDbLine
 10
-1.84375
 20
13.88175631873545
 30
0.0
 11
-1.84375
 21
13.81925631873545
 31
0.0
  0
LINE
  5
136
330
2
100
AcDbEntity
  8
0
100
AcDbLine
 10
-0.78125
 20
11.95183881873544
 30
0.0
 11
-0.78125
 21
13.75675631873545
 31
0.0
  0
ARC
  5
137
330
2
100
AcDbEntity
  8
0
100
AcDbCircle
 10
-0.90625
 20
13.75675631873545
 30
0.0
 40
0.125
100
AcDbArc
 50
0.0
 51
90.00000000000003
  0
ARC
  5
138
330
2
100
AcDbEntity
  8
0
100
AcDbCircle
 10
-0.90625
 20
13.75675631873545
 30
0.0
 40
0.0625
100
AcDbArc
 50
0.0
 51
90.00000000000003
  0
ARC
  5
139
330
2
100
AcDbEntity
  8
0
100
AcDbCircle
 10
-0.7812497961904903
 20
13.56925634816814
 30
0.0
 40
0.0937497961904958
100
AcDbArc
 50
269.9998754405321
 51
359.9999820120257
  0
LINE
  5
13A
330
2
100
AcDbEntity
  8
0
100
AcDbLine
 10
1.84375
 20
13.81925631873545
 30
0.0
 11
0.90625
 21
13.81925631873545
 31
0.0
  0
LINE
  5
13B
330
2
100
AcDbEntity
  8
0
100
AcDbLine
 10
0.90625
 20
13.88175631873545
 30
0.0
 11
1.84375
 21
13.88175631873545
 31
0.0
  0
ARC
  5
13C
330
2
100
AcDbEntity
  8
0
100
AcDbCircle
 10
0.90625
 20
13.75675631873545
 30
0.0
 40
0.125
100
AcDbArc
 50
90.00000000000003
 51
180.0
  0
ARC
  5
13D
330
2
100
AcDbEntity
  8
0
100
AcDbCircle
 10
0.7812497961904921
 20
13.56925634816814
 30
0.0
 40
0.0937497961904967
100
AcDbArc
 50
180.0000179879748
 51
270.0001245594669
  0
LINE
  5
13E
330
2
100
AcDbEntity
  8
0
100
AcDbLine
 10
0.0
 20
13.56925631873545
 30
0.0
 11
0.6875
 21
13.56925631873545
 31
0.0
  0
LINE
  5
140
330
2
100
AcDbEntity
  8
0
100
AcDbLine
 10
0.78125
 20
11.95183881873545
 30
0.0
 11
0.78125
 21
13.75675631873545
 31
0.0
  0
ARC
  5
141
330
2
100
AcDbEntity
  8
0
100
AcDbCircle
 10
0.90625
 20
13.75675631873545
 30
0.0
 40
0.0625
100
AcDbArc
 50
90.00000000000003
 51
180.0
  0
LINE
  5
142
330
2
100
AcDbEntity
  8
0
100
AcDbLine
 10
1.84375
 20
13.88175631873545
 30
0.0
 11
1.84375
 21
13.81925631873545
 31
0.0
  0
LINE
  5
143
330
2
100
AcDbEntity
  8
0
100
AcDbLine
 10
0.0
 20
11.81925631873545
 30
0.0
 11
-0.6875
 21
11.81925631873545
 31
0.0
  0
LINE
  5
144
330
2
100
AcDbEntity
  8
0
100
AcDbLine
 10
-0.9865269119345825
 20
13.02245027592166
 30
0.0
 11
-0.84375
 21
12.94425631873545
 31
0.0
  0
LINE
  5
145
330
2
100
AcDbEntity
  8
0
100
AcDbLine
 10
-1.019053823869164
 20
13.05497718785625
 30
0.0
 11
-0.8627001912572254
 21
13.21133082046818
 31
0.0
  0
LINE
  5
146
330
2
100
AcDbEntity
  8
0
100
AcDbLine
 10
-0.9865269119345825
 20
13.02245027592166
 30
0.0
 11
-1.019053823869164
 21
13.05497718785625
 31
0.0
  0
ARC
  5
147
330
2
100
AcDbEntity
  8
0
100
AcDbCircle
 10
-0.9084499999999949
 20
13.25708062921095
 30
0.0
 40
0.0647
100
AcDbArc
 50
314.9999999999999
 51
0.0000000000001158
  0
ARC
  5
148
330
2
100
AcDbEntity
  8
0
100
AcDbCircle
 10
-0.7812499756018063
 20
11.81925580736814
 30
0.0
 40
0.0937499756032012
100
AcDbArc
 50
0.0003125247576568
 51
45.00023153210226
  0
LINE
  5
149
330
2
100
AcDbEntity
  8
0
100
AcDbLine
 10
-0.84375
 20
12.01433929014182
 30
0.0
 11
-0.7149590000000003
 21
11.88554731873545
 31
0.0
  0
LINE
  5
14A
330
2
100
AcDbEntity
  8
0
100
AcDbLine
 10
0.8475409999999997
 20
12.01813031873545
 30
0.0
 11
0.7149590000000003
 21
11.88554731873545
 31
0.0
  0
LINE
  5
14B
330
2
100
AcDbEntity
  8
0
100
AcDbLine
 10
0.0
 20
11.81925631873545
 30
0.0
 11
0.6875
 21
11.81925631873545
 31
0.0
  0
ARC
  5
14C
330
2
100
AcDbEntity
  8
0
100
AcDbCircle
 10
0.7812499756018099
 20
11.81925580736814
 30
0.0
 40
0.0937499756032038
100
AcDbArc
 50
134.9997684678985
 51
179.9996874752428
  0
LINE
  5
14D
330
2
100
AcDbEntity
  8
0
100
AcDbLine
 10
0.9865269119345825
 20
13.02245027592166
 30
0.0
 11
1.019053823869164
 21
13.05497718785625
 31
0.0
  0
LINE
  5
14E
330
2
100
AcDbEntity
  8
0
100
AcDbLine
 10
1.019053823869164
 20
13.05497718785625
 30
0.0
 11
0.8627001912572325
 21
13.21133082046818
 31
0.0
  0
LINE
  5
14F
330
2
100
AcDbEntity
  8
0
100
AcDbLine
 10
0.9865269119345825
 20
13.02245027592166
 30
0.0
 11
0.84375
 21
12.94425631873545
 31
0.0
  0
ARC
  5
150
330
2
100
AcDbEntity
  8
0
100
AcDbCircle
 10
0.908450000000002
 20
13.25708062921095
 30
0.0
 40
0.0647
100
AcDbArc
 50
179.9999999999999
 51
225.0000000000001
  0
LINE
  5
151
330
2
100
AcDbEntity
  8
0
100
AcDbLine
 10
-0.71875
 20
0.0625
 30
0.0
 11
0.71875
 21
0.0625
 31
0.0
  0
LINE
  5
152
330
2
100
AcDbEntity
  8
0
100
AcDbLine
 10
0.71875
 20
0.0
 30
0.0
 11
-0.71875
 21
0.0
 31
0.0
  0
LINE
  5
153
330
2
100
AcDbEntity
  8
0
100
AcDbLine
 10
-0.7812499999999965
 20
7.875
 30
0.0
 11
-0.78125
 21
0.125
 31
0.0
  0
LINE
  5
154
330
2
100
AcDbEntity
  8
0
100
AcDbLine
 10
-0.84375
 20
0.125
 30
0.0
 11
-0.8437499999999965
 21
7.875
 31
0.0
  0
LINE
  5
155
330
2
100
AcDbEntity
  8
0
100
AcDbLine
 10
-1.843749999999998
 20
7.875
 30
0.0
 11
-1.843749999999998
 21
4.40625
 31
0.0
  0
ARC
  5
156
330
2
100
AcDbEntity
  8
0
100
AcDbCircle
 10
-1.593749999999996
 20
2.53125
 30
0.0
 40
0.125
100
AcDbArc
 50
0.0
 51
90.0
  0
ARC
  5
157
330
2
100
AcDbEntity
  8
0
100
AcDbCircle
 10
-1.718749999999996
 20
2.78125
 30
0.0
 40
0.125
100
AcDbArc
 50
180.0
 51
270.0
  0
LINE
  5
158
330
2
100
AcDbEntity
  8
0
100
AcDbLine
 10
-0.84375
 20
0.3125
 30
0.0
 11
-1.843749999999998
 21
1.3125
 31
0.0
  0
ARC
  5
159
330
2
100
AcDbEntity
  8
0
100
AcDbCircle
 10
-0.71875
 20
0.125
 30
0.0
 40
0.0625
100
AcDbArc
 50
180.0
 51
270.0
  0
ARC
  5
15A
330
2
100
AcDbEntity
  8
0
100
AcDbCircle
 10
-0.71875
 20
0.125
 30
0.0
 40
0.125
100
AcDbArc
 50
180.0
 51
270.0
  0
ARC
  5
15B
330
2
100
AcDbEntity
  8
0
100
AcDbCircle
 10
-1.718749999999998
 20
1.71875
 30
0.0
 40
0.125
100
AcDbArc
 50
90.0
 51
180.0
  0
ARC
  5
15C
330
2
100
AcDbEntity
  8
0
100
AcDbCircle
 10
-1.593749999999998
 20
1.96875
 30
0.0
 40
0.125
100
AcDbArc
 50
270.0
 51
0.0
  0
CIRCLE
  5
15D
330
2
100
AcDbEntity
  8
0
100
AcDbCircle
 10
-1.593749999999998
 20
1.40625
 30
0.0
 40
0.078125
  0
LINE
  5
15E
330
2
100
AcDbEntity
  8
0
100
AcDbLine
 10
-1.843749999999998
 20
1.71875
 30
0.0
 11
-1.843749999999998
 21
1.3125
 31
0.0
  0
LINE
  5
15F
330
2
100
AcDbEntity
  8
0
100
AcDbLine
 10
-1.718749999999998
 20
1.84375
 30
0.0
 11
-1.593749999999998
 21
1.84375
 31
0.0
  0
LINE
  5
160
330
2
100
AcDbEntity
  8
0
100
AcDbLine
 10
-1.468749999999998
 20
1.96875
 30
0.0
 11
-1.468749999999996
 21
2.53125
 31
0.0
  0
ARC
  5
163
330
2
100
AcDbEntity
  8
0
100
AcDbCircle
 10
-0.8963868390020053
 20
2.025921084378961
 30
0.0
 40
0.0986370922929614
100
AcDbArc
 50
57.74817661148467
 51
86.14191405494718
  0
ARC
  5
164
330
2
100
AcDbEntity
  8
0
100
AcDbCircle
 10
-0.8957388787568377
 20
2.026043639690837
 30
0.0
 40
0.0519900307039585
100
AcDbArc
 50
359.6185877246035
 51
83.38525270417924
  0
ARC
  5
165
330
2
100
AcDbEntity
  8
0
100
AcDbCircle
 10
-0.8963868390020053
 20
2.459474015242831
 30
0.0
 40
0.0986370922929614
100
AcDbArc
 50
273.858085945053
 51
302.2518233885159
  0
ARC
  5
166
330
2
100
AcDbEntity
  8
0
100
AcDbCircle
 10
-0.8957388787568377
 20
2.459351459930952
 30
0.0
 40
0.0519900307039585
100
AcDbArc
 50
276.614747295821
 51
0.38141227539666
  0
ARC
  5
167
330
2
100
AcDbEntity
  8
0
100
AcDbCircle
 10
-1.718749999999996
 20
4.40625
 30
0.0
 40
0.125
100
AcDbArc
 50
180.0
 51
270.0
  0
ARC
  5
168
330
2
100
AcDbEntity
  8
0
100
AcDbCircle
 10
-1.593749999999996
 20
4.15625
 30
0.0
 40
0.125
100
AcDbArc
 50
0.0
 51
90.0
  0
ARC
  5
169
330
2
100
AcDbEntity
  8
0
100
AcDbCircle
 10
-1.593749999999996
 20
3.59375
 30
0.0
 40
0.125
100
AcDbArc
 50
270.0
 51
0.0
  0
ARC
  5
16A
330
2
100
AcDbEntity
  8
0
100
AcDbCircle
 10
-1.718749999999996
 20
3.34375
 30
0.0
 40
0.125
100
AcDbArc
 50
90.0
 51
180.0
  0
LINE
  5
16B
330
2
100
AcDbEntity
  8
0
100
AcDbLine
 10
-1.843749999999998
 20
3.34375
 30
0.0
 11
-1.843749999999998
 21
2.78125
 31
0.0
  0
LINE
  5
16C
330
2
100
AcDbEntity
  8
0
100
AcDbLine
 10
-1.718749999999996
 20
2.65625
 30
0.0
 11
-1.593749999999996
 21
2.65625
 31
0.0
  0
LINE
  5
16D
330
2
100
AcDbEntity
  8
0
100
AcDbLine
 10
-1.718749999999996
 20
3.46875
 30
0.0
 11
-1.593749999999996
 21
3.46875
 31
0.0
  0
LINE
  5
16E
330
2
100
AcDbEntity
  8
0
100
AcDbLine
 10
-1.718749999999996
 20
4.28125
 30
0.0
 11
-1.593749999999996
 21
4.28125
 31
0.0
  0
LINE
  5
16F
330
2
100
AcDbEntity
  8
0
100
AcDbLine
 10
-1.468749999999996
 20
3.59375
 30
0.0
 11
-1.468749999999996
 21
4.15625
 31
0.0
  0
ARC
  5
172
330
2
100
AcDbEntity
  8
0
100
AcDbCircle
 10
-0.8437500000000018
 20
3.867697549810892
 30
0.0
 40
0.1875
100
AcDbArc
 50
92.77954397050873
 51
267.2204560294936
  0
ARC
  5
173
330
2
100
AcDbEntity
  8
0
100
AcDbCircle
 10
-0.8963868390020036
 20
3.650921084378963
 30
0.0
 40
0.0986370922929614
100
AcDbArc
 50
57.74817661148467
 51
86.14191405494718
  0
ARC
  5
174
330
2
100
AcDbEntity
  8
0
100
AcDbCircle
 10
-0.8957388787568359
 20
3.651043639690839
 30
0.0
 40
0.0519900307039585
100
AcDbArc
 50
359.6185877246035
 51
83.38525270417924
  0
ARC
  5
175
330
2
100
AcDbEntity
  8
0
100
AcDbCircle
 10
-0.8963868390020036
 20
4.084474015242831
 30
0.0
 40
0.0986370922929614
100
AcDbArc
 50
273.858085945053
 51
302.2518233885159
  0
ARC
  5
176
330
2
100
AcDbEntity
  8
0
100
AcDbCircle
 10
-0.8957388787568359
 20
4.084351459930955
 30
0.0
 40
0.0519900307039585
100
AcDbArc
 50
276.614747295821
 51
0.38141227539666
  0
CIRCLE
  5
177
330
2
100
AcDbEntity
  8
0
100
AcDbCircle
 10
-1.593749999999996
 20
4.5
 30
0.0
 40
0.078125
  0
CIRCLE
  5
179
330
2
100
AcDbEntity
  8
0
100
AcDbCircle
 10
-1.593749999999996
 20
7.53125
 30
0.0
 40
0.078125
  0
CIRCLE
  5
17A
330
2
100
AcDbEntity
  8
0
100
AcDbCircle
 10
-1.593749999999996
 20
6.28125
 30
0.0
 40
0.078125
  0
LINE
  5
17B
330
2
100
AcDbEntity
  8
0
100
AcDbLine
 10
-1.843749999999998
 20
7.875
 30
0.0
 11
-0.8437499999999965
 21
7.875
 31
0.0
  0
LINE
  5
17C
330
2
100
AcDbEntity
  8
0
100
AcDbLine
 10
-0.8437499999999965
 20
7.875
 30
0.0
 11
-0.7812499999999965
 21
7.875
 31
0.0
  0
LINE
  5
17D
330
2
100
AcDbEntity
  8
0
100
AcDbLine
 10
0.78125
 20
0.125
 30
0.0
 11
0.7812500000000036
 21
7.875
 31
0.0
  0
LINE
  5
17E
330
2
100
AcDbEntity
  8
0
100
AcDbLine
 10
0.8437500000000036
 20
7.875
 30
0.0
 11
0.84375
 21
0.125
 31
0.0
  0
LINE
  5
17F
330
2
100
AcDbEntity
  8
0
100
AcDbLine
 10
1.843750000000004
 20
7.875
 30
0.0
 11
1.843750000000004
 21
4.25
 31
0.0
  0
LINE
  5
180
330
2
100
AcDbEntity
  8
0
100
AcDbLine
 10
1.84375
 20
3.1875
 30
0.0
 11
1.84375
 21
2.625
 31
0.0
  0
LINE
  5
181
330
2
100
AcDbEntity
  8
0
100
AcDbLine
 10
0.84375
 20
0.3125
 30
0.0
 11
1.84375
 21
1.3125
 31
0.0
  0
LINE
  5
182
330
2
100
AcDbEntity
  8
0
100
AcDbLine
 10
1.71875
 20
2.5
 30
0.0
 11
1.59375
 21
2.5
 31
0.0
  0
LINE
  5
183
330
2
100
AcDbEntity
  8
0
100
AcDbLine
 10
1.71875
 20
1.6875
 30
0.0
 11
1.59375
 21
1.6875
 31
0.0
  0
ARC
  5
184
330
2
100
AcDbEntity
  8
0
100
AcDbCircle
 10
0.71875
 20
0.125
 30
0.0
 40
0.0625
100
AcDbArc
 50
270.0
 51
0.0
  0
ARC
  5
185
330
2
100
AcDbEntity
  8
0
100
AcDbCircle
 10
0.71875
 20
0.125
 30
0.0
 40
0.125
100
AcDbArc
 50
270.0
 51
0.0
  0
LINE
  5
186
330
2
100
AcDbEntity
  8
0
100
AcDbLine
 10
1.46875
 20
1.8125
 30
0.0
 11
1.46875
 21
2.375
 31
0.0
  0
CIRCLE
  5
187
330
2
100
AcDbEntity
  8
0
100
AcDbCircle
 10
1.59375
 20
1.40625
 30
0.0
 40
0.078125
  0
ARC
  5
188
330
2
100
AcDbEntity
  8
0
100
AcDbCircle
 10
1.59375
 20
1.8125
 30
0.0
 40
0.125
100
AcDbArc
 50
180.0
 51
270.0
  0
ARC
  5
189
330
2
100
AcDbEntity
  8
0
100
AcDbCircle
 10
0.8957388787568448
 20
2.279153910120064
 30
0.0
 40
0.0519900307039585
100
AcDbArc
 50
179.6185877246033
 51
263.385252704179
  0
ARC
  5
18B
330
2
100
AcDbEntity
  8
0
100
AcDbCircle
 10
0.8963868390020053
 20
2.279276465431943
 30
0.0
 40
0.0986370922929614
100
AcDbArc
 50
237.7481766114841
 51
266.141914054947
  0
ARC
  5
18C
330
2
100
AcDbEntity
  8
0
100
AcDbCircle
 10
0.8957388787568448
 20
1.845846089879949
 30
0.0
 40
0.0519900307039585
100
AcDbArc
 50
96.61474729582074
 51
180.3814122753964
  0
ARC
  5
18D
330
2
100
AcDbEntity
  8
0
100
AcDbCircle
 10
0.8963868390020053
 20
1.845723534568073
 30
0.0
 40
0.0986370922929614
100
AcDbArc
 50
93.85808594505281
 51
122.2518233885153
  0
ARC
  5
18F
330
2
100
AcDbEntity
  8
0
100
AcDbCircle
 10
1.59375
 20
2.375
 30
0.0
 40
0.125
100
AcDbArc
 50
90.0
 51
180.0
  0
LINE
  5
190
330
2
100
AcDbEntity
  8
0
100
AcDbLine
 10
1.84375
 20
1.5625
 30
0.0
 11
1.84375
 21
1.3125
 31
0.0
  0
ARC
  5
191
330
2
100
AcDbEntity
  8
0
100
AcDbCircle
 10
1.71875
 20
1.5625
 30
0.0
 40
0.125
100
AcDbArc
 50
0.0
 51
90.0
  0
ARC
  5
192
330
2
100
AcDbEntity
  8
0
100
AcDbCircle
 10
1.71875
 20
2.625
 30
0.0
 40
0.125
100
AcDbArc
 50
270.0
 51
0.0
  0
LINE
  5
193
330
2
100
AcDbEntity
  8
0
100
AcDbLine
 10
1.71875
 20
3.3125
 30
0.0
 11
1.59375
 21
3.3125
 31
0.0
  0
LINE
  5
194
330
2
100
AcDbEntity
  8
0
100
AcDbLine
 10
1.718750000000004
 20
4.125
 30
0.0
 11
1.593750000000004
 21
4.125
 31
0.0
  0
LINE
  5
195
330
2
100
AcDbEntity
  8
0
100
AcDbLine
 10
1.468750000000004
 20
3.4375
 30
0.0
 11
1.468750000000004
 21
4.0
 31
0.0
  0
ARC
  5
196
330
2
100
AcDbEntity
  8
0
100
AcDbCircle
 10
1.593750000000004
 20
3.4375
 30
0.0
 40
0.125
100
AcDbArc
 50
180.0
 51
270.0
  0
ARC
  5
197
330
2
100
AcDbEntity
  8
0
100
AcDbCircle
 10
0.895738878756843
 20
3.90415391012005
 30
0.0
 40
0.0519900307039585
100
AcDbArc
 50
179.6185877246033
 51
263.385252704179
  0
ARC
  5
198
330
2
100
AcDbEntity
  8
0
100
AcDbCircle
 10
0.84375
 20
3.9375
 30
0.0
 40
0.1875
100
AcDbArc
 50
313.8597187241938
 51
89.99996800000001
  0
ARC
  5
19A
330
2
100
AcDbEntity
  8
0
100
AcDbCircle
 10
0.8963868390020071
 20
3.470723534568061
 30
0.0
 40
0.0986370922929614
100
AcDbArc
 50
93.85808594505281
 51
122.2518233885153
  0
ARC
  5
19B
330
2
100
AcDbEntity
  8
0
100
AcDbCircle
 10
0.8963868390020071
 20
3.904276465431929
 30
0.0
 40
0.0986370922929614
100
AcDbArc
 50
237.7481766114841
 51
266.141914054947
  0
ARC
  5
19D
330
2
100
AcDbEntity
  8
0
100
AcDbCircle
 10
0.895738878756843
 20
3.470846089879936
 30
0.0
 40
0.0519900307039585
100
AcDbArc
 50
96.61474729582074
 51
180.3814122753964
  0
ARC
  5
19E
330
2
100
AcDbEntity
  8
0
100
AcDbCircle
 10
1.593750000000004
 20
4.0
 30
0.0
 40
0.125
100
AcDbArc
 50
90.0
 51
180.0
  0
CIRCLE
  5
19F
330
2
100
AcDbEntity
  8
0
100
AcDbCircle
 10
1.593750000000004
 20
4.5
 30
0.0
 40
0.078125
  0
ARC
  5
1A0
330
2
100
AcDbEntity
  8
0
100
AcDbCircle
 10
1.71875
 20
3.1875
 30
0.0
 40
0.125
100
AcDbArc
 50
0.0
 51
90.0
  0
ARC
  5
1A1
330
2
100
AcDbEntity
  8
0
100
AcDbCircle
 10
1.718750000000004
 20
4.25
 30
0.0
 40
0.125
100
AcDbArc
 50
270.0
 51
0.0
  0
LINE
  5
1A2
330
2
100
AcDbEntity
  8
0
100
AcDbLine
 10
1.843750000000004
 20
7.875
 30
0.0
 11
0.8437500000000036
 21
7.875
 31
0.0
  0
CIRCLE
  5
1A4
330
2
100
AcDbEntity
  8
0
100
AcDbCircle
 10
1.593750000000004
 20
7.53125
 30
0.0
 40
0.078125
  0
CIRCLE
  5
1A5
330
2
100
AcDbEntity
  8
0
100
AcDbCircle
 10
1.593750000000004
 20
6.28125
 30
0.0
 40
0.078125
  0
POINT
  5
1A6
330
2
100
AcDbEntity
  8
0
100
AcDbPoint
 10
0.7812500000000036
 20
7.875
 30
0.0
  0
LINE
  5
1A7
330
2
100
AcDbEntity
  8
0
100
AcDbLine
 10
0.7812500000000036
 20
7.875
 30
0.0
 11
0.8437500000000036
 21
7.875
 31
0.0
  0
LINE
  5
1A8
330
2
100
AcDbEntity
  8
0
100
AcDbLine
 10
6.774565116314522
 20
0.3124999999999982
 30
0.0
 11
6.774565116314523
 21
7.875
 31
0.0
  0
LINE
  5
1A9
330
2
100
AcDbEntity
  8
0
100
AcDbLine
 10
6.712065116314523
 20
7.875
 30
0.0
 11
6.712065116314522
 21
0.3124999999999982
 31
0.0
  0
LINE
  5
1AA
330
2
100
AcDbEntity
  8
0
100
AcDbLine
 10
5.962065116314523
 20
7.875
 30
0.0
 11
5.962065116314522
 21
4.25
 31
0.0
  0
LINE
  5
1AB
330
2
100
AcDbEntity
  8
0
100
AcDbLine
 10
5.962065116314522
 20
3.1875
 30
0.0
 11
5.962065116314522
 21
2.625
 31
0.0
  0
LINE
  5
1AC
330
2
100
AcDbEntity
  8
0
  6
HIDDEN
100
AcDbLine
 10
6.454482116314521
 20
0.0624999999999982
 30
0.0
 11
4.844648116314522
 21
0.0624999999999982
 31
0.0
  0
LINE
  5
1AD
330
2
100
AcDbEntity
  8
0
100
AcDbLine
 10
6.454482116314521
 20
-0.0000000000000018
 30
0.0
 11
4.71206511631452
 21
-0.0000000000000018
 31
0.0
  0
LINE
  5
1AE
330
2
100
AcDbEntity
  8
0
100
AcDbLine
 10
4.910939116314522
 20
0.2613739999999982
 30
0.0
 11
5.962065116314522
 21
1.3125
 31
0.0
  0
LINE
  5
1B0
330
2
100
AcDbEntity
  8
0
100
AcDbLine
 10
4.71206511631452
 20
0.0624999999999982
 30
0.0
 11
4.844648116314522
 21
0.0624999999999982
 31
0.0
  0
LINE
  5
1B1
330
2
100
AcDbEntity
  8
0
100
AcDbLine
 10
4.71206511631452
 20
-0.0000000000000018
 30
0.0
 11
4.71206511631452
 21
0.0624999999999982
 31
0.0
  0
LINE
  5
1B2
330
2
100
AcDbEntity
  8
0
100
AcDbLine
 10
5.587065116314522
 20
1.8125
 30
0.0
 11
5.587065116314522
 21
2.375
 31
0.0
  0
ARC
  5
1B3
330
2
100
AcDbEntity
  8
0
100
AcDbCircle
 10
5.837065116314522
 20
1.5625
 30
0.0
 40
0.125
100
AcDbArc
 50
0.0
 51
90.0
  0
ARC
  5
1B4
330
2
100
AcDbEntity
  8
0
100
AcDbCircle
 10
5.712065116314522
 20
1.8125
 30
0.0
 40
0.125
100
AcDbArc
 50
180.0
 51
270.0
  0
LINE
  5
1B5
330
2
100
AcDbEntity
  8
0
100
AcDbLine
 10
5.837065116314522
 20
1.6875
 30
0.0
 11
5.712065116314522
 21
1.6875
 31
0.0
  0
LINE
  5
1B6
330
2
100
AcDbEntity
  8
0
100
AcDbLine
 10
5.962065116314522
 20
1.5625
 30
0.0
 11
5.962065116314522
 21
1.3125
 31
0.0
  0
ARC
  5
1BA
330
2
100
AcDbEntity
  8
0
100
AcDbCircle
 10
5.837065116314522
 20
2.625
 30
0.0
 40
0.125
100
AcDbArc
 50
270.0
 51
0.0
  0
LINE
  5
1BB
330
2
100
AcDbEntity
  8
0
100
AcDbLine
 10
5.837065116314523
 20
1.845500000000003
 30
0.0
 11
5.837065116314523
 21
2.279500000000001
 31
0.0
  0
ARC
  5
1BD
330
2
100
AcDbEntity
  8
0
100
AcDbCircle
 10
5.712065116314522
 20
2.375
 30
0.0
 40
0.125
100
AcDbArc
 50
90.0
 51
180.0
  0
LINE
  5
1BE
330
2
100
AcDbEntity
  8
0
100
AcDbLine
 10
5.837065116314522
 20
2.5
 30
0.0
 11
5.712065116314522
 21
2.5
 31
0.0
  0
LINE
  5
1C3
330
2
100
AcDbEntity
  8
0
100
AcDbLine
 10
6.454482116314521
 20
0.0624999999999982
 30
0.0
 11
6.454482116314521
 21
-0.0000000000000018
 31
0.0
  0
LINE
  5
1C5
330
2
100
AcDbEntity
  8
0
100
AcDbLine
 10
6.712065116314522
 20
0.3124999999999982
 30
0.0
 11
6.774565116314522
 21
0.3124999999999982
 31
0.0
  0
LINE
  5
1C6
330
2
100
AcDbEntity
  8
0
100
AcDbLine
 10
6.660939116314522
 20
0.2613739999999982
 30
0.0
 11
6.712065116314522
 21
0.3124999999999982
 31
0.0
  0
LINE
  5
1C7
330
2
100
AcDbEntity
  8
0
100
AcDbLine
 10
5.587065116314522
 20
3.4375
 30
0.0
 11
5.587065116314522
 21
4.0
 31
0.0
  0
ARC
  5
1C8
330
2
100
AcDbEntity
  8
0
100
AcDbCircle
 10
5.837065116314522
 20
3.1875
 30
0.0
 40
0.125
100
AcDbArc
 50
0.0
 51
90.0
  0
ARC
  5
1C9
330
2
100
AcDbEntity
  8
0
100
AcDbCircle
 10
5.712065116314522
 20
3.4375
 30
0.0
 40
0.125
100
AcDbArc
 50
180.0
 51
270.0
  0
LINE
  5
1CA
330
2
100
AcDbEntity
  8
0
100
AcDbLine
 10
5.837065116314522
 20
3.3125
 30
0.0
 11
5.712065116314522
 21
3.3125
 31
0.0
  0
ARC
  5
1CE
330
2
100
AcDbEntity
  8
0
100
AcDbCircle
 10
5.837065116314522
 20
4.25
 30
0.0
 40
0.125
100
AcDbArc
 50
270.0
 51
0.0
  0
LINE
  5
1CF
330
2
100
AcDbEntity
  8
0
100
AcDbLine
 10
5.837065116314523
 20
3.470500000000003
 30
0.0
 11
5.837065116314523
 21
3.904500000000001
 31
0.0
  0
ARC
  5
1D1
330
2
100
AcDbEntity
  8
0
100
AcDbCircle
 10
5.712065116314522
 20
4.0
 30
0.0
 40
0.125
100
AcDbArc
 50
90.0
 51
180.0
  0
LINE
  5
1D2
330
2
100
AcDbEntity
  8
0
100
AcDbLine
 10
5.837065116314522
 20
4.125
 30
0.0
 11
5.712065116314522
 21
4.125
 31
0.0
  0
ARC
  5
1D6
330
2
100
AcDbEntity
  8
0
100
AcDbCircle
 10
6.71206511631452
 20
3.937499999999996
 30
0.0
 40
0.1875
100
AcDbArc
 50
90.000019
 51
270.0
  0
LINE
  5
1D8
330
2
100
AcDbEntity
  8
0
100
AcDbLine
 10
5.962065116314523
 20
7.875
 30
0.0
 11
6.712065116314523
 21
7.875
 31
0.0
  0
POINT
  5
1D9
330
2
100
AcDbEntity
  8
0
100
AcDbPoint
 10
5.962065116314523
 20
7.875
 30
0.0
  0
LINE
  5
1DA
330
2
100
AcDbEntity
  8
0
100
AcDbLine
 10
6.774565116314523
 20
7.875
 30
0.0
 11
6.712065116314523
 21
7.875
 31
0.0
  0
ARC
  5
1DB
330
2
100
AcDbEntity
  8
0
100
AcDbCircle
 10
-0.8437500000000178
 20
2.234075726970158
 30
0.0
 40
0.1796218228407343
100
AcDbArc
 50
104.838395993462
 51
112.0008925954693
  0
ARC
  5
1DC
330
2
100
AcDbEntity
  8
0
100
AcDbCircle
 10
-0.84544588209048
 20
2.238272994176345
 30
0.0
 40
0.1750948958405623
100
AcDbArc
 50
112.0008925954736
 51
134.2879713357524
  0
ARC
  5
1DD
330
2
100
AcDbEntity
  8
0
100
AcDbCircle
 10
-0.8480701165187616
 20
2.24096327680796
 30
0.0
 40
0.1713366745894182
100
AcDbArc
 50
134.2879713357515
 51
156.992043130093
  0
ARC
  5
1DE
330
2
100
AcDbEntity
  8
0
100
AcDbCircle
 10
-0.8521542306491483
 20
2.242697549810902
 30
0.0
 40
0.1668995932200088
100
AcDbArc
 50
156.9920431300967
 51
180.0000000000018
  0
ARC
  5
1DF
330
2
100
AcDbEntity
  8
0
100
AcDbCircle
 10
-0.8521542306491545
 20
2.242697549810892
 30
0.0
 40
0.1668995932200028
100
AcDbArc
 50
179.9999999999982
 51
203.0079568699041
  0
ARC
  5
1E0
330
2
100
AcDbEntity
  8
0
100
AcDbCircle
 10
-0.8480701165187612
 20
2.244431822813834
 30
0.0
 40
0.1713366745894183
100
AcDbArc
 50
203.0079568699069
 51
225.7120286642484
  0
ARC
  5
1E1
330
2
100
AcDbEntity
  8
0
100
AcDbCircle
 10
-0.8454458820904778
 20
2.247122105445452
 30
0.0
 40
0.1750948958405661
100
AcDbArc
 50
225.7120286642479
 51
247.9991074045261
  0
ARC
  5
1E2
330
2
100
AcDbEntity
  8
0
100
AcDbCircle
 10
-0.8437500000000195
 20
2.251319372651629
 30
0.0
 40
0.1796218228407271
100
AcDbArc
 50
247.9991074045304
 51
255.161604006538
  0
ARC
  5
1E3
330
2
100
AcDbEntity
  8
0
100
AcDbCircle
 10
-0.8437499999999862
 20
2.204971848648409
 30
0.0
 40
0.1627257011624932
100
AcDbArc
 50
106.4204773143154
 51
109.9326970463659
  0
ARC
  5
1E4
330
2
100
AcDbEntity
  8
0
100
AcDbCircle
 10
-0.8504344778046535
 20
2.223404641498018
 30
0.0
 40
0.1431183021570749
100
AcDbArc
 50
109.9326970463529
 51
131.2018769840295
  0
ARC
  5
1E5
330
2
100
AcDbEntity
  8
0
100
AcDbCircle
 10
-0.8607281620619602
 20
2.235162245103542
 30
0.0
 40
0.1274913645769297
100
AcDbArc
 50
131.2018769840352
 51
154.6801826141972
  0
ARC
  5
1E6
330
2
100
AcDbEntity
  8
0
100
AcDbCircle
 10
-0.8766549622835655
 20
2.242697549810904
 30
0.0
 40
0.10987194965101
100
AcDbArc
 50
154.6801826141993
 51
180.0000000000037
  0
ARC
  5
1E7
330
2
100
AcDbEntity
  8
0
100
AcDbCircle
 10
-0.8766549622835727
 20
2.242697549810892
 30
0.0
 40
0.1098719496510028
100
AcDbArc
 50
179.9999999999972
 51
205.3198173858014
  0
ARC
  5
1E8
330
2
100
AcDbEntity
  8
0
100
AcDbCircle
 10
-0.8607281620619518
 20
2.250232854518254
 30
0.0
 40
0.1274913645769366
100
AcDbArc
 50
205.3198173858004
 51
228.7981230159624
  0
ARC
  5
1E9
330
2
100
AcDbEntity
  8
0
100
AcDbCircle
 10
-0.8504344778046553
 20
2.261990458123773
 30
0.0
 40
0.1431183021570711
100
AcDbArc
 50
228.7981230159701
 51
250.0673029536473
  0
ARC
  5
1EA
330
2
100
AcDbEntity
  8
0
100
AcDbCircle
 10
-0.8437499999999862
 20
2.280423250973385
 30
0.0
 40
0.1627257011624932
100
AcDbArc
 50
250.0673029536341
 51
253.5795226856846
  0
ARC
  5
1EB
330
2
100
AcDbEntity
  8
0
100
AcDbCircle
 10
-0.8437499999999876
 20
3.859075726970159
 30
0.0
 40
0.1796218228407433
100
AcDbArc
 50
104.8383959934706
 51
112.0008925954779
  0
ARC
  5
1EC
330
2
100
AcDbEntity
  8
0
100
AcDbCircle
 10
-0.8454458820904782
 20
3.863272994176345
 30
0.0
 40
0.1750948958405623
100
AcDbArc
 50
112.0008925954736
 51
134.2879713357524
  0
ARC
  5
1ED
330
2
100
AcDbEntity
  8
0
100
AcDbCircle
 10
-0.8480701165187599
 20
3.86596327680796
 30
0.0
 40
0.1713366745894182
100
AcDbArc
 50
134.2879713357515
 51
156.992043130093
  0
ARC
  5
1EE
330
2
100
AcDbEntity
  8
0
100
AcDbCircle
 10
-0.8521542306491465
 20
3.867697549810902
 30
0.0
 40
0.1668995932200088
100
AcDbArc
 50
156.9920431300967
 51
180.0000000000018
  0
ARC
  5
1EF
330
2
100
AcDbEntity
  8
0
100
AcDbCircle
 10
-0.8521542306491527
 20
3.867697549810892
 30
0.0
 40
0.1668995932200028
100
AcDbArc
 50
179.9999999999982
 51
203.0079568699041
  0
ARC
  5
1F0
330
2
100
AcDbEntity
  8
0
100
AcDbCircle
 10
-0.8480701165187594
 20
3.869431822813834
 30
0.0
 40
0.1713366745894183
100
AcDbArc
 50
203.0079568699069
 51
225.7120286642484
  0
ARC
  5
1F1
330
2
100
AcDbEntity
  8
0
100
AcDbCircle
 10
-0.845445882090476
 20
3.872122105445452
 30
0.0
 40
0.1750948958405661
100
AcDbArc
 50
225.7120286642479
 51
247.9991074045261
  0
ARC
  5
1F2
330
2
100
AcDbEntity
  8
0
100
AcDbCircle
 10
-0.8437500000000178
 20
3.876319372651629
 30
0.0
 40
0.1796218228407271
100
AcDbArc
 50
247.9991074045304
 51
255.161604006538
  0
ARC
  5
1F3
330
2
100
AcDbEntity
  8
0
100
AcDbCircle
 10
-0.8437499999999845
 20
3.829971848648409
 30
0.0
 40
0.1627257011624932
100
AcDbArc
 50
106.4204773143154
 51
109.9326970463659
  0
ARC
  5
1F4
330
2
100
AcDbEntity
  8
0
100
AcDbCircle
 10
-0.8504344778046518
 20
3.848404641498018
 30
0.0
 40
0.1431183021570749
100
AcDbArc
 50
109.9326970463529
 51
131.2018769840295
  0
ARC
  5
1F5
330
2
100
AcDbEntity
  8
0
100
AcDbCircle
 10
-0.8607281620619585
 20
3.860162245103542
 30
0.0
 40
0.1274913645769297
100
AcDbArc
 50
131.2018769840352
 51
154.6801826141972
  0
ARC
  5
1F6
330
2
100
AcDbEntity
  8
0
100
AcDbCircle
 10
-0.8766549622835638
 20
3.867697549810904
 30
0.0
 40
0.10987194965101
100
AcDbArc
 50
154.6801826141993
 51
180.0000000000037
  0
ARC
  5
1F7
330
2
100
AcDbEntity
  8
0
100
AcDbCircle
 10
-0.8766549622835709
 20
3.867697549810892
 30
0.0
 40
0.1098719496510028
100
AcDbArc
 50
179.9999999999972
 51
205.3198173858014
  0
ARC
  5
1F8
330
2
100
AcDbEntity
  8
0
100
AcDbCircle
 10
-0.86072816206195
 20
3.875232854518254
 30
0.0
 40
0.1274913645769366
100
AcDbArc
 50
205.3198173858004
 51
228.7981230159624
  0
ARC
  5
1F9
330
2
100
AcDbEntity
  8
0
100
AcDbCircle
 10
-0.8504344778046535
 20
3.886990458123773
 30
0.0
 40
0.1431183021570711
100
AcDbArc
 50
228.7981230159701
 51
250.0673029536473
  0
ARC
  5
1FA
330
2
100
AcDbEntity
  8
0
100
AcDbCircle
 10
-0.8437499999999845
 20
3.905423250973385
 30
0.0
 40
0.1627257011624932
100
AcDbArc
 50
250.0673029536341
 51
253.5795226856846
  0
ARC
  5
1FB
330
2
100
AcDbEntity
  8
0
100
AcDbCircle
 10
0.8437499999999929
 20
2.024774298837521
 30
0.0
 40
0.1627257011624934
100
AcDbArc
 50
70.06730295363398
 51
73.57952268568442
  0
ARC
  5
1FC
330
2
100
AcDbEntity
  8
0
100
AcDbCircle
 10
0.8504344778046571
 20
2.043207091687147
 30
0.0
 40
0.1431183021570594
100
AcDbArc
 50
48.79812301596692
 51
70.06730295364335
  0
ARC
  5
1FD
330
2
100
AcDbEntity
  8
0
100
AcDbCircle
 10
0.8607281620619594
 20
2.054964695292636
 30
0.0
 40
0.1274913645769437
100
AcDbArc
 50
25.3198173858077
 51
48.7981230159697
  0
ARC
  5
1FE
330
2
100
AcDbEntity
  8
0
100
AcDbCircle
 10
0.8766549622835722
 20
2.062500000000014
 30
0.0
 40
0.1098719496510104
100
AcDbArc
 50
359.9999999999963
 51
25.31981738580055
  0
ARC
  5
1FF
330
2
100
AcDbEntity
  8
0
100
AcDbCircle
 10
0.8766549622835793
 20
2.062500000000002
 30
0.0
 40
0.1098719496510032
100
AcDbArc
 50
334.6801826141987
 51
0.000000000002779
  0
ARC
  5
200
330
2
100
AcDbEntity
  8
0
100
AcDbCircle
 10
0.8607281620619558
 20
2.070035304707382
 30
0.0
 40
0.127491364576947
100
AcDbArc
 50
311.201876984031
 51
334.680182614193
  0
ARC
  5
201
330
2
100
AcDbEntity
  8
0
100
AcDbCircle
 10
0.8504344778046589
 20
2.081792908312865
 30
0.0
 40
0.1431183021570554
100
AcDbArc
 50
289.9326970463565
 51
311.2018769840335
  0
ARC
  5
202
330
2
100
AcDbEntity
  8
0
100
AcDbCircle
 10
0.8437499999999929
 20
2.100225701162497
 30
0.0
 40
0.1627257011624951
100
AcDbArc
 50
286.4204773143154
 51
289.9326970463658
  0
ARC
  5
203
330
2
100
AcDbEntity
  8
0
100
AcDbCircle
 10
0.8437500000000249
 20
2.05387817715927
 30
0.0
 40
0.1796218228407343
100
AcDbArc
 50
67.99910740453075
 51
75.16160400653801
  0
ARC
  5
204
330
2
100
AcDbEntity
  8
0
100
AcDbCircle
 10
0.8454458820904875
 20
2.058075444365457
 30
0.0
 40
0.1750948958405621
100
AcDbArc
 50
45.71202866424768
 51
67.99910740452653
  0
ARC
  5
205
330
2
100
AcDbEntity
  8
0
100
AcDbCircle
 10
0.8480701165187687
 20
2.060765726997072
 30
0.0
 40
0.1713366745894182
100
AcDbArc
 50
23.00795686990699
 51
45.71202866424847
  0
ARC
  5
206
330
2
100
AcDbEntity
  8
0
100
AcDbCircle
 10
0.852154230649151
 20
2.062500000000012
 30
0.0
 40
0.1668995932200135
100
AcDbArc
 50
359.9999999999982
 51
23.00795686990324
  0
ARC
  5
207
330
2
100
AcDbEntity
  8
0
100
AcDbCircle
 10
0.8521542306491616
 20
2.0625
 30
0.0
 40
0.1668995932200028
100
AcDbArc
 50
336.9920431300965
 51
0.0000000000024393
  0
ARC
  5
208
330
2
100
AcDbEntity
  8
0
100
AcDbCircle
 10
0.8480701165187679
 20
2.064234273002942
 30
0.0
 40
0.171336674589418
100
AcDbArc
 50
314.2879713357522
 51
336.9920431300936
  0
ARC
  5
209
330
2
100
AcDbEntity
  8
0
100
AcDbCircle
 10
0.8454458820904849
 20
2.066924555634561
 30
0.0
 40
0.1750948958405649
100
AcDbArc
 50
292.0008925954741
 51
314.2879713357525
  0
ARC
  5
20A
330
2
100
AcDbEntity
  8
0
100
AcDbCircle
 10
0.8437500000000267
 20
2.071121822840741
 30
0.0
 40
0.1796218228407287
100
AcDbArc
 50
284.8383959934619
 51
292.0008925954694
  0
ARC
  5
20B
330
2
100
AcDbEntity
  8
0
100
AcDbCircle
 10
0.8437499999999911
 20
3.649774298837507
 30
0.0
 40
0.1627257011624934
100
AcDbArc
 50
70.06730295363398
 51
73.57952268568442
  0
ARC
  5
20C
330
2
100
AcDbEntity
  8
0
100
AcDbCircle
 10
0.8504344778046571
 20
3.668207091687124
 30
0.0
 40
0.1431183021570671
100
AcDbArc
 50
48.79812301596872
 51
70.06730295364524
  0
ARC
  5
20D
330
2
100
AcDbEntity
  8
0
100
AcDbCircle
 10
0.8607281620619638
 20
3.679964695292632
 30
0.0
 40
0.1274913645769339
100
AcDbArc
 50
25.31981738580528
 51
48.79812301596746
  0
ARC
  5
20E
330
2
100
AcDbEntity
  8
0
100
AcDbCircle
 10
0.8766549622835704
 20
3.687500000000002
 30
0.0
 40
0.1098719496510104
100
AcDbArc
 50
359.9999999999963
 51
25.31981738580055
  0
ARC
  5
20F
330
2
100
AcDbEntity
  8
0
100
AcDbCircle
 10
0.8766549622835775
 20
3.687499999999989
 30
0.0
 40
0.1098719496510032
100
AcDbArc
 50
334.6801826141987
 51
0.000000000002779
  0
ARC
  5
210
330
2
100
AcDbEntity
  8
0
100
AcDbCircle
 10
0.8607281620619558
 20
3.695035304707361
 30
0.0
 40
0.1274913645769416
100
AcDbArc
 50
311.2018769840342
 51
334.6801826141963
  0
ARC
  5
211
330
2
100
AcDbEntity
  8
0
100
AcDbCircle
 10
0.8504344778046589
 20
3.706792908312862
 30
0.0
 40
0.1431183021570633
100
AcDbArc
 50
289.9326970463546
 51
311.2018769840317
  0
ARC
  5
212
330
2
100
AcDbEntity
  8
0
100
AcDbCircle
 10
0.8437499999999911
 20
3.725225701162483
 30
0.0
 40
0.1627257011624934
100
AcDbArc
 50
286.4204773143156
 51
289.932697046366
  0
ARC
  5
213
330
2
100
AcDbEntity
  8
0
100
AcDbCircle
 10
0.8437500000000231
 20
3.678878177159255
 30
0.0
 40
0.1796218228407343
100
AcDbArc
 50
67.99910740453075
 51
75.16160400653801
  0
ARC
  5
214
330
2
100
AcDbEntity
  8
0
100
AcDbCircle
 10
0.8454458820904858
 20
3.683075444365443
 30
0.0
 40
0.1750948958405621
100
AcDbArc
 50
45.71202866424768
 51
67.99910740452653
  0
ARC
  5
215
330
2
100
AcDbEntity
  8
0
100
AcDbCircle
 10
0.848070116518767
 20
3.685765726997058
 30
0.0
 40
0.1713366745894182
100
AcDbArc
 50
23.00795686990699
 51
45.71202866424847
  0
ARC
  5
216
330
2
100
AcDbEntity
  8
0
100
AcDbCircle
 10
0.8521542306491536
 20
3.6875
 30
0.0
 40
0.1668995932200088
100
AcDbArc
 50
359.9999999999982
 51
23.00795686990327
  0
ARC
  5
217
330
2
100
AcDbEntity
  8
0
100
AcDbCircle
 10
0.8521542306491599
 20
3.687499999999989
 30
0.0
 40
0.1668995932200028
100
AcDbArc
 50
336.9920431300959
 51
0.0000000000018294
  0
ARC
  5
218
330
2
100
AcDbEntity
  8
0
100
AcDbCircle
 10
0.8480701165187661
 20
3.689234273002931
 30
0.0
 40
0.1713366745894187
100
AcDbArc
 50
314.2879713357518
 51
336.9920431300931
  0
ARC
  5
219
330
2
100
AcDbEntity
  8
0
100
AcDbCircle
 10
0.8454458820904831
 20
3.69192455563455
 30
0.0
 40
0.1750948958405661
100
AcDbArc
 50
292.0008925954738
 51
314.2879713357521
  0
ARC
  5
21A
330
2
100
AcDbEntity
  8
0
100
AcDbCircle
 10
0.8437500000000249
 20
3.696121822840727
 30
0.0
 40
0.1796218228407271
100
AcDbArc
 50
284.838395993462
 51
292.0008925954696
  0
LINE
  5
21B
330
2
100
AcDbEntity
  8
0
100
AcDbLine
 10
-1.244444
 20
6.966687
 30
0.0
 11
-1.28125
 21
7.003494
 31
0.0
  0
LINE
  5
21C
330
2
100
AcDbEntity
  8
0
100
AcDbLine
 10
-1.131306
 20
6.966687
 30
0.0
 11
-1.09375
 21
7.004244
 31
0.0
  0
LINE
  5
21D
330
2
100
AcDbEntity
  8
0
100
AcDbLine
 10
-1.18825
 20
6.75
 30
0.0
 11
-1.1875
 21
6.75
 31
0.0
  0
LINE
  5
21E
330
2
100
AcDbEntity
  8
0
100
AcDbLine
 10
-1.28125
 20
7.625
 30
0.0
 11
-1.28125
 21
6.843
 31
0.0
  0
LINE
  5
21F
330
2
100
AcDbEntity
  8
0
100
AcDbLine
 10
-1.09375
 20
6.84375
 30
0.0
 11
-1.09375
 21
7.625
 31
0.0
  0
LINE
  5
220
330
2
100
AcDbEntity
  8
0
100
AcDbLine
 10
-1.1875
 20
6.75
 30
0.0
 11
-1.09375
 21
6.84375
 31
0.0
  0
LINE
  5
221
330
2
100
AcDbEntity
  8
0
100
AcDbLine
 10
-1.18825
 20
6.75
 30
0.0
 11
-1.28125
 21
6.843
 31
0.0
  0
ARC
  5
222
330
2
100
AcDbEntity
  8
0
100
AcDbCircle
 10
-1.188663
 20
7.067976999999999
 30
0.0
 40
0.114071
100
AcDbArc
 50
54.808812
 51
127.538262
  0
ARC
  5
223
330
2
100
AcDbEntity
  8
0
100
AcDbCircle
 10
-1.188663
 20
7.221177000000001
 30
0.0
 40
0.114071
100
AcDbArc
 50
232.461738
 51
305.191188
  0
LINE
  5
224
330
2
100
AcDbEntity
  8
0
100
AcDbLine
 10
-1.237372
 20
6.959616000000001
 30
0.0
 11
-1.28125
 21
7.003494
 31
0.0
  0
LINE
  5
225
330
2
100
AcDbEntity
  8
0
100
AcDbLine
 10
-1.138378
 20
6.959616000000001
 30
0.0
 11
-1.09375
 21
7.004244
 31
0.0
  0
LINE
  5
226
330
2
100
AcDbEntity
  8
0
100
AcDbLine
 10
-1.18825
 20
6.910494
 30
0.0
 11
-1.1875
 21
6.910494
 31
0.0
  0
LINE
  5
227
330
2
100
AcDbEntity
  8
0
100
AcDbLine
 10
-1.18825
 20
6.75
 30
0.0
 11
-1.1875
 21
6.75
 31
0.0
  0
LINE
  5
228
330
2
100
AcDbEntity
  8
0
100
AcDbLine
 10
-1.28125
 20
7.5
 30
0.0
 11
-1.28125
 21
6.843
 31
0.0
  0
LINE
  5
229
330
2
100
AcDbEntity
  8
0
100
AcDbLine
 10
-1.09375
 20
6.84375
 30
0.0
 11
-1.09375
 21
7.5
 31
0.0
  0
LINE
  5
22A
330
2
100
AcDbEntity
  8
0
100
AcDbLine
 10
-1.1875
 20
6.75
 30
0.0
 11
-1.09375
 21
6.84375
 31
0.0
  0
LINE
  5
22B
330
2
100
AcDbEntity
  8
0
100
AcDbLine
 10
-1.18825
 20
6.75
 30
0.0
 11
-1.28125
 21
6.843
 31
0.0
  0
POINT
  5
22C
330
2
100
AcDbEntity
  8
0
100
AcDbPoint
 10
-1.1875
 20
6.75
 30
0.0
  0
ARC
  5
22D
330
2
100
AcDbEntity
  8
0
100
AcDbCircle
 10
-1.187875
 20
7.009114
 30
0.0
 40
0.07
100
AcDbArc
 50
225.0
 51
315.0
  0
LINE
  5
22E
330
2
100
AcDbEntity
  8
0
100
AcDbLine
 10
-1.21125
 20
13.44425631873545
 30
0.0
 11
-1.28125
 21
13.46425631873545
 31
0.0
  0
LINE
  5
22F
330
2
100
AcDbEntity
  8
0
100
AcDbLine
 10
-1.28125
 20
13.46425631873545
 30
0.0
 11
-1.28125
 21
13.81925631873545
 31
0.0
  0
LINE
  5
230
330
2
100
AcDbEntity
  8
0
100
AcDbLine
 10
-1.16375
 20
13.44425631873545
 30
0.0
 11
-1.21125
 21
13.44425631873545
 31
0.0
  0
LINE
  5
231
330
2
100
AcDbEntity
  8
0
100
AcDbLine
 10
-1.16375
 20
13.44425631873545
 30
0.0
 11
-1.09375
 21
13.46425631873545
 31
0.0
  0
LINE
  5
232
330
2
100
AcDbEntity
  8
0
100
AcDbLine
 10
-1.09375
 20
13.81925631873545
 30
0.0
 11
-1.09375
 21
13.46425631873545
 31
0.0
  0
LINE
  5
233
330
2
100
AcDbEntity
  8
0
100
AcDbLine
 10
1.130556
 20
6.966687
 30
0.0
 11
1.09375
 21
7.003494
 31
0.0
  0
LINE
  5
234
330
2
100
AcDbEntity
  8
0
100
AcDbLine
 10
1.243694
 20
6.966687
 30
0.0
 11
1.28125
 21
7.004244
 31
0.0
  0
LINE
  5
235
330
2
100
AcDbEntity
  8
0
100
AcDbLine
 10
1.18675
 20
6.75
 30
0.0
 11
1.1875
 21
6.75
 31
0.0
  0
LINE
  5
236
330
2
100
AcDbEntity
  8
0
100
AcDbLine
 10
1.09375
 20
7.625
 30
0.0
 11
1.09375
 21
6.843
 31
0.0
  0
LINE
  5
237
330
2
100
AcDbEntity
  8
0
100
AcDbLine
 10
1.28125
 20
6.84375
 30
0.0
 11
1.28125
 21
7.625
 31
0.0
  0
LINE
  5
238
330
2
100
AcDbEntity
  8
0
100
AcDbLine
 10
1.1875
 20
6.75
 30
0.0
 11
1.28125
 21
6.84375
 31
0.0
  0
LINE
  5
239
330
2
100
AcDbEntity
  8
0
100
AcDbLine
 10
1.18675
 20
6.75
 30
0.0
 11
1.09375
 21
6.843
 31
0.0
  0
ARC
  5
23A
330
2
100
AcDbEntity
  8
0
100
AcDbCircle
 10
1.186337
 20
7.067976999999999
 30
0.0
 40
0.114071
100
AcDbArc
 50
54.808812
 51
127.538262
  0
ARC
  5
23B
330
2
100
AcDbEntity
  8
0
100
AcDbCircle
 10
1.186337
 20
7.221177000000001
 30
0.0
 40
0.114071
100
AcDbArc
 50
232.461738
 51
305.191188
  0
LINE
  5
23C
330
2
100
AcDbEntity
  8
0
100
AcDbLine
 10
1.137627999999999
 20
6.959616000000001
 30
0.0
 11
1.09375
 21
7.003494
 31
0.0
  0
LINE
  5
23D
330
2
100
AcDbEntity
  8
0
100
AcDbLine
 10
1.236622000000001
 20
6.959616000000001
 30
0.0
 11
1.28125
 21
7.004244
 31
0.0
  0
LINE
  5
23E
330
2
100
AcDbEntity
  8
0
100
AcDbLine
 10
1.18675
 20
6.910494
 30
0.0
 11
1.1875
 21
6.910494
 31
0.0
  0
LINE
  5
23F
330
2
100
AcDbEntity
  8
0
100
AcDbLine
 10
1.18675
 20
6.75
 30
0.0
 11
1.1875
 21
6.75
 31
0.0
  0
LINE
  5
240
330
2
100
AcDbEntity
  8
0
100
AcDbLine
 10
1.09375
 20
7.5
 30
0.0
 11
1.09375
 21
6.843
 31
0.0
  0
LINE
  5
241
330
2
100
AcDbEntity
  8
0
100
AcDbLine
 10
1.28125
 20
6.84375
 30
0.0
 11
1.28125
 21
7.5
 31
0.0
  0
LINE
  5
242
330
2
100
AcDbEntity
  8
0
100
AcDbLine
 10
1.1875
 20
6.75
 30
0.0
 11
1.28125
 21
6.84375
 31
0.0
  0
LINE
  5
243
330
2
100
AcDbEntity
  8
0
100
AcDbLine
 10
1.18675
 20
6.75
 30
0.0
 11
1.09375
 21
6.843
 31
0.0
  0
POINT
  5
244
330
2
100
AcDbEntity
  8
0
100
AcDbPoint
 10
1.1875
 20
6.75
 30
0.0
  0
ARC
  5
245
330
2
100
AcDbEntity
  8
0
100
AcDbCircle
 10
1.187125
 20
7.009114
 30
0.0
 40
0.07
100
AcDbArc
 50
225.0
 51
314.9999999999999
  0
LINE
  5
246
330
2
100
AcDbEntity
  8
0
100
AcDbLine
 10
1.16375
 20
13.44425631873545
 30
0.0
 11
1.09375
 21
13.46425631873545
 31
0.0
  0
LINE
  5
247
330
2
100
AcDbEntity
  8
0
100
AcDbLine
 10
1.09375
 20
13.46425631873545
 30
0.0
 11
1.09375
 21
13.81925631873545
 31
0.0
  0
LINE
  5
248
330
2
100
AcDbEntity
  8
0
100
AcDbLine
 10
1.21125
 20
13.44425631873545
 30
0.0
 11
1.16375
 21
13.44425631873545
 31
0.0
  0
LINE
  5
249
330
2
100
AcDbEntity
  8
0
100
AcDbLine
 10
1.21125
 20
13.44425631873545
 30
0.0
 11
1.28125
 21
13.46425631873545
 31
0.0
  0
LINE
  5
24A
330
2
100
AcDbEntity
  8
0
100
AcDbLine
 10
1.28125
 20
13.81925631873545
 30
0.0
 11
1.28125
 21
13.46425631873545
 31
0.0
  0
LINE
  5
24B
330
2
100
AcDbEntity
  8
0
100
AcDbLine
 10
4.782148116314524
 20
0.0
 30
0.0
 11
4.910939116314522
 21
0.1287909999999979
 31
0.0
  0
ARC
  5
24C
330
2
100
AcDbEntity
  8
0
100
AcDbCircle
 10
4.84464771536399
 20
0.1950824999999981
 30
0.0
 40
0.0937502683315312
100
AcDbArc
 50
314.999957195713
 51
45.00004280428698
  0
LINE
  5
24D
330
2
100
AcDbEntity
  8
0
100
AcDbLine
 10
6.534239127822742
 20
0.2666162084151988
 30
0.0
 11
6.460365127822742
 21
0.1927422084151989
 31
0.0
  0
ARC
  5
24E
330
2
100
AcDbEntity
  8
0
100
AcDbCircle
 10
6.526656528773273
 20
0.1264507084151987
 30
0.0
 40
0.0937502683315312
100
AcDbArc
 50
134.999957195713
 51
225.000042804287
  0
LINE
  5
24F
330
2
100
AcDbEntity
  8
0
100
AcDbLine
 10
6.454482116314521
 20
0.1874999999999982
 30
0.0
 11
6.528356116314521
 21
0.2613739999999982
 31
0.0
  0
ARC
  5
250
330
2
100
AcDbEntity
  8
0
100
AcDbCircle
 10
6.594647616314521
 20
0.1950825990494671
 30
0.0
 40
0.0937502683315312
100
AcDbArc
 50
44.99995719571302
 51
135.000042804287
  0
ARC
  5
251
330
2
100
AcDbEntity
  8
0
100
AcDbCircle
 10
5.837065116314518
 20
1.987779608820516
 30
0.0
 40
0.0502796088205137
100
AcDbArc
 50
270.0000000000061
 51
303.510822955676
  0
ARC
  5
252
330
2
100
AcDbEntity
  8
0
100
AcDbCircle
 10
5.813418028371315
 20
2.023491802725852
 30
0.0
 40
0.0931112041880222
100
AcDbArc
 50
303.5108229556631
 51
327.9718933333847
  0
ARC
  5
253
330
2
100
AcDbEntity
  8
0
100
AcDbCircle
 10
5.775765596177298
 20
2.04704534409332
 30
0.0
 40
0.1375237582811395
100
AcDbArc
 50
327.9718933333934
 51
345.4734521832042
  0
ARC
  5
254
330
2
100
AcDbEntity
  8
0
100
AcDbCircle
 10
5.716120897861835
 20
2.062500000000011
 30
0.0
 40
0.1991381756389042
100
AcDbArc
 50
345.4734521832003
 51
359.9999999999974
  0
ARC
  5
255
330
2
100
AcDbEntity
  8
0
100
AcDbCircle
 10
5.71612089786184
 20
2.062499999999993
 30
0.0
 40
0.1991381756388986
100
AcDbArc
 50
0.0000000000025555
 51
14.52654781679964
  0
ARC
  5
256
330
2
100
AcDbEntity
  8
0
100
AcDbCircle
 10
5.775765596177294
 20
2.077954655906687
 30
0.0
 40
0.1375237582811419
100
AcDbArc
 50
14.5265478167933
 51
32.02810666660515
  0
ARC
  5
257
330
2
100
AcDbEntity
  8
0
100
AcDbCircle
 10
5.813418028371322
 20
2.101508197274168
 30
0.0
 40
0.0931112041880086
100
AcDbArc
 50
32.0281066666102
 51
56.48917704433145
  0
ARC
  5
258
330
2
100
AcDbEntity
  8
0
100
AcDbCircle
 10
5.837065116314522
 20
2.137220391179476
 30
0.0
 40
0.0502796088205265
100
AcDbArc
 50
56.48917704432847
 51
89.99999999999798
  0
ARC
  5
259
330
2
100
AcDbEntity
  8
0
100
AcDbCircle
 10
5.837065116314522
 20
1.964925526379172
 30
0.0
 40
0.0734255263791699
100
AcDbArc
 50
270.0000000000014
 51
302.6079210151962
  0
ARC
  5
25A
330
2
100
AcDbEntity
  8
0
100
AcDbCircle
 10
5.807194521347006
 20
2.011618650683651
 30
0.0
 40
0.1288556653022041
100
AcDbArc
 50
302.607921015193
 51
327.0773280975488
  0
ARC
  5
25B
330
2
100
AcDbEntity
  8
0
100
AcDbCircle
 10
5.759731131052053
 20
2.042350743226791
 30
0.0
 40
0.1853997625217287
100
AcDbArc
 50
327.0773280975489
 51
344.9866289980013
  0
ARC
  5
25C
330
2
100
AcDbEntity
  8
0
100
AcDbCircle
 10
5.684603215235061
 20
2.062500000000016
 30
0.0
 40
0.2631827702002597
100
AcDbArc
 50
344.9866289979997
 51
359.9999999999969
  0
ARC
  5
25D
330
2
100
AcDbEntity
  8
0
100
AcDbCircle
 10
5.684603215235073
 20
2.062499999999988
 30
0.0
 40
0.2631827702002472
100
AcDbArc
 50
0.0000000000030938
 51
15.01337100200059
  0
ARC
  5
25E
330
2
100
AcDbEntity
  8
0
100
AcDbCircle
 10
5.75973113105205
 20
2.082649256773216
 30
0.0
 40
0.1853997625217307
100
AcDbArc
 50
15.01337100199686
 51
32.92267190245004
  0
ARC
  5
25F
330
2
100
AcDbEntity
  8
0
100
AcDbCircle
 10
5.807194521346993
 20
2.113381349316354
 30
0.0
 40
0.1288556653022142
100
AcDbArc
 50
32.92267190244824
 51
57.39207898480316
  0
ARC
  5
260
330
2
100
AcDbEntity
  8
0
100
AcDbCircle
 10
5.83706511631453
 20
2.160074473620833
 30
0.0
 40
0.0734255263791676
100
AcDbArc
 50
57.39207898481109
 51
90.00000000000556
  0
ARC
  5
261
330
2
100
AcDbEntity
  8
0
100
AcDbCircle
 10
5.837065116314506
 20
2.294909098411202
 30
0.0
 40
0.4494090984112038
100
AcDbArc
 50
270.0000000000022
 51
284.3044795065315
  0
ARC
  5
262
330
2
100
AcDbEntity
  8
0
100
AcDbCircle
 10
5.837065116314463
 20
1.830090901588807
 30
0.0
 40
0.4494090984112075
100
AcDbArc
 50
75.69552049346304
 51
89.9999999999923
  0
ARC
  5
263
330
2
100
AcDbEntity
  8
0
100
AcDbCircle
 10
5.920105494128162
 20
2.016772824163136
 30
0.0
 40
0.242397530879186
100
AcDbArc
 50
50.43639217036645
 51
55.25172445455306
  0
ARC
  5
264
330
2
100
AcDbEntity
  8
0
100
AcDbCircle
 10
5.869915287430663
 20
1.944419290509696
 30
0.0
 40
0.3304548456263269
100
AcDbArc
 50
55.25172445456964
 51
64.6689207421355
  0
ARC
  5
265
330
2
100
AcDbEntity
  8
0
100
AcDbCircle
 10
5.996684425720023
 20
2.062500000000011
 30
0.0
 40
0.1532050010699985
100
AcDbArc
 50
336.984208199549
 51
359.9999999999967
  0
ARC
  5
266
330
2
100
AcDbEntity
  8
0
100
AcDbCircle
 10
5.996684425720021
 20
2.062499999999991
 30
0.0
 40
0.1532050010700008
100
AcDbArc
 50
0.0000000000039859
 51
23.01579180045134
  0
ARC
  5
267
330
2
100
AcDbEntity
  8
0
100
AcDbCircle
 10
5.869915287430635
 20
2.180580709490272
 30
0.0
 40
0.3304548456263069
100
AcDbArc
 50
295.3310792578716
 51
304.7482755454373
  0
ARC
  5
268
330
2
100
AcDbEntity
  8
0
100
AcDbCircle
 10
5.920105494128199
 20
2.108227175836928
 30
0.0
 40
0.2423975308792074
100
AcDbArc
 50
304.7482755454307
 51
309.5636078296179
  0
ARC
  5
269
330
2
100
AcDbEntity
  8
0
100
AcDbCircle
 10
5.837065116314518
 20
3.612779608820516
 30
0.0
 40
0.0502796088205137
100
AcDbArc
 50
270.0000000000061
 51
303.510822955676
  0
ARC
  5
26A
330
2
100
AcDbEntity
  8
0
100
AcDbCircle
 10
5.813418028371318
 20
3.64849180272585
 30
0.0
 40
0.0931112041880188
100
AcDbArc
 50
303.5108229556619
 51
327.9718933333836
  0
ARC
  5
26B
330
2
100
AcDbEntity
  8
0
100
AcDbCircle
 10
5.775765596177285
 20
3.67204534409332
 30
0.0
 40
0.137523758281151
100
AcDbArc
 50
327.9718933333955
 51
345.4734521832062
  0
ARC
  5
26C
330
2
100
AcDbEntity
  8
0
100
AcDbCircle
 10
5.716120897861842
 20
3.687500000000011
 30
0.0
 40
0.1991381756388969
100
AcDbArc
 50
345.4734521832003
 51
359.9999999999974
  0
ARC
  5
26D
330
2
100
AcDbEntity
  8
0
100
AcDbCircle
 10
5.71612089786184
 20
3.687499999999993
 30
0.0
 40
0.1991381756388986
100
AcDbArc
 50
0.0000000000025555
 51
14.52654781679964
  0
ARC
  5
26E
330
2
100
AcDbEntity
  8
0
100
AcDbCircle
 10
5.775765596177294
 20
3.702954655906687
 30
0.0
 40
0.1375237582811419
100
AcDbArc
 50
14.5265478167933
 51
32.02810666660515
  0
ARC
  5
26F
330
2
100
AcDbEntity
  8
0
100
AcDbCircle
 10
5.813418028371322
 20
3.726508197274168
 30
0.0
 40
0.0931112041880086
100
AcDbArc
 50
32.0281066666102
 51
56.48917704433145
  0
ARC
  5
270
330
2
100
AcDbEntity
  8
0
100
AcDbCircle
 10
5.837065116314522
 20
3.762220391179476
 30
0.0
 40
0.0502796088205265
100
AcDbArc
 50
56.48917704432847
 51
89.99999999999798
  0
ARC
  5
271
330
2
100
AcDbEntity
  8
0
100
AcDbCircle
 10
5.837065116314518
 20
3.589925526379172
 30
0.0
 40
0.0734255263791699
100
AcDbArc
 50
270.0000000000042
 51
302.6079210151993
  0
ARC
  5
272
330
2
100
AcDbEntity
  8
0
100
AcDbCircle
 10
5.807194521347013
 20
3.636618650683651
 30
0.0
 40
0.1288556653021988
100
AcDbArc
 50
302.6079210151908
 51
327.0773280975463
  0
ARC
  5
273
330
2
100
AcDbEntity
  8
0
100
AcDbCircle
 10
5.759731131052037
 20
3.667350743226791
 30
0.0
 40
0.185399762521743
100
AcDbArc
 50
327.0773280975511
 51
344.9866289980036
  0
ARC
  5
274
330
2
100
AcDbEntity
  8
0
100
AcDbCircle
 10
5.684603215235073
 20
3.687500000000018
 30
0.0
 40
0.2631827702002472
100
AcDbArc
 50
344.9866289979994
 51
359.9999999999965
  0
ARC
  5
275
330
2
100
AcDbEntity
  8
0
100
AcDbCircle
 10
5.684603215235081
 20
3.687499999999986
 30
0.0
 40
0.2631827702002401
100
AcDbArc
 50
0.0000000000034805
 51
15.01337100200099
  0
ARC
  5
276
330
2
100
AcDbEntity
  8
0
100
AcDbCircle
 10
5.759731131052043
 20
3.707649256773214
 30
0.0
 40
0.1853997625217375
100
AcDbArc
 50
15.01337100199629
 51
32.92267190244931
  0
ARC
  5
277
330
2
100
AcDbEntity
  8
0
100
AcDbCircle
 10
5.807194521346993
 20
3.738381349316354
 30
0.0
 40
0.1288556653022142
100
AcDbArc
 50
32.92267190244824
 51
57.39207898480316
  0
ARC
  5
278
330
2
100
AcDbEntity
  8
0
100
AcDbCircle
 10
5.83706511631453
 20
3.785074473620833
 30
0.0
 40
0.0734255263791676
100
AcDbArc
 50
57.39207898481109
 51
90.00000000000556
  0
ARC
  5
279
330
2
100
AcDbEntity
  8
0
100
AcDbCircle
 10
5.837065116314463
 20
3.455090901588802
 30
0.0
 40
0.4494090984112127
100
AcDbArc
 50
75.69552049346321
 51
89.9999999999923
  0
ARC
  5
27A
330
2
100
AcDbEntity
  8
0
100
AcDbCircle
 10
5.83706511631452
 20
3.919909098411205
 30
0.0
 40
0.449409098411202
100
AcDbArc
 50
270.0000000000005
 51
284.3044795065296
  0
ARC
  5
27B
330
2
100
AcDbEntity
  8
0
100
AcDbCircle
 10
5.996684425720023
 20
3.687500000000014
 30
0.0
 40
0.1532050010699992
100
AcDbArc
 50
336.9842081995484
 51
359.9999999999954
  0
ARC
  5
27C
330
2
100
AcDbEntity
  8
0
100
AcDbCircle
 10
5.996684425720012
 20
3.687499999999995
 30
0.0
 40
0.1532050010700097
100
AcDbArc
 50
0.0000000000026573
 51
23.01579180045066
  0
ARC
  5
27D
330
2
100
AcDbEntity
  8
0
100
AcDbCircle
 10
5.920105494128153
 20
3.641772824163123
 30
0.0
 40
0.2423975308792012
100
AcDbArc
 50
50.4363921703667
 51
55.25172445455301
  0
ARC
  5
27E
330
2
100
AcDbEntity
  8
0
100
AcDbCircle
 10
5.869915287430663
 20
3.569419290509696
 30
0.0
 40
0.3304548456263269
100
AcDbArc
 50
55.25172445456964
 51
64.6689207421355
  0
ARC
  5
27F
330
2
100
AcDbEntity
  8
0
100
AcDbCircle
 10
5.869915287430613
 20
3.805580709490275
 30
0.0
 40
0.3304548456263192
100
AcDbArc
 50
295.3310792578747
 51
304.7482755454403
  0
ARC
  5
280
330
2
100
AcDbEntity
  8
0
100
AcDbCircle
 10
5.920105494128244
 20
3.733227175836955
 30
0.0
 40
0.2423975308792011
100
AcDbArc
 50
304.7482755454189
 51
309.5636078296056
  0
ARC
  5
281
330
2
100
AcDbEntity
  8
0
100
AcDbCircle
 10
6.66284636631452
 20
7.602137800805551
 30
0.0
 40
0.04921875
100
AcDbArc
 50
320.0000000000001
 51
359.9999999999999
  0
ARC
  5
282
330
2
100
AcDbEntity
  8
0
100
AcDbCircle
 10
6.66284636631452
 20
7.625
 30
0.0
 40
0.04921875
100
AcDbArc
 50
320.0000000000002
 51
0.0
  0
LINE
  5
283
330
2
100
AcDbEntity
  8
0
100
AcDbLine
 10
6.389603844990132
 20
7.222791461458868
 30
0.0
 11
6.700550116249282
 21
7.59336279733574
 31
0.0
  0
LINE
  5
284
330
2
100
AcDbEntity
  8
0
100
AcDbLine
 10
6.700550116249282
 20
7.57050059814129
 30
0.0
 11
6.401982506279708
 21
7.214681576327784
 31
0.0
  0
LINE
  5
285
330
2
100
AcDbEntity
  8
0
100
AcDbLine
 10
6.71206511631452
 20
7.512134070962496
 30
0.0
 11
6.432392244762468
 21
7.178832921539197
 31
0.0
  0
LINE
  5
286
330
2
100
AcDbEntity
  8
0
100
AcDbLine
 10
6.711877561470985
 20
6.941064781578227
 30
0.0
 11
6.719056828316402
 21
6.981780427116824
 31
0.0
  0
LINE
  5
287
330
2
100
AcDbEntity
  8
0
100
AcDbLine
 10
6.460266340290316
 20
7.102249473488712
 30
0.0
 11
6.638612205859703
 21
7.070802285491027
 31
0.0
  0
LINE
  5
288
330
2
100
AcDbEntity
  8
0
100
AcDbLine
 10
6.460296513660143
 20
7.054465157812125
 30
0.0
 11
6.63274926522652
 21
7.024057084813563
 31
0.0
  0
LINE
  5
289
330
2
100
AcDbEntity
  8
0
100
AcDbLine
 10
6.638612205859703
 20
7.070802285491027
 30
0.0
 11
6.63274926522652
 21
7.024057084813563
 31
0.0
  0
LINE
  5
28A
330
2
100
AcDbEntity
  8
0
100
AcDbLine
 10
6.638612205859703
 20
7.070802285491027
 30
0.0
 11
6.719056828316402
 21
6.981780427116824
 31
0.0
  0
LINE
  5
28B
330
2
100
AcDbEntity
  8
0
100
AcDbLine
 10
6.477074856060787
 20
6.982466833685386
 30
0.0
 11
6.711877561470985
 21
6.941064781578227
 31
0.0
  0
ARC
  5
28C
330
2
100
AcDbEntity
  8
0
100
AcDbCircle
 10
6.50271509479442
 20
7.127879853466094
 30
0.0
 40
0.14765625
100
AcDbArc
 50
140.0000000000001
 51
260.0
  0
ARC
  5
28D
330
2
100
AcDbEntity
  8
0
100
AcDbCircle
 10
6.477390006149232
 20
7.151407170999264
 30
0.0
 40
0.0984375
100
AcDbArc
 50
140.0000000000001
 51
260.0
  0
ARC
  5
28E
330
2
100
AcDbEntity
  8
0
100
AcDbCircle
 10
6.4684370297001
 20
7.148587755792164
 30
0.0
 40
0.047053125
100
AcDbArc
 50
140.0
 51
260.0
  0
LINE
  5
28F
330
2
100
AcDbEntity
  8
0
100
AcDbLine
 10
6.632617999000622
 20
7.023010499754001
 30
0.0
 11
6.711877561470985
 21
6.941064781578227
 31
0.0
  0
LINE
  5
2FD
330
2
100
AcDbEntity
  8
0
100
AcDbLine
 10
-6.774565116314522
 20
0.3124999999999982
 30
0.0
 11
-6.774565116314523
 21
7.875
 31
0.0
  0
LINE
  5
2FE
330
2
100
AcDbEntity
  8
0
100
AcDbLine
 10
-6.712065116314523
 20
7.875
 30
0.0
 11
-6.712065116314522
 21
0.3124999999999982
 31
0.0
  0
LINE
  5
2FF
330
2
100
AcDbEntity
  8
0
100
AcDbLine
 10
-5.587065116314522
 20
3.588402239375178
 30
0.0
 11
-5.587065116314522
 21
4.150902239375178
 31
0.0
  0
ARC
  5
300
330
2
100
AcDbEntity
  8
0
100
AcDbCircle
 10
-6.71206511631452
 20
3.937499999999996
 30
0.0
 40
0.1875
100
AcDbArc
 50
270.0
 51
89.99998100000002
  0
LINE
  5
301
330
2
100
AcDbEntity
  8
0
100
AcDbLine
 10
-4.910939116314522
 20
0.2613739999999982
 30
0.0
 11
-5.962065116314522
 21
1.3125
 31
0.0
  0
LINE
  5
302
330
2
100
AcDbEntity
  8
0
100
AcDbLine
 10
-6.454482116314521
 20
-0.0000000000000018
 30
0.0
 11
-4.71206511631452
 21
-0.0000000000000018
 31
0.0
  0
LINE
  5
303
330
2
100
AcDbEntity
  8
0
  6
HIDDEN
100
AcDbLine
 10
-6.454482116314521
 20
0.0624999999999982
 30
0.0
 11
-4.844648116314522
 21
0.0624999999999982
 31
0.0
  0
ARC
  5
304
330
2
100
AcDbEntity
  8
0
100
AcDbCircle
 10
-4.84464771536399
 20
0.1950824999999981
 30
0.0
 40
0.0937502683315312
100
AcDbArc
 50
134.999957195713
 51
225.000042804287
  0
LINE
  5
305
330
2
100
AcDbEntity
  8
0
100
AcDbLine
 10
-4.71206511631452
 20
0.0624999999999982
 30
0.0
 11
-4.844648116314522
 21
0.0624999999999982
 31
0.0
  0
LINE
  5
306
330
2
100
AcDbEntity
  8
0
100
AcDbLine
 10
-4.782148116314524
 20
0.0
 30
0.0
 11
-4.910939116314522
 21
0.1287909999999979
 31
0.0
  0
LINE
  5
307
330
2
100
AcDbEntity
  8
0
100
AcDbLine
 10
-4.71206511631452
 20
-0.0000000000000018
 30
0.0
 11
-4.71206511631452
 21
0.0624999999999982
 31
0.0
  0
LINE
  5
308
330
2
100
AcDbEntity
  8
0
100
AcDbLine
 10
-6.712065116314522
 20
0.3124999999999982
 30
0.0
 11
-6.774565116314522
 21
0.3124999999999982
 31
0.0
  0
LINE
  5
309
330
2
100
AcDbEntity
  8
0
100
AcDbLine
 10
-6.534239127822742
 20
0.2666162084151988
 30
0.0
 11
-6.460365127822742
 21
0.1927422084151989
 31
0.0
  0
LINE
  5
30A
330
2
100
AcDbEntity
  8
0
100
AcDbLine
 10
-6.454482116314521
 20
0.1874999999999982
 30
0.0
 11
-6.528356116314521
 21
0.2613739999999982
 31
0.0
  0
LINE
  5
30B
330
2
100
AcDbEntity
  8
0
100
AcDbLine
 10
-6.454482116314521
 20
0.0624999999999982
 30
0.0
 11
-6.454482116314521
 21
-0.0000000000000018
 31
0.0
  0
ARC
  5
30C
330
2
100
AcDbEntity
  8
0
100
AcDbCircle
 10
-6.526656528773273
 20
0.1264507084151987
 30
0.0
 40
0.0937502683315312
100
AcDbArc
 50
314.999957195713
 51
45.00004280428698
  0
ARC
  5
30D
330
2
100
AcDbEntity
  8
0
100
AcDbCircle
 10
-6.594647616314521
 20
0.1950825990494671
 30
0.0
 40
0.0937502683315312
100
AcDbArc
 50
44.99995719571303
 51
135.000042804287
  0
LINE
  5
30E
330
2
100
AcDbEntity
  8
0
100
AcDbLine
 10
-6.660939116314522
 20
0.2613739999999982
 30
0.0
 11
-6.712065116314522
 21
0.3124999999999982
 31
0.0
  0
ARC
  5
30F
330
2
100
AcDbEntity
  8
0
100
AcDbCircle
 10
-5.712065116314522
 20
1.963402239375178
 30
0.0
 40
0.125
100
AcDbArc
 50
270.0
 51
0.000000000000007
  0
ARC
  5
310
330
2
100
AcDbEntity
  8
0
100
AcDbCircle
 10
-5.712065116314522
 20
2.525902239375178
 30
0.0
 40
0.125
100
AcDbArc
 50
0.000000000000007
 51
90.0
  0
ARC
  5
311
330
2
100
AcDbEntity
  8
0
100
AcDbCircle
 10
-5.712065116314522
 20
3.588402239375178
 30
0.0
 40
0.125
100
AcDbArc
 50
270.0
 51
0.000000000000007
  0
LINE
  5
312
330
2
100
AcDbEntity
  8
0
100
AcDbLine
 10
-5.587065116314522
 20
1.963402239375178
 30
0.0
 11
-5.587065116314522
 21
2.525902239375178
 31
0.0
  0
LINE
  5
313
330
2
100
AcDbEntity
  8
0
100
AcDbLine
 10
-5.837065116314523
 20
2.016500000000002
 30
0.0
 11
-5.837065116314523
 21
2.4505
 31
0.0
  0
ARC
  5
314
330
2
100
AcDbEntity
  8
0
100
AcDbCircle
 10
-5.837065116314463
 20
2.001090901588806
 30
0.0
 40
0.4494090984112075
100
AcDbArc
 50
90.0000000000077
 51
104.304479506537
  0
LINE
  5
315
330
2
100
AcDbEntity
  8
0
100
AcDbLine
 10
-5.962065116314522
 20
1.713402239375178
 30
0.0
 11
-5.962065116314522
 21
1.3125
 31
0.0
  0
ARC
  5
316
330
2
100
AcDbEntity
  8
0
100
AcDbCircle
 10
-5.869915287430663
 20
2.115419290509695
 30
0.0
 40
0.3304548456263269
100
AcDbArc
 50
115.3310792578645
 51
124.7482755454304
  0
ARC
  5
317
330
2
100
AcDbEntity
  8
0
100
AcDbCircle
 10
-5.869915287430635
 20
2.351580709490271
 30
0.0
 40
0.3304548456263069
100
AcDbArc
 50
235.2517244545628
 51
244.6689207421285
  0
ARC
  5
318
330
2
100
AcDbEntity
  8
0
100
AcDbCircle
 10
-5.837065116314522
 20
1.713402239375178
 30
0.0
 40
0.125
100
AcDbArc
 50
90.0
 51
180.0
  0
ARC
  5
319
330
2
100
AcDbEntity
  8
0
100
AcDbCircle
 10
-5.837065116314506
 20
2.4659090984112
 30
0.0
 40
0.4494090984112038
100
AcDbArc
 50
255.6955204934685
 51
269.9999999999978
  0
LINE
  5
31A
330
2
100
AcDbEntity
  8
0
100
AcDbLine
 10
-5.837065116314522
 20
1.838402239375178
 30
0.0
 11
-5.712065116314522
 21
1.838402239375178
 31
0.0
  0
ARC
  5
31B
330
2
100
AcDbEntity
  8
0
100
AcDbCircle
 10
-5.837065116314518
 20
2.158779608820515
 30
0.0
 40
0.0502796088205137
100
AcDbArc
 50
236.489177044324
 51
269.999999999994
  0
ARC
  5
31C
330
2
100
AcDbEntity
  8
0
100
AcDbCircle
 10
-5.837065116314522
 20
2.308220391179475
 30
0.0
 40
0.0502796088205265
100
AcDbArc
 50
90.00000000000202
 51
123.5108229556715
  0
ARC
  5
31D
330
2
100
AcDbEntity
  8
0
100
AcDbCircle
 10
-5.837065116314522
 20
2.135925526379171
 30
0.0
 40
0.0734255263791699
100
AcDbArc
 50
237.3920789848038
 51
269.9999999999986
  0
ARC
  5
31E
330
2
100
AcDbEntity
  8
0
100
AcDbCircle
 10
-5.83706511631453
 20
2.331074473620832
 30
0.0
 40
0.0734255263791676
100
AcDbArc
 50
89.99999999999446
 51
122.6079210151889
  0
ARC
  5
31F
330
2
100
AcDbEntity
  8
0
100
AcDbCircle
 10
-5.813418028371315
 20
2.194491802725851
 30
0.0
 40
0.0931112041880222
100
AcDbArc
 50
212.0281066666153
 51
236.4891770443369
  0
ARC
  5
320
330
2
100
AcDbEntity
  8
0
100
AcDbCircle
 10
-5.775765596177298
 20
2.218045344093319
 30
0.0
 40
0.1375237582811395
100
AcDbArc
 50
194.5265478167958
 51
212.0281066666066
  0
ARC
  5
321
330
2
100
AcDbEntity
  8
0
100
AcDbCircle
 10
-5.716120897861835
 20
2.23350000000001
 30
0.0
 40
0.1991381756389042
100
AcDbArc
 50
180.0000000000026
 51
194.5265478167998
  0
ARC
  5
322
330
2
100
AcDbEntity
  8
0
100
AcDbCircle
 10
-5.71612089786184
 20
2.233499999999992
 30
0.0
 40
0.1991381756388986
100
AcDbArc
 50
165.4734521832004
 51
179.9999999999974
  0
ARC
  5
323
330
2
100
AcDbEntity
  8
0
100
AcDbCircle
 10
-5.775765596177294
 20
2.248954655906686
 30
0.0
 40
0.1375237582811419
100
AcDbArc
 50
147.9718933333948
 51
165.4734521832067
  0
ARC
  5
324
330
2
100
AcDbEntity
  8
0
100
AcDbCircle
 10
-5.813418028371322
 20
2.272508197274167
 30
0.0
 40
0.0931112041880086
100
AcDbArc
 50
123.5108229556685
 51
147.9718933333898
  0
ARC
  5
325
330
2
100
AcDbEntity
  8
0
100
AcDbCircle
 10
-5.807194521347006
 20
2.18261865068365
 30
0.0
 40
0.1288556653022041
100
AcDbArc
 50
212.9226719024512
 51
237.392078984807
  0
ARC
  5
326
330
2
100
AcDbEntity
  8
0
100
AcDbCircle
 10
-5.759731131052053
 20
2.21335074322679
 30
0.0
 40
0.1853997625217287
100
AcDbArc
 50
195.0133710019988
 51
212.9226719024511
  0
ARC
  5
327
330
2
100
AcDbEntity
  8
0
100
AcDbCircle
 10
-5.684603215235061
 20
2.233500000000015
 30
0.0
 40
0.2631827702002597
100
AcDbArc
 50
180.0000000000031
 51
195.0133710020003
  0
ARC
  5
328
330
2
100
AcDbEntity
  8
0
100
AcDbCircle
 10
-5.684603215235073
 20
2.233499999999987
 30
0.0
 40
0.2631827702002472
100
AcDbArc
 50
164.9866289979994
 51
179.9999999999969
  0
ARC
  5
329
330
2
100
AcDbEntity
  8
0
100
AcDbCircle
 10
-5.75973113105205
 20
2.253649256773215
 30
0.0
 40
0.1853997625217307
100
AcDbArc
 50
147.07732809755
 51
164.9866289980031
  0
ARC
  5
32A
330
2
100
AcDbEntity
  8
0
100
AcDbCircle
 10
-5.807194521346993
 20
2.284381349316353
 30
0.0
 40
0.1288556653022142
100
AcDbArc
 50
122.6079210151968
 51
147.0773280975518
  0
ARC
  5
32B
330
2
100
AcDbEntity
  8
0
100
AcDbCircle
 10
-5.920105494128162
 20
2.187772824163135
 30
0.0
 40
0.242397530879186
100
AcDbArc
 50
124.7482755454469
 51
129.5636078296336
  0
ARC
  5
32C
330
2
100
AcDbEntity
  8
0
100
AcDbCircle
 10
-5.996684425720023
 20
2.23350000000001
 30
0.0
 40
0.1532050010699985
100
AcDbArc
 50
180.0000000000033
 51
203.015791800451
  0
ARC
  5
32D
330
2
100
AcDbEntity
  8
0
100
AcDbCircle
 10
-5.996684425720021
 20
2.23349999999999
 30
0.0
 40
0.1532050010700008
100
AcDbArc
 50
156.9842081995487
 51
179.999999999996
  0
ARC
  5
32E
330
2
100
AcDbEntity
  8
0
100
AcDbCircle
 10
-5.920105494128199
 20
2.279227175836927
 30
0.0
 40
0.2423975308792074
100
AcDbArc
 50
230.4363921703821
 51
235.2517244545693
  0
LINE
  5
32F
330
2
100
AcDbEntity
  8
0
100
AcDbLine
 10
-5.962065116314522
 20
3.338402239375178
 30
0.0
 11
-5.962065116314522
 21
2.775902239375178
 31
0.0
  0
ARC
  5
330
330
2
100
AcDbEntity
  8
0
100
AcDbCircle
 10
-5.837065116314522
 20
2.775902239375178
 30
0.0
 40
0.125
100
AcDbArc
 50
180.0
 51
270.0
  0
LINE
  5
331
330
2
100
AcDbEntity
  8
0
100
AcDbLine
 10
-5.837065116314522
 20
2.650902239375178
 30
0.0
 11
-5.712065116314522
 21
2.650902239375178
 31
0.0
  0
ARC
  5
332
330
2
100
AcDbEntity
  8
0
100
AcDbCircle
 10
-5.869915287430663
 20
3.740419290509695
 30
0.0
 40
0.3304548456263269
100
AcDbArc
 50
115.3310792578645
 51
124.7482755454304
  0
ARC
  5
333
330
2
100
AcDbEntity
  8
0
100
AcDbCircle
 10
-5.869915287430613
 20
3.976580709490274
 30
0.0
 40
0.3304548456263192
100
AcDbArc
 50
235.2517244545598
 51
244.6689207421254
  0
LINE
  5
334
330
2
100
AcDbEntity
  8
0
100
AcDbLine
 10
-5.837065116314523
 20
3.641500000000002
 30
0.0
 11
-5.837065116314523
 21
4.0755
 31
0.0
  0
ARC
  5
335
330
2
100
AcDbEntity
  8
0
100
AcDbCircle
 10
-5.837065116314522
 20
3.338402239375178
 30
0.0
 40
0.125
100
AcDbArc
 50
90.0
 51
180.0
  0
ARC
  5
336
330
2
100
AcDbEntity
  8
0
100
AcDbCircle
 10
-5.83706511631452
 20
4.090909098411204
 30
0.0
 40
0.449409098411202
100
AcDbArc
 50
255.6955204934704
 51
269.9999999999996
  0
LINE
  5
337
330
2
100
AcDbEntity
  8
0
100
AcDbLine
 10
-5.837065116314522
 20
3.463402239375178
 30
0.0
 11
-5.712065116314522
 21
3.463402239375178
 31
0.0
  0
ARC
  5
338
330
2
100
AcDbEntity
  8
0
100
AcDbCircle
 10
-5.837065116314518
 20
3.783779608820515
 30
0.0
 40
0.0502796088205137
100
AcDbArc
 50
236.489177044324
 51
269.999999999994
  0
ARC
  5
339
330
2
100
AcDbEntity
  8
0
100
AcDbCircle
 10
-5.837065116314522
 20
3.933220391179475
 30
0.0
 40
0.0502796088205265
100
AcDbArc
 50
90.00000000000202
 51
123.5108229556715
  0
ARC
  5
33A
330
2
100
AcDbEntity
  8
0
100
AcDbCircle
 10
-5.837065116314518
 20
3.760925526379171
 30
0.0
 40
0.0734255263791699
100
AcDbArc
 50
237.3920789848007
 51
269.9999999999959
  0
ARC
  5
33B
330
2
100
AcDbEntity
  8
0
100
AcDbCircle
 10
-5.83706511631453
 20
3.956074473620832
 30
0.0
 40
0.0734255263791676
100
AcDbArc
 50
89.99999999999446
 51
122.6079210151889
  0
ARC
  5
33C
330
2
100
AcDbEntity
  8
0
100
AcDbCircle
 10
-5.837065116314463
 20
3.626090901588801
 30
0.0
 40
0.4494090984112127
100
AcDbArc
 50
90.0000000000077
 51
104.3044795065368
  0
ARC
  5
33D
330
2
100
AcDbEntity
  8
0
100
AcDbCircle
 10
-5.813418028371318
 20
3.819491802725849
 30
0.0
 40
0.0931112041880188
100
AcDbArc
 50
212.0281066666165
 51
236.4891770443381
  0
ARC
  5
33E
330
2
100
AcDbEntity
  8
0
100
AcDbCircle
 10
-5.775765596177285
 20
3.843045344093319
 30
0.0
 40
0.137523758281151
100
AcDbArc
 50
194.5265478167938
 51
212.0281066666045
  0
ARC
  5
33F
330
2
100
AcDbEntity
  8
0
100
AcDbCircle
 10
-5.716120897861842
 20
3.85850000000001
 30
0.0
 40
0.1991381756388969
100
AcDbArc
 50
180.0000000000026
 51
194.5265478167998
  0
ARC
  5
340
330
2
100
AcDbEntity
  8
0
100
AcDbCircle
 10
-5.71612089786184
 20
3.858499999999992
 30
0.0
 40
0.1991381756388986
100
AcDbArc
 50
165.4734521832004
 51
179.9999999999974
  0
ARC
  5
341
330
2
100
AcDbEntity
  8
0
100
AcDbCircle
 10
-5.775765596177294
 20
3.873954655906686
 30
0.0
 40
0.1375237582811419
100
AcDbArc
 50
147.9718933333948
 51
165.4734521832067
  0
ARC
  5
342
330
2
100
AcDbEntity
  8
0
100
AcDbCircle
 10
-5.813418028371322
 20
3.897508197274167
 30
0.0
 40
0.0931112041880086
100
AcDbArc
 50
123.5108229556685
 51
147.9718933333898
  0
ARC
  5
343
330
2
100
AcDbEntity
  8
0
100
AcDbCircle
 10
-5.807194521347013
 20
3.80761865068365
 30
0.0
 40
0.1288556653021988
100
AcDbArc
 50
212.9226719024537
 51
237.3920789848092
  0
ARC
  5
344
330
2
100
AcDbEntity
  8
0
100
AcDbCircle
 10
-5.759731131052037
 20
3.83835074322679
 30
0.0
 40
0.185399762521743
100
AcDbArc
 50
195.0133710019964
 51
212.9226719024489
  0
ARC
  5
345
330
2
100
AcDbEntity
  8
0
100
AcDbCircle
 10
-5.684603215235073
 20
3.858500000000017
 30
0.0
 40
0.2631827702002472
100
AcDbArc
 50
180.0000000000035
 51
195.0133710020006
  0
ARC
  5
346
330
2
100
AcDbEntity
  8
0
100
AcDbCircle
 10
-5.684603215235081
 20
3.858499999999985
 30
0.0
 40
0.2631827702002401
100
AcDbArc
 50
164.986628997999
 51
179.9999999999965
  0
ARC
  5
347
330
2
100
AcDbEntity
  8
0
100
AcDbCircle
 10
-5.759731131052043
 20
3.878649256773213
 30
0.0
 40
0.1853997625217375
100
AcDbArc
 50
147.0773280975507
 51
164.9866289980037
  0
ARC
  5
348
330
2
100
AcDbEntity
  8
0
100
AcDbCircle
 10
-5.807194521346993
 20
3.909381349316353
 30
0.0
 40
0.1288556653022142
100
AcDbArc
 50
122.6079210151968
 51
147.0773280975518
  0
ARC
  5
349
330
2
100
AcDbEntity
  8
0
100
AcDbCircle
 10
-5.996684425720023
 20
3.858500000000013
 30
0.0
 40
0.1532050010699992
100
AcDbArc
 50
180.0000000000047
 51
203.0157918004516
  0
ARC
  5
34A
330
2
100
AcDbEntity
  8
0
100
AcDbCircle
 10
-5.996684425720012
 20
3.858499999999994
 30
0.0
 40
0.1532050010700097
100
AcDbArc
 50
156.9842081995494
 51
179.9999999999974
  0
ARC
  5
34B
330
2
100
AcDbEntity
  8
0
100
AcDbCircle
 10
-5.920105494128153
 20
3.812772824163122
 30
0.0
 40
0.2423975308792012
100
AcDbArc
 50
124.748275545447
 51
129.5636078296333
  0
ARC
  5
34C
330
2
100
AcDbEntity
  8
0
100
AcDbCircle
 10
-5.920105494128244
 20
3.904227175836954
 30
0.0
 40
0.2423975308792011
100
AcDbArc
 50
230.4363921703944
 51
235.2517244545811
  0
LINE
  5
34D
330
2
100
AcDbEntity
  8
0
100
AcDbLine
 10
-5.962065116314523
 20
7.875
 30
0.0
 11
-5.962065116314522
 21
4.400902239375178
 31
0.0
  0
LINE
  5
34E
330
2
100
AcDbEntity
  8
0
100
AcDbLine
 10
-6.71206511631452
 20
7.512134070962496
 30
0.0
 11
-6.432392244762468
 21
7.178832921539197
 31
0.0
  0
ARC
  5
34F
330
2
100
AcDbEntity
  8
0
100
AcDbCircle
 10
-6.50271509479442
 20
7.127879853466094
 30
0.0
 40
0.14765625
100
AcDbArc
 50
280.0
 51
39.99999999999991
  0
ARC
  5
350
330
2
100
AcDbEntity
  8
0
100
AcDbCircle
 10
-6.477390006149232
 20
7.151407170999264
 30
0.0
 40
0.0984375
100
AcDbArc
 50
280.0
 51
39.99999999999996
  0
ARC
  5
351
330
2
100
AcDbEntity
  8
0
100
AcDbCircle
 10
-5.712065116314522
 20
4.150902239375178
 30
0.0
 40
0.125
100
AcDbArc
 50
0.000000000000007
 51
90.0
  0
ARC
  5
352
330
2
100
AcDbEntity
  8
0
100
AcDbCircle
 10
-5.837065116314522
 20
4.400902239375178
 30
0.0
 40
0.125
100
AcDbArc
 50
180.0
 51
270.0
  0
LINE
  5
353
330
2
100
AcDbEntity
  8
0
100
AcDbLine
 10
-5.837065116314522
 20
4.275902239375178
 30
0.0
 11
-5.712065116314522
 21
4.275902239375178
 31
0.0
  0
LINE
  5
354
330
2
100
AcDbEntity
  8
0
100
AcDbLine
 10
-6.711877561470985
 20
6.941064781578227
 30
0.0
 11
-6.719056828316402
 21
6.981780427116824
 31
0.0
  0
LINE
  5
355
330
2
100
AcDbEntity
  8
0
100
AcDbLine
 10
-6.638612205859703
 20
7.070802285491027
 30
0.0
 11
-6.719056828316402
 21
6.981780427116824
 31
0.0
  0
LINE
  5
356
330
2
100
AcDbEntity
  8
0
100
AcDbLine
 10
-6.460266340290316
 20
7.102249473488712
 30
0.0
 11
-6.638612205859703
 21
7.070802285491027
 31
0.0
  0
LINE
  5
357
330
2
100
AcDbEntity
  8
0
100
AcDbLine
 10
-6.460296513660143
 20
7.054465157812125
 30
0.0
 11
-6.63274926522652
 21
7.024057084813563
 31
0.0
  0
LINE
  5
358
330
2
100
AcDbEntity
  8
0
100
AcDbLine
 10
-6.477074856060787
 20
6.982466833685386
 30
0.0
 11
-6.711877561470985
 21
6.941064781578227
 31
0.0
  0
ARC
  5
359
330
2
100
AcDbEntity
  8
0
100
AcDbCircle
 10
-6.4684370297001
 20
7.148587755792164
 30
0.0
 40
0.047053125
100
AcDbArc
 50
280.0
 51
39.99999999999999
  0
LINE
  5
35A
330
2
100
AcDbEntity
  8
0
100
AcDbLine
 10
-6.638612205859703
 20
7.070802285491027
 30
0.0
 11
-6.63274926522652
 21
7.024057084813563
 31
0.0
  0
LINE
  5
35B
330
2
100
AcDbEntity
  8
0
100
AcDbLine
 10
-6.632617999000622
 20
7.023010499754001
 30
0.0
 11
-6.711877561470985
 21
6.941064781578227
 31
0.0
  0
LINE
  5
35C
330
2
100
AcDbEntity
  8
0
100
AcDbLine
 10
-5.962065116314523
 20
7.875
 30
0.0
 11
-6.712065116314523
 21
7.875
 31
0.0
  0
POINT
  5
35D
330
2
100
AcDbEntity
  8
0
100
AcDbPoint
 10
-5.962065116314523
 20
7.875
 30
0.0
  0
LINE
  5
35E
330
2
100
AcDbEntity
  8
0
100
AcDbLine
 10
-6.774565116314523
 20
7.875
 30
0.0
 11
-6.712065116314523
 21
7.875
 31
0.0
  0
ARC
  5
35F
330
2
100
AcDbEntity
  8
0
100
AcDbCircle
 10
-6.66284636631452
 20
7.625
 30
0.0
 40
0.04921875
100
AcDbArc
 50
180.0
 51
219.9999999999998
  0
LINE
  5
360
330
2
100
AcDbEntity
  8
0
100
AcDbLine
 10
-6.389603844990132
 20
7.222791461458868
 30
0.0
 11
-6.700550116249282
 21
7.59336279733574
 31
0.0
  0
LINE
  5
361
330
2
100
AcDbEntity
  8
0
100
AcDbLine
 10
-6.700550116249282
 20
7.57050059814129
 30
0.0
 11
-6.401982506279708
 21
7.214681576327784
 31
0.0
  0
ARC
  5
362
330
2
100
AcDbEntity
  8
0
100
AcDbCircle
 10
-6.66284636631452
 20
7.602137800805551
 30
0.0
 40
0.04921875
100
AcDbArc
 50
180.0000000000001
 51
220.0
  0
ENDSEC
  0
SECTION
  2
OBJECTS
  0
DICTIONARY
  5
9
330
0
100
AcDbDictionary
281
     1
  3
ACAD_COLOR
350
373
  3
ACAD_GROUP
350
23
  3
ACAD_LAYOUT
350
D
  3
ACAD_MATERIAL
350
375
  3
ACAD_MLINESTYLE
350
24
  3
ACAD_PLOTSETTINGS
350
25
  3
ACAD_PLOTSTYLENAME
350
8
  3
ACDBHEADERROUNDTRIPXREC
350
372
  3
AcDbVariableDictionary
350
123
  0
DICTIONARY
  5
373
102
{ACAD_REACTORS
330
9
102
}
330
9
100
AcDbDictionary
281
     1
  0
DICTIONARY
  5
23
102
{ACAD_REACTORS
330
9
102
}
330
9
100
AcDbDictionary
281
     1
  0
DICTIONARY
  5
D
102
{ACAD_REACTORS
330
9
102
}
330
9
100
AcDbDictionary
281
     1
  3
Layout1
350
13
  3
Model
350
C
  0
DICTIONARY
  5
375
102
{ACAD_REACTORS
330
9
102
}
330
9
100
AcDbDictionary
281
     1
  0
DICTIONARY
  5
24
102
{ACAD_REACTORS
330
9
102
}
330
9
100
AcDbDictionary
281
     1
  3
STANDARD
350
27
  0
DICTIONARY
  5
25
102
{ACAD_REACTORS
330
9
102
}
330
9
100
AcDbDictionary
281
     1
  0
ACDBDICTIONARYWDFLT
  5
8
102
{ACAD_REACTORS
330
9
102
}
330
9
100
AcDbDictionary
281
     1
  3
Normal
350
7
100
AcDbDictionaryWithDefault
340
7
  0
DICTIONARY
  5
372
102
{ACAD_REACTORS
330
9
102
}
330
9
100
AcDbDictionary
281
     1
  3
COLORDICT
350
374
  3
MATERIALDICT
350
376
  0
DICTIONARY
  5
123
102
{ACAD_REACTORS
330
9
102
}
330
9
100
AcDbDictionary
281
     1
  3
HIDETEXT
350
371
  0
LAYOUT
  5
13
102
{ACAD_REACTORS
330
D
102
}
102
{ACAD_XDICTIONARY
360
377
102
}
330
D
100
AcDbPlotSettings
  1

  2
HP LaserJet 2100 Series PS
  4

  6

 40
0.0
 41
0.0
 42
0.0
 43
0.0
 44
0.0
 45
0.0
 46
0.0
 47
0.0
 48
0.0
 49
0.0
140
0.0
141
0.0
142
1.0
143
1.0
 70
   688
 72
     0
 73
     0
 74
     5
  7

 75
    16
147
1.0
148
0.0
149
0.0
100
AcDbLayout
  1
Layout1
 70
     0
 71
     1
 10
0.0
 20
0.0
 11
12.0
 21
9.0
 12
0.0
 22
0.0
 32
0.0
 14
1.000000000000000E+20
 24
1.000000000000000E+20
 34
1.000000000000000E+20
 15
-1.000000000000000E+20
 25
-1.000000000000000E+20
 35
-1.000000000000000E+20
146
0.0
 13
0.0
 23
0.0
 33
0.0
 16
1.0
 26
0.0
 36
0.0
 17
0.0
 27
1.0
 37
0.0
 76
     0
330
E
  0
LAYOUT
  5
C
102
{ACAD_REACTORS
330
D
102
}
102
{ACAD_XDICTIONARY
360
379
102
}
330
D
100
AcDbPlotSettings
  1

  2
HP LaserJet 2100 Series PS
  4
Letter
  6

 40
5.365749835968018
 41
5.408084392547607
 42
5.4080810546875
 43
5.365753173828125
 44
215.8999938964844
 45
279.3999938964844
 46
0.0
 47
0.0
 48
0.0
 49
0.0
140
0.0
141
0.0
142
1.0
143
1.985659204923131
 70
 28336
 72
     0
 73
     1
 74
     2
  7

 75
     0
147
0.5036110917324871
148
0.0
149
0.0
100
AcDbLayout
  1
Model
 70
     1
 71
     0
 10
0.0
 20
0.0
 11
12.0
 21
9.0
 12
0.0
 22
0.0
 32
0.0
 14
0.0
 24
0.0
 34
0.0
 15
0.0
 25
0.0
 35
0.0
146
0.0
 13
0.0
 23
0.0
 33
0.0
 16
1.0
 26
0.0
 36
0.0
 17
0.0
 27
1.0
 37
0.0
 76
     0
330
2
  0
MLINESTYLE
  5
27
102
{ACAD_REACTORS
330
24
102
}
330
24
100
AcDbMlineStyle
  2
STANDARD
 70
     0
  3

 62
   256
 51
90.0
 52
90.0
 71
     2
 49
0.5
 62
   256
  6
BYLAYER
 49
-0.5
 62
   256
  6
BYLAYER
  0
ACDBPLACEHOLDER
  5
7
102
{ACAD_REACTORS
330
8
102
}
330
8
  0
XRECORD
  5
374
102
{ACAD_REACTORS
330
372
102
}
330
372
100
AcDbXrecord
340
373
  0
XRECORD
  5
376
102
{ACAD_REACTORS
330
372
102
}
330
372
100
AcDbXrecord
340
375
  0
DICTIONARYVAR
  5
371
102
{ACAD_REACTORS
330
123
102
}
330
123
100
DictionaryVariables
280
     0
  1
0
  0
DICTIONARY
  5
377
330
13
100
AcDbDictionary
280
     1
281
     1
  3
ACAD_XREC_ROUNDTRIP
360
378
  0
DICTIONARY
  5
379
330
C
100
AcDbDictionary
280
     1
281
     1
  3
ACAD_XREC_ROUNDTRIP
360
37A
  0
XRECORD
  5
378
102
{ACAD_REACTORS
330
377
102
}
330
377
100
AcDbXrecord
102
SHADEPLOT
 70
     0
102
SHADEPLOTRESLEVEL
 70
     2
102
SHADEPLOTCUSTOMDPI
 70
   300
  0
XRECORD
  5
37A
102
{ACAD_REACTORS
330
379
102
}
330
379
100
AcDbXrecord
102
SHADEPLOT
 70
 -5048
102
SHADEPLOTRESLEVEL
 70
-26184
102
SHADEPLOTCUSTOMDPI
 70
  4888
  0
ENDSEC
  0
EOF
