  0
SECTION
  2
HEADER
  9
$ACADVER
  1
AC1015
  9
$ACADMAINTVER
 70
     6
  9
$DWGCODEPAGE
  3
ANSI_1252
  9
$INSBASE
 10
0.0
 20
0.0
 30
0.0
  9
$EXTMIN
 10
-6.655471709695949
 20
-0.0258883476483184
 30
0.0
  9
$EXTMAX
 10
6.655471709695949
 20
7.769625881189836
 30
0.0
  9
$LIMMIN
 10
0.0
 20
0.0
  9
$LIMMAX
 10
16.0
 20
21.0
  9
$ORTHOMODE
 70
     1
  9
$REGENMODE
 70
     1
  9
$FILLMODE
 70
     1
  9
$QTEXTMODE
 70
     0
  9
$MIRRTEXT
 70
     0
  9
$LTSCALE
 40
0.5
  9
$ATTMODE
 70
     1
  9
$TEXTSIZE
 40
0.18
  9
$TRACEWID
 40
0.05
  9
$TEXTSTYLE
  7
STANDARD
  9
$CLAYER
  8
0
  9
$CELTYPE
  6
BYLAYER
  9
$CECOLOR
 62
   256
  9
$CELTSCALE
 40
1.0
  9
$DISPSILH
 70
     0
  9
$DIMSCALE
 40
2.0
  9
$DIMASZ
 40
0.125
  9
$DIMEXO
 40
0.062
  9
$DIMDLI
 40
0.375
  9
$DIMRND
 40
0.0
  9
$DIMDLE
 40
0.0
  9
$DIMEXE
 40
0.08
  9
$DIMTP
 40
0.0
  9
$DIMTM
 40
0.0
  9
$DIMTXT
 40
0.09
  9
$DIMCEN
 40
-0.0625
  9
$DIMTSZ
 40
0.0
  9
$DIMTOL
 70
     0
  9
$DIMLIM
 70
     0
  9
$DIMTIH
 70
     1
  9
$DIMTOH
 70
     1
  9
$DIMSE1
 70
     0
  9
$DIMSE2
 70
     0
  9
$DIMTAD
 70
     0
  9
$DIMZIN
 70
     0
  9
$DIMBLK
  1

  9
$DIMASO
 70
     0
  9
$DIMSHO
 70
     1
  9
$DIMPOST
  1

  9
$DIMAPOST
  1

  9
$DIMALT
 70
     0
  9
$DIMALTD
 70
     2
  9
$DIMALTF
 40
25.4
  9
$DIMLFAC
 40
1.0
  9
$DIMTOFL
 70
     0
  9
$DIMTVP
 40
0.0
  9
$DIMTIX
 70
     0
  9
$DIMSOXD
 70
     0
  9
$DIMSAH
 70
     0
  9
$DIMBLK1
  1

  9
$DIMBLK2
  1

  9
$DIMSTYLE
  2
STANDARD
  9
$DIMCLRD
 70
     0
  9
$DIMCLRE
 70
     0
  9
$DIMCLRT
 70
     0
  9
$DIMTFAC
 40
1.0
  9
$DIMGAP
 40
0.09
  9
$DIMJUST
 70
     0
  9
$DIMSD1
 70
     0
  9
$DIMSD2
 70
     0
  9
$DIMTOLJ
 70
     1
  9
$DIMTZIN
 70
     0
  9
$DIMALTZ
 70
     0
  9
$DIMALTTZ
 70
     0
  9
$DIMUPT
 70
     0
  9
$DIMDEC
 70
     5
  9
$DIMTDEC
 70
     5
  9
$DIMALTU
 70
     5
  9
$DIMALTTD
 70
     2
  9
$DIMTXSTY
  7
STANDARD
  9
$DIMAUNIT
 70
     0
  9
$DIMADEC
 70
     0
  9
$DIMALTRND
 40
0.0
  9
$DIMAZIN
 70
     0
  9
$DIMDSEP
 70
    46
  9
$DIMATFIT
 70
     3
  9
$DIMFRAC
 70
     0
  9
$DIMLDRBLK
  1

  9
$DIMLUNIT
 70
     5
  9
$DIMLWD
 70
    -2
  9
$DIMLWE
 70
    -2
  9
$DIMTMOVE
 70
     2
  9
$LUNITS
 70
     5
  9
$LUPREC
 70
     5
  9
$SKETCHINC
 40
0.1
  9
$FILLETRAD
 40
0.0
  9
$AUNITS
 70
     0
  9
$AUPREC
 70
     0
  9
$MENU
  1
acad
  9
$ELEVATION
 40
0.0
  9
$PELEVATION
 40
0.0
  9
$THICKNESS
 40
0.0
  9
$LIMCHECK
 70
     0
  9
$CHAMFERA
 40
0.0
  9
$CHAMFERB
 40
0.0
  9
$CHAMFERC
 40
0.0
  9
$CHAMFERD
 40
0.0
  9
$SKPOLY
 70
     0
  9
$TDCREATE
 40
2450716.897021875
  9
$TDUCREATE
 40
2450717.230355208
  9
$TDUPDATE
 40
2454173.72196316
  9
$TDUUPDATE
 40
2454174.055296493
  9
$TDINDWG
 40
0.2412430208
  9
$TDUSRTIMER
 40
0.2412430208
  9
$USRTIMER
 70
     1
  9
$ANGBASE
 50
0.0
  9
$ANGDIR
 70
     0
  9
$PDMODE
 70
     0
  9
$PDSIZE
 40
0.0
  9
$PLINEWID
 40
0.0
  9
$SPLFRAME
 70
     0
  9
$SPLINETYPE
 70
     6
  9
$SPLINESEGS
 70
     8
  9
$HANDSEED
  5
293
  9
$SURFTAB1
 70
     6
  9
$SURFTAB2
 70
     6
  9
$SURFTYPE
 70
     6
  9
$SURFU
 70
     6
  9
$SURFV
 70
     6
  9
$UCSBASE
  2

  9
$UCSNAME
  2

  9
$UCSORG
 10
0.0
 20
0.0
 30
0.0
  9
$UCSXDIR
 10
1.0
 20
0.0
 30
0.0
  9
$UCSYDIR
 10
0.0
 20
1.0
 30
0.0
  9
$UCSORTHOREF
  2

  9
$UCSORTHOVIEW
 70
     0
  9
$UCSORGTOP
 10
0.0
 20
0.0
 30
0.0
  9
$UCSORGBOTTOM
 10
0.0
 20
0.0
 30
0.0
  9
$UCSORGLEFT
 10
0.0
 20
0.0
 30
0.0
  9
$UCSORGRIGHT
 10
0.0
 20
0.0
 30
0.0
  9
$UCSORGFRONT
 10
0.0
 20
0.0
 30
0.0
  9
$UCSORGBACK
 10
0.0
 20
0.0
 30
0.0
  9
$PUCSBASE
  2

  9
$PUCSNAME
  2

  9
$PUCSORG
 10
0.0
 20
0.0
 30
0.0
  9
$PUCSXDIR
 10
1.0
 20
0.0
 30
0.0
  9
$PUCSYDIR
 10
0.0
 20
1.0
 30
0.0
  9
$PUCSORTHOREF
  2

  9
$PUCSORTHOVIEW
 70
     0
  9
$PUCSORGTOP
 10
0.0
 20
0.0
 30
0.0
  9
$PUCSORGBOTTOM
 10
0.0
 20
0.0
 30
0.0
  9
$PUCSORGLEFT
 10
0.0
 20
0.0
 30
0.0
  9
$PUCSORGRIGHT
 10
0.0
 20
0.0
 30
0.0
  9
$PUCSORGFRONT
 10
0.0
 20
0.0
 30
0.0
  9
$PUCSORGBACK
 10
0.0
 20
0.0
 30
0.0
  9
$USERI1
 70
     0
  9
$USERI2
 70
     0
  9
$USERI3
 70
     0
  9
$USERI4
 70
     0
  9
$USERI5
 70
     0
  9
$USERR1
 40
0.0
  9
$USERR2
 40
0.0
  9
$USERR3
 40
0.0
  9
$USERR4
 40
0.0
  9
$USERR5
 40
0.0
  9
$WORLDVIEW
 70
     1
  9
$SHADEDGE
 70
     3
  9
$SHADEDIF
 70
    70
  9
$TILEMODE
 70
     1
  9
$MAXACTVP
 70
    16
  9
$PINSBASE
 10
0.0
 20
0.0
 30
0.0
  9
$PLIMCHECK
 70
     0
  9
$PEXTMIN
 10
1.000000000000000E+20
 20
1.000000000000000E+20
 30
1.000000000000000E+20
  9
$PEXTMAX
 10
-1.000000000000000E+20
 20
-1.000000000000000E+20
 30
-1.000000000000000E+20
  9
$PLIMMIN
 10
0.0
 20
0.0
  9
$PLIMMAX
 10
12.0
 20
9.0
  9
$UNITMODE
 70
     0
  9
$VISRETAIN
 70
     0
  9
$PLINEGEN
 70
     0
  9
$PSLTSCALE
 70
     0
  9
$TREEDEPTH
 70
  3020
  9
$CMLSTYLE
  2
STANDARD
  9
$CMLJUST
 70
     0
  9
$CMLSCALE
 40
1.0
  9
$PROXYGRAPHICS
 70
     1
  9
$MEASUREMENT
 70
     0
  9
$CELWEIGHT
370
    -1
  9
$ENDCAPS
280
     0
  9
$JOINSTYLE
280
     0
  9
$LWDISPLAY
290
     0
  9
$INSUNITS
 70
     0
  9
$HYPERLINKBASE
  1

  9
$STYLESHEET
  1

  9
$XEDIT
290
     1
  9
$CEPSNTYPE
380
     0
  9
$PSTYLEMODE
290
     1
  9
$FINGERPRINTGUID
  2
{A56850FC-C481-11D5-BE3F-00508B5FCD51}
  9
$VERSIONGUID
  2
{2E3284D6-858B-4840-BF99-332876E9CD54}
  9
$EXTNAMES
290
     1
  9
$PSVPSCALE
 40
0.0
  9
$OLESTARTUP
290
     0
  0
ENDSEC
  0
SECTION
  2
CLASSES
  0
CLASS
  1
DICTIONARYVAR
  2
AcDbDictionaryVar
  3
AutoCAD 2000
 90
        0
280
     0
281
     0
  0
CLASS
  1
LWPOLYLINE
  2
AcDbPolyline
  3
AutoCAD 2000
 90
        0
280
     0
281
     1
  0
CLASS
  1
ACDBDICTIONARYWDFLT
  2
AcDbDictionaryWithDefault
  3
AutoCAD 2000
 90
        0
280
     0
281
     0
  0
CLASS
  1
ACDBPLACEHOLDER
  2
AcDbPlaceHolder
  3
ObjectDBX Classes
 90
        0
280
     0
281
     0
  0
CLASS
  1
LAYOUT
  2
AcDbLayout
  3
ObjectDBX Classes
 90
        0
280
     0
281
     0
  0
CLASS
  1
LONG_TRANSACTION
  2
AcDbLongTransaction
  3
ObjectDBX Classes
 90
   -65536
280
     1
281
     0
  0
CLASS
  1
LWPOLYLINE
  2
AcDbPolyline
  3
AutoCAD 2000
 90
        0
280
     0
281
     1
  0
CLASS
  1
HATCH
  2
AcDbHatch
  3
AutoCAD 2000
 90
        0
280
     0
281
     1
  0
CLASS
  1
XRECORD
  2
AcDbXrecord
  3
AutoCAD 2000
 90
        0
280
     0
281
     0
  0
CLASS
  1
LONG_TRANSACTION
  2
AcDbLongTransaction
  3
ObjectDBX Classes
 90
   -65536
280
     1
281
     0
  0
CLASS
  1
LWPOLYLINE
  2
AcDbPolyline
  3
AutoCAD 2000
 90
        0
280
     0
281
     1
  0
CLASS
  1
HATCH
  2
AcDbHatch
  3
AutoCAD 2000
 90
        0
280
     0
281
     1
  0
CLASS
  1
XRECORD
  2
AcDbXrecord
  3
AutoCAD 2000
 90
        0
280
     0
281
     0
  0
CLASS
  1
LONG_TRANSACTION
  2
AcDbLongTransaction
  3
ObjectDBX Classes
 90
   -65536
280
     1
281
     0
  0
CLASS
  1
LWPOLYLINE
  2
AcDbPolyline
  3
AutoCAD 2000
 90
        0
280
     0
281
     1
  0
CLASS
  1
HATCH
  2
AcDbHatch
  3
AutoCAD 2000
 90
        0
280
     0
281
     1
  0
CLASS
  1
XRECORD
  2
AcDbXrecord
  3
AutoCAD 2000
 90
        0
280
     0
281
     0
  0
CLASS
  1
LONG_TRANSACTION
  2
AcDbLongTransaction
  3
ObjectDBX Classes
 90
   -65536
280
     1
281
     0
  0
CLASS
  1
LWPOLYLINE
  2
AcDbPolyline
  3
AutoCAD 2000
 90
        0
280
     0
281
     1
  0
CLASS
  1
HATCH
  2
AcDbHatch
  3
AutoCAD 2000
 90
        0
280
     0
281
     1
  0
CLASS
  1
XRECORD
  2
AcDbXrecord
  3
AutoCAD 2000
 90
        0
280
     0
281
     0
  0
CLASS
  1
LONG_TRANSACTION
  2
AcDbLongTransaction
  3
ObjectDBX Classes
 90
   -65536
280
     1
281
     0
  0
CLASS
  1
LWPOLYLINE
  2
AcDbPolyline
  3
AutoCAD 2000
 90
        0
280
     0
281
     1
  0
CLASS
  1
HATCH
  2
AcDbHatch
  3
AutoCAD 2000
 90
        0
280
     0
281
     1
  0
CLASS
  1
XRECORD
  2
AcDbXrecord
  3
AutoCAD 2000
 90
        0
280
     0
281
     0
  0
CLASS
  1
LONG_TRANSACTION
  2
AcDbLongTransaction
  3
ObjectDBX Classes
 90
   -65536
280
     1
281
     0
  0
CLASS
  1
LWPOLYLINE
  2
AcDbPolyline
  3
AutoCAD 2000
 90
        0
280
     0
281
     1
  0
CLASS
  1
HATCH
  2
AcDbHatch
  3
AutoCAD 2000
 90
        0
280
     0
281
     1
  0
CLASS
  1
XRECORD
  2
AcDbXrecord
  3
AutoCAD 2000
 90
        0
280
     0
281
     0
  0
CLASS
  1
LONG_TRANSACTION
  2
AcDbLongTransaction
  3
ObjectDBX Classes
 90
   -65536
280
     1
281
     0
  0
CLASS
  1
LWPOLYLINE
  2
AcDbPolyline
  3
AutoCAD 2000
 90
        0
280
     0
281
     1
  0
CLASS
  1
HATCH
  2
AcDbHatch
  3
AutoCAD 2000
 90
        0
280
     0
281
     1
  0
CLASS
  1
XRECORD
  2
AcDbXrecord
  3
AutoCAD 2000
 90
        0
280
     0
281
     0
  0
CLASS
  1
LONG_TRANSACTION
  2
AcDbLongTransaction
  3
ObjectDBX Classes
 90
   -65536
280
     1
281
     0
  0
CLASS
  1
LWPOLYLINE
  2
AcDbPolyline
  3
AutoCAD 2000
 90
        0
280
     0
281
     1
  0
CLASS
  1
HATCH
  2
AcDbHatch
  3
AutoCAD 2000
 90
        0
280
     0
281
     1
  0
CLASS
  1
XRECORD
  2
AcDbXrecord
  3
AutoCAD 2000
 90
        0
280
     0
281
     0
  0
CLASS
  1
LONG_TRANSACTION
  2
AcDbLongTransaction
  3
ObjectDBX Classes
 90
   -65536
280
     1
281
     0
  0
CLASS
  1
LWPOLYLINE
  2
AcDbPolyline
  3
AutoCAD 2000
 90
        0
280
     0
281
     1
  0
CLASS
  1
HATCH
  2
AcDbHatch
  3
AutoCAD 2000
 90
        0
280
     0
281
     1
  0
CLASS
  1
XRECORD
  2
AcDbXrecord
  3
AutoCAD 2000
 90
        0
280
     0
281
     0
  0
CLASS
  1
LONG_TRANSACTION
  2
AcDbLongTransaction
  3
ObjectDBX Classes
 90
   -65536
280
     1
281
     0
  0
CLASS
  1
LWPOLYLINE
  2
AcDbPolyline
  3
AutoCAD 2000
 90
        0
280
     0
281
     1
  0
CLASS
  1
HATCH
  2
AcDbHatch
  3
AutoCAD 2000
 90
        0
280
     0
281
     1
  0
CLASS
  1
XRECORD
  2
AcDbXrecord
  3
AutoCAD 2000
 90
        0
280
     0
281
     0
  0
CLASS
  1
LONG_TRANSACTION
  2
AcDbLongTransaction
  3
ObjectDBX Classes
 90
   -65536
280
     1
281
     0
  0
CLASS
  1
LWPOLYLINE
  2
AcDbPolyline
  3
AutoCAD 2000
 90
        0
280
     0
281
     1
  0
CLASS
  1
HATCH
  2
AcDbHatch
  3
AutoCAD 2000
 90
        0
280
     0
281
     1
  0
CLASS
  1
XRECORD
  2
AcDbXrecord
  3
AutoCAD 2000
 90
        0
280
     0
281
     0
  0
CLASS
  1
LONG_TRANSACTION
  2
AcDbLongTransaction
  3
ObjectDBX Classes
 90
   -65536
280
     1
281
     0
  0
CLASS
  1
LWPOLYLINE
  2
AcDbPolyline
  3
AutoCAD 2000
 90
        0
280
     0
281
     1
  0
CLASS
  1
HATCH
  2
AcDbHatch
  3
AutoCAD 2000
 90
        0
280
     0
281
     1
  0
CLASS
  1
XRECORD
  2
AcDbXrecord
  3
AutoCAD 2000
 90
        0
280
     0
281
     0
  0
CLASS
  1
LONG_TRANSACTION
  2
AcDbLongTransaction
  3
ObjectDBX Classes
 90
   -65536
280
     1
281
     0
  0
CLASS
  1
LWPOLYLINE
  2
AcDbPolyline
  3
AutoCAD 2000
 90
        0
280
     0
281
     1
  0
CLASS
  1
HATCH
  2
AcDbHatch
  3
AutoCAD 2000
 90
        0
280
     0
281
     1
  0
CLASS
  1
XRECORD
  2
AcDbXrecord
  3
AutoCAD 2000
 90
        0
280
     0
281
     0
  0
CLASS
  1
LONG_TRANSACTION
  2
AcDbLongTransaction
  3
ObjectDBX Classes
 90
   -65536
280
     1
281
     0
  0
CLASS
  1
LWPOLYLINE
  2
AcDbPolyline
  3
AutoCAD 2000
 90
        0
280
     0
281
     1
  0
CLASS
  1
HATCH
  2
AcDbHatch
  3
AutoCAD 2000
 90
        0
280
     0
281
     1
  0
CLASS
  1
XRECORD
  2
AcDbXrecord
  3
AutoCAD 2000
 90
        0
280
     0
281
     0
  0
CLASS
  1
LONG_TRANSACTION
  2
AcDbLongTransaction
  3
ObjectDBX Classes
 90
   -65536
280
     1
281
     0
  0
CLASS
  1
LWPOLYLINE
  2
AcDbPolyline
  3
AutoCAD 2000
 90
        0
280
     0
281
     1
  0
CLASS
  1
HATCH
  2
AcDbHatch
  3
AutoCAD 2000
 90
        0
280
     0
281
     1
  0
CLASS
  1
XRECORD
  2
AcDbXrecord
  3
AutoCAD 2000
 90
        0
280
     0
281
     0
  0
CLASS
  1
LONG_TRANSACTION
  2
AcDbLongTransaction
  3
ObjectDBX Classes
 90
   -65536
280
     1
281
     0
  0
CLASS
  1
LWPOLYLINE
  2
AcDbPolyline
  3
AutoCAD 2000
 90
        0
280
     0
281
     1
  0
CLASS
  1
HATCH
  2
AcDbHatch
  3
AutoCAD 2000
 90
        0
280
     0
281
     1
  0
CLASS
  1
XRECORD
  2
AcDbXrecord
  3
AutoCAD 2000
 90
        0
280
     0
281
     0
  0
CLASS
  1
LONG_TRANSACTION
  2
AcDbLongTransaction
  3
ObjectDBX Classes
 90
   -65536
280
     1
281
     0
  0
CLASS
  1
LWPOLYLINE
  2
AcDbPolyline
  3
AutoCAD 2000
 90
        0
280
     0
281
     1
  0
CLASS
  1
HATCH
  2
AcDbHatch
  3
AutoCAD 2000
 90
        0
280
     0
281
     1
  0
CLASS
  1
XRECORD
  2
AcDbXrecord
  3
AutoCAD 2000
 90
        0
280
     0
281
     0
  0
CLASS
  1
LONG_TRANSACTION
  2
AcDbLongTransaction
  3
ObjectDBX Classes
 90
   -65536
280
     1
281
     0
  0
CLASS
  1
LWPOLYLINE
  2
AcDbPolyline
  3
AutoCAD 2000
 90
        0
280
     0
281
     1
  0
CLASS
  1
HATCH
  2
AcDbHatch
  3
AutoCAD 2000
 90
        0
280
     0
281
     1
  0
CLASS
  1
XRECORD
  2
AcDbXrecord
  3
AutoCAD 2000
 90
        0
280
     0
281
     0
  0
CLASS
  1
LONG_TRANSACTION
  2
AcDbLongTransaction
  3
ObjectDBX Classes
 90
   -65536
280
     1
281
     0
  0
CLASS
  1
LWPOLYLINE
  2
AcDbPolyline
  3
AutoCAD 2000
 90
        0
280
     0
281
     1
  0
CLASS
  1
HATCH
  2
AcDbHatch
  3
AutoCAD 2000
 90
        0
280
     0
281
     1
  0
CLASS
  1
XRECORD
  2
AcDbXrecord
  3
AutoCAD 2000
 90
        0
280
     0
281
     0
  0
CLASS
  1
LONG_TRANSACTION
  2
AcDbLongTransaction
  3
ObjectDBX Classes
 90
   -65536
280
     1
281
     0
  0
CLASS
  1
LWPOLYLINE
  2
AcDbPolyline
  3
AutoCAD 2000
 90
        0
280
     0
281
     1
  0
CLASS
  1
HATCH
  2
AcDbHatch
  3
AutoCAD 2000
 90
        0
280
     0
281
     1
  0
CLASS
  1
XRECORD
  2
AcDbXrecord
  3
AutoCAD 2000
 90
        0
280
     0
281
     0
  0
CLASS
  1
LONG_TRANSACTION
  2
AcDbLongTransaction
  3
ObjectDBX Classes
 90
   -65536
280
     1
281
     0
  0
CLASS
  1
LWPOLYLINE
  2
AcDbPolyline
  3
AutoCAD 2000
 90
        0
280
     0
281
     1
  0
CLASS
  1
HATCH
  2
AcDbHatch
  3
AutoCAD 2000
 90
        0
280
     0
281
     1
  0
CLASS
  1
XRECORD
  2
AcDbXrecord
  3
AutoCAD 2000
 90
        0
280
     0
281
     0
  0
CLASS
  1
TABLESTYLE
  2
AcDbTableStyle
  3
ObjectDBX Classes
 90
     2047
280
     1
281
     0
  0
ENDSEC
  0
SECTION
  2
TABLES
  0
TABLE
  2
VPORT
  5
1D
330
0
100
AcDbSymbolTable
 70
     3
  0
VPORT
  5
285
330
1D
100
AcDbSymbolTableRecord
100
AcDbViewportTableRecord
  2
*Active
 70
     0
 10
0.0
 20
0.0
 11
1.0
 21
1.0
 12
5.981623199226977
 22
8.424803891076959
 13
0.0
 23
0.0
 14
0.03125
 24
0.03125
 15
0.25
 25
0.25
 16
0.0
 26
0.0
 36
1.0
 17
0.0
 27
0.0
 37
0.0
 40
21.68274175495451
 41
1.814583333333333
 42
50.0
 43
0.0
 44
0.0
 50
0.0
 51
0.0
 71
     0
 72
   100
 73
     1
 74
     0
 75
     0
 76
     0
 77
     0
 78
     0
281
     0
 65
     1
110
0.0
120
0.0
130
0.0
111
1.0
121
0.0
131
0.0
112
0.0
122
1.0
132
0.0
 79
     0
146
0.0
  0
ENDTAB
  0
TABLE
  2
LTYPE
  5
18
330
0
100
AcDbSymbolTable
 70
     2
  0
LTYPE
  5
19
330
18
100
AcDbSymbolTableRecord
100
AcDbLinetypeTableRecord
  2
BYBLOCK
 70
     0
  3

 72
    65
 73
     0
 40
0.0
  0
LTYPE
  5
1A
330
18
100
AcDbSymbolTableRecord
100
AcDbLinetypeTableRecord
  2
BYLAYER
 70
     0
  3

 72
    65
 73
     0
 40
0.0
  0
LTYPE
  5
A
330
18
100
AcDbSymbolTableRecord
100
AcDbLinetypeTableRecord
  2
CONTINUOUS
 70
     0
  3
Solid line
 72
    65
 73
     0
 40
0.0
  0
LTYPE
  5
36
330
18
100
AcDbSymbolTableRecord
100
AcDbLinetypeTableRecord
  2
HIDDEN
 70
     0
  3
_ _ _ _ _ _ _ _ _ _ _ _ _ _ _ _ _ _ _ _ _ _ _
 72
    65
 73
     2
 40
0.375
 49
0.25
 74
     0
 49
-0.125
 74
     0
  0
ENDTAB
  0
TABLE
  2
LAYER
  5
14
330
0
100
AcDbSymbolTable
 70
     1
  0
LAYER
  5
6
330
14
100
AcDbSymbolTableRecord
100
AcDbLayerTableRecord
  2
0
 70
     0
 62
     7
  6
CONTINUOUS
370
    -3
390
7
  0
ENDTAB
  0
TABLE
  2
STYLE
  5
15
330
0
100
AcDbSymbolTable
 70
     1
  0
STYLE
  5
16
330
15
100
AcDbSymbolTableRecord
100
AcDbTextStyleTableRecord
  2
STANDARD
 70
     0
 40
0.0
 41
1.0
 50
0.0
 71
     0
 42
0.18
  3
TXT
  4

  0
ENDTAB
  0
TABLE
  2
VIEW
  5
1B
330
0
100
AcDbSymbolTable
 70
     0
  0
ENDTAB
  0
TABLE
  2
UCS
  5
1C
330
0
100
AcDbSymbolTable
 70
     0
  0
ENDTAB
  0
TABLE
  2
APPID
  5
1F
330
0
100
AcDbSymbolTable
 70
     1
  0
APPID
  5
20
330
1F
100
AcDbSymbolTableRecord
100
AcDbRegAppTableRecord
  2
ACAD
 70
     0
  0
ENDTAB
  0
TABLE
  2
DIMSTYLE
  5
21
330
0
100
AcDbSymbolTable
 70
     1
100
AcDbDimStyleTable
  0
DIMSTYLE
105
28
330
21
100
AcDbSymbolTableRecord
100
AcDbDimStyleTableRecord
  2
STANDARD
 70
     0
  3

  4

340
16
  0
ENDTAB
  0
TABLE
  2
BLOCK_RECORD
  5
1
330
0
100
AcDbSymbolTable
 70
     0
  0
BLOCK_RECORD
  5
2
330
1
100
AcDbSymbolTableRecord
100
AcDbBlockTableRecord
  2
*MODEL_SPACE
340
C
  0
BLOCK_RECORD
  5
E
330
1
100
AcDbSymbolTableRecord
100
AcDbBlockTableRecord
  2
*PAPER_SPACE
340
13
  0
ENDTAB
  0
ENDSEC
  0
SECTION
  2
BLOCKS
  0
BLOCK
  5
5
330
2
100
AcDbEntity
  8
0
100
AcDbBlockBegin
  2
*MODEL_SPACE
 70
     0
 10
0.0
 20
0.0
 30
0.0
  3
*MODEL_SPACE
  1

  4

  0
ENDBLK
  5
B
330
2
100
AcDbEntity
  8
0
100
AcDbBlockEnd
  0
BLOCK
  5
11
330
E
100
AcDbEntity
 67
     1
  8
0
100
AcDbBlockBegin
  2
*PAPER_SPACE
 70
     0
 10
0.0
 20
0.0
 30
0.0
  3
*PAPER_SPACE
  1

  4

  0
ENDBLK
  5
12
330
E
100
AcDbEntity
 67
     1
  8
0
100
AcDbBlockEnd
  0
ENDSEC
  0
SECTION
  2
ENTITIES
  0
LINE
  5
125
330
2
100
AcDbEntity
  8
0
100
AcDbLine
 10
-0.71875
 20
0.0625
 30
0.0
 11
0.71875
 21
0.0625
 31
0.0
  0
LINE
  5
126
330
2
100
AcDbEntity
  8
0
100
AcDbLine
 10
0.71875
 20
0.0
 30
0.0
 11
-0.71875
 21
0.0
 31
0.0
  0
CIRCLE
  5
127
330
2
100
AcDbEntity
  8
0
100
AcDbCircle
 10
-1.593749999999998
 20
2.874999999999998
 30
0.0
 40
0.078125
  0
LINE
  5
128
330
2
100
AcDbEntity
  8
0
100
AcDbLine
 10
-0.7812499999999965
 20
3.187500000000002
 30
0.0
 11
-0.78125
 21
0.125
 31
0.0
  0
LINE
  5
129
330
2
100
AcDbEntity
  8
0
100
AcDbLine
 10
-0.84375
 20
0.125
 30
0.0
 11
-0.8437499999999965
 21
3.187500000000002
 31
0.0
  0
LINE
  5
12A
330
2
100
AcDbEntity
  8
0
100
AcDbLine
 10
-1.843749999999996
 20
3.187500000000002
 30
0.0
 11
-1.843749999999996
 21
2.781249999999998
 31
0.0
  0
ARC
  5
12B
330
2
100
AcDbEntity
  8
0
100
AcDbCircle
 10
-0.84375
 20
1.43745
 30
0.0
 40
0.1875
100
AcDbArc
 50
90.0
 51
270.0
  0
LINE
  5
12C
330
2
100
AcDbEntity
  8
0
100
AcDbLine
 10
-0.84375
 20
0.3125
 30
0.0
 11
-1.843749999999998
 21
1.3125
 31
0.0
  0
ARC
  5
12D
330
2
100
AcDbEntity
  8
0
100
AcDbCircle
 10
-0.71875
 20
0.125
 30
0.0
 40
0.0625
100
AcDbArc
 50
180.0
 51
270.0
  0
ARC
  5
12E
330
2
100
AcDbEntity
  8
0
100
AcDbCircle
 10
-0.71875
 20
0.125
 30
0.0
 40
0.125
100
AcDbArc
 50
180.0
 51
270.0
  0
LINE
  5
131
330
2
100
AcDbEntity
  8
0
100
AcDbLine
 10
-1.468749999999998
 20
1.968749999999998
 30
0.0
 11
-1.468749999999996
 21
2.531249999999998
 31
0.0
  0
CIRCLE
  5
132
330
2
100
AcDbEntity
  8
0
100
AcDbCircle
 10
-1.593749999999998
 20
1.40625
 30
0.0
 40
0.078125
  0
LINE
  5
133
330
2
100
AcDbEntity
  8
0
100
AcDbLine
 10
-1.718749999999998
 20
1.84375
 30
0.0
 11
-1.593749999999998
 21
1.84375
 31
0.0
  0
LINE
  5
134
330
2
100
AcDbEntity
  8
0
100
AcDbLine
 10
-1.843749999999998
 20
1.71875
 30
0.0
 11
-1.843749999999998
 21
1.3125
 31
0.0
  0
ARC
  5
135
330
2
100
AcDbEntity
  8
0
100
AcDbCircle
 10
-1.718749999999998
 20
1.71875
 30
0.0
 40
0.125
100
AcDbArc
 50
90.0
 51
180.0
  0
ARC
  5
136
330
2
100
AcDbEntity
  8
0
100
AcDbCircle
 10
-1.593749999999998
 20
1.968749999999998
 30
0.0
 40
0.125
100
AcDbArc
 50
270.0
 51
0.0
  0
LINE
  5
137
330
2
100
AcDbEntity
  8
0
100
AcDbLine
 10
-1.718749999999996
 20
2.656249999999998
 30
0.0
 11
-1.593749999999996
 21
2.656249999999998
 31
0.0
  0
ARC
  5
138
330
2
100
AcDbEntity
  8
0
100
AcDbCircle
 10
-1.718749999999996
 20
2.781249999999998
 30
0.0
 40
0.125
100
AcDbArc
 50
180.0
 51
270.0
  0
ARC
  5
139
330
2
100
AcDbEntity
  8
0
100
AcDbCircle
 10
-1.593749999999996
 20
2.531249999999998
 30
0.0
 40
0.125
100
AcDbArc
 50
0.0
 51
90.0
  0
ARC
  5
13A
330
2
100
AcDbEntity
  8
0
100
AcDbCircle
 10
-0.8957388787568377
 20
2.095846089879947
 30
0.0
 40
0.0519900307039585
100
AcDbArc
 50
359.6185877246035
 51
83.38525270417924
  0
ARC
  5
13B
330
2
100
AcDbEntity
  8
0
100
AcDbCircle
 10
-0.8957388787568377
 20
2.52915391012006
 30
0.0
 40
0.0519900307039585
100
AcDbArc
 50
276.614747295821
 51
0.38141227539666
  0
ARC
  5
13E
330
2
100
AcDbEntity
  8
0
100
AcDbCircle
 10
-0.8963868390020018
 20
2.52927646543194
 30
0.0
 40
0.0986370922929614
100
AcDbArc
 50
273.858085945053
 51
302.2518233885159
  0
ARC
  5
13F
330
2
100
AcDbEntity
  8
0
100
AcDbCircle
 10
-0.8963868390020018
 20
2.095723534568071
 30
0.0
 40
0.0986370922929614
100
AcDbArc
 50
57.74817661148467
 51
86.14191405494718
  0
LINE
  5
140
330
2
100
AcDbEntity
  8
0
100
AcDbLine
 10
-1.843749999999996
 20
3.187500000000002
 30
0.0
 11
-0.8437499999999965
 21
3.187500000000002
 31
0.0
  0
LINE
  5
141
330
2
100
AcDbEntity
  8
0
100
AcDbLine
 10
-0.8437499999999965
 20
3.187500000000002
 30
0.0
 11
-0.7812499999999965
 21
3.187500000000002
 31
0.0
  0
CIRCLE
  5
142
330
2
100
AcDbEntity
  8
0
100
AcDbCircle
 10
1.59375
 20
2.874999999999998
 30
0.0
 40
0.078125
  0
LINE
  5
143
330
2
100
AcDbEntity
  8
0
100
AcDbLine
 10
0.78125
 20
0.125
 30
0.0
 11
0.7812500000000036
 21
3.187500000000002
 31
0.0
  0
LINE
  5
144
330
2
100
AcDbEntity
  8
0
100
AcDbLine
 10
0.8437500000000036
 20
3.187500000000002
 30
0.0
 11
0.84375
 21
0.125
 31
0.0
  0
LINE
  5
145
330
2
100
AcDbEntity
  8
0
100
AcDbLine
 10
1.84375
 20
3.187500000000002
 30
0.0
 11
1.84375
 21
2.624999999999998
 31
0.0
  0
LINE
  5
146
330
2
100
AcDbEntity
  8
0
100
AcDbLine
 10
0.84375
 20
0.3125
 30
0.0
 11
1.84375
 21
1.3125
 31
0.0
  0
LINE
  5
147
330
2
100
AcDbEntity
  8
0
100
AcDbLine
 10
1.71875
 20
2.499999999999998
 30
0.0
 11
1.59375
 21
2.499999999999998
 31
0.0
  0
LINE
  5
148
330
2
100
AcDbEntity
  8
0
100
AcDbLine
 10
1.71875
 20
1.6875
 30
0.0
 11
1.59375
 21
1.6875
 31
0.0
  0
CIRCLE
  5
149
330
2
100
AcDbEntity
  8
0
100
AcDbCircle
 10
1.59375
 20
1.40625
 30
0.0
 40
0.078125
  0
ARC
  5
14A
330
2
100
AcDbEntity
  8
0
100
AcDbCircle
 10
0.84375
 20
1.43745
 30
0.0
 40
0.1875
100
AcDbArc
 50
270.0
 51
90.0
  0
ARC
  5
14B
330
2
100
AcDbEntity
  8
0
100
AcDbCircle
 10
0.71875
 20
0.125
 30
0.0
 40
0.0625
100
AcDbArc
 50
270.0
 51
0.0
  0
ARC
  5
14C
330
2
100
AcDbEntity
  8
0
100
AcDbCircle
 10
0.71875
 20
0.125
 30
0.0
 40
0.125
100
AcDbArc
 50
270.0
 51
0.0
  0
LINE
  5
151
330
2
100
AcDbEntity
  8
0
100
AcDbLine
 10
1.46875
 20
1.8125
 30
0.0
 11
1.46875
 21
2.374999999999998
 31
0.0
  0
ARC
  5
152
330
2
100
AcDbEntity
  8
0
100
AcDbCircle
 10
0.8963868390020089
 20
1.876973534568073
 30
0.0
 40
0.0986370922929614
100
AcDbArc
 50
93.85808594505281
 51
122.2518233885153
  0
ARC
  5
153
330
2
100
AcDbEntity
  8
0
100
AcDbCircle
 10
0.8957388787568448
 20
1.877096089879949
 30
0.0
 40
0.0519900307039585
100
AcDbArc
 50
96.61474729582074
 51
180.3814122753964
  0
POINT
  5
154
330
2
100
AcDbEntity
  8
0
100
AcDbPoint
 10
1.1875
 20
2.031249999999998
 30
0.0
  0
ARC
  5
155
330
2
100
AcDbEntity
  8
0
100
AcDbCircle
 10
1.59375
 20
1.8125
 30
0.0
 40
0.125
100
AcDbArc
 50
180.0
 51
270.0
  0
ARC
  5
156
330
2
100
AcDbEntity
  8
0
100
AcDbCircle
 10
0.8963868390020089
 20
2.31052646543194
 30
0.0
 40
0.0986370922929614
100
AcDbArc
 50
237.7481766114841
 51
266.141914054947
  0
ARC
  5
157
330
2
100
AcDbEntity
  8
0
100
AcDbCircle
 10
0.8957388787568448
 20
2.31040391012006
 30
0.0
 40
0.0519900307039585
100
AcDbArc
 50
179.6185877246033
 51
263.385252704179
  0
ARC
  5
158
330
2
100
AcDbEntity
  8
0
100
AcDbCircle
 10
1.59375
 20
2.374999999999998
 30
0.0
 40
0.125
100
AcDbArc
 50
90.0
 51
180.0
  0
ARC
  5
159
330
2
100
AcDbEntity
  8
0
100
AcDbCircle
 10
1.71875
 20
1.5625
 30
0.0
 40
0.125
100
AcDbArc
 50
0.0
 51
90.0
  0
LINE
  5
15A
330
2
100
AcDbEntity
  8
0
100
AcDbLine
 10
1.84375
 20
1.5625
 30
0.0
 11
1.84375
 21
1.3125
 31
0.0
  0
ARC
  5
15B
330
2
100
AcDbEntity
  8
0
100
AcDbCircle
 10
1.71875
 20
2.624999999999998
 30
0.0
 40
0.125
100
AcDbArc
 50
270.0
 51
0.0
  0
LINE
  5
15C
330
2
100
AcDbEntity
  8
0
100
AcDbLine
 10
1.843750000000004
 20
3.187500000000002
 30
0.0
 11
0.8437500000000036
 21
3.187500000000002
 31
0.0
  0
LINE
  5
15D
330
2
100
AcDbEntity
  8
0
100
AcDbLine
 10
0.7812500000000036
 20
3.187500000000002
 30
0.0
 11
0.8437500000000036
 21
3.187500000000002
 31
0.0
  0
LINE
  5
18E
330
2
100
AcDbEntity
  8
0
100
AcDbLine
 10
-1.244444
 20
2.247936999999999
 30
0.0
 11
-1.28125
 21
2.284743999999998
 31
0.0
  0
LINE
  5
18F
330
2
100
AcDbEntity
  8
0
100
AcDbLine
 10
-1.131306
 20
2.247936999999999
 30
0.0
 11
-1.09375
 21
2.285493999999998
 31
0.0
  0
LINE
  5
190
330
2
100
AcDbEntity
  8
0
100
AcDbLine
 10
-1.18825
 20
2.031249999999998
 30
0.0
 11
-1.1875
 21
2.031249999999998
 31
0.0
  0
LINE
  5
191
330
2
100
AcDbEntity
  8
0
100
AcDbLine
 10
-1.28125
 20
2.906249999999998
 30
0.0
 11
-1.28125
 21
2.124249999999998
 31
0.0
  0
LINE
  5
192
330
2
100
AcDbEntity
  8
0
100
AcDbLine
 10
-1.09375
 20
2.124999999999998
 30
0.0
 11
-1.09375
 21
2.906249999999998
 31
0.0
  0
LINE
  5
193
330
2
100
AcDbEntity
  8
0
100
AcDbLine
 10
-1.1875
 20
2.031249999999998
 30
0.0
 11
-1.09375
 21
2.124999999999998
 31
0.0
  0
LINE
  5
194
330
2
100
AcDbEntity
  8
0
100
AcDbLine
 10
-1.18825
 20
2.031249999999998
 30
0.0
 11
-1.28125
 21
2.124249999999998
 31
0.0
  0
ARC
  5
195
330
2
100
AcDbEntity
  8
0
100
AcDbCircle
 10
-1.188663
 20
2.349226999999997
 30
0.0
 40
0.114071
100
AcDbArc
 50
54.808812
 51
127.538262
  0
ARC
  5
196
330
2
100
AcDbEntity
  8
0
100
AcDbCircle
 10
-1.188663
 20
2.502426999999999
 30
0.0
 40
0.114071
100
AcDbArc
 50
232.461738
 51
305.191188
  0
LINE
  5
197
330
2
100
AcDbEntity
  8
0
100
AcDbLine
 10
-1.237372
 20
2.240865999999999
 30
0.0
 11
-1.28125
 21
2.284743999999998
 31
0.0
  0
LINE
  5
198
330
2
100
AcDbEntity
  8
0
100
AcDbLine
 10
-1.138378
 20
2.240865999999999
 30
0.0
 11
-1.09375
 21
2.285493999999998
 31
0.0
  0
LINE
  5
199
330
2
100
AcDbEntity
  8
0
100
AcDbLine
 10
-1.18825
 20
2.191743999999998
 30
0.0
 11
-1.1875
 21
2.191743999999998
 31
0.0
  0
LINE
  5
19A
330
2
100
AcDbEntity
  8
0
100
AcDbLine
 10
-1.18825
 20
2.031249999999998
 30
0.0
 11
-1.1875
 21
2.031249999999998
 31
0.0
  0
LINE
  5
19B
330
2
100
AcDbEntity
  8
0
100
AcDbLine
 10
-1.28125
 20
2.781249999999998
 30
0.0
 11
-1.28125
 21
2.124249999999998
 31
0.0
  0
LINE
  5
19C
330
2
100
AcDbEntity
  8
0
100
AcDbLine
 10
-1.09375
 20
2.124999999999998
 30
0.0
 11
-1.09375
 21
2.781249999999998
 31
0.0
  0
LINE
  5
19D
330
2
100
AcDbEntity
  8
0
100
AcDbLine
 10
-1.1875
 20
2.031249999999998
 30
0.0
 11
-1.09375
 21
2.124999999999998
 31
0.0
  0
LINE
  5
19E
330
2
100
AcDbEntity
  8
0
100
AcDbLine
 10
-1.18825
 20
2.031249999999998
 30
0.0
 11
-1.28125
 21
2.124249999999998
 31
0.0
  0
POINT
  5
19F
330
2
100
AcDbEntity
  8
0
100
AcDbPoint
 10
-1.1875
 20
2.031249999999998
 30
0.0
  0
ARC
  5
1A0
330
2
100
AcDbEntity
  8
0
100
AcDbCircle
 10
-1.187875
 20
2.290363999999999
 30
0.0
 40
0.07
100
AcDbArc
 50
225.0
 51
315.0
  0
LINE
  5
1A1
330
2
100
AcDbEntity
  8
0
100
AcDbLine
 10
-1.244444
 20
2.247936999999999
 30
0.0
 11
-1.28125
 21
2.284743999999998
 31
0.0
  0
LINE
  5
1A2
330
2
100
AcDbEntity
  8
0
100
AcDbLine
 10
-1.131306
 20
2.247936999999999
 30
0.0
 11
-1.09375
 21
2.285493999999998
 31
0.0
  0
LINE
  5
1A3
330
2
100
AcDbEntity
  8
0
100
AcDbLine
 10
-1.18825
 20
2.031249999999998
 30
0.0
 11
-1.1875
 21
2.031249999999998
 31
0.0
  0
LINE
  5
1A4
330
2
100
AcDbEntity
  8
0
100
AcDbLine
 10
-1.28125
 20
2.906249999999998
 30
0.0
 11
-1.28125
 21
2.124249999999998
 31
0.0
  0
LINE
  5
1A5
330
2
100
AcDbEntity
  8
0
100
AcDbLine
 10
-1.09375
 20
2.124999999999998
 30
0.0
 11
-1.09375
 21
2.906249999999998
 31
0.0
  0
LINE
  5
1A6
330
2
100
AcDbEntity
  8
0
100
AcDbLine
 10
-1.1875
 20
2.031249999999998
 30
0.0
 11
-1.09375
 21
2.124999999999998
 31
0.0
  0
LINE
  5
1A7
330
2
100
AcDbEntity
  8
0
100
AcDbLine
 10
-1.18825
 20
2.031249999999998
 30
0.0
 11
-1.28125
 21
2.124249999999998
 31
0.0
  0
ARC
  5
1A8
330
2
100
AcDbEntity
  8
0
100
AcDbCircle
 10
-1.188663
 20
2.349226999999997
 30
0.0
 40
0.114071
100
AcDbArc
 50
54.808812
 51
127.538262
  0
ARC
  5
1A9
330
2
100
AcDbEntity
  8
0
100
AcDbCircle
 10
-1.188663
 20
2.502426999999999
 30
0.0
 40
0.114071
100
AcDbArc
 50
232.461738
 51
305.191188
  0
LINE
  5
1AA
330
2
100
AcDbEntity
  8
0
100
AcDbLine
 10
-1.237372
 20
2.240865999999999
 30
0.0
 11
-1.28125
 21
2.284743999999998
 31
0.0
  0
LINE
  5
1AB
330
2
100
AcDbEntity
  8
0
100
AcDbLine
 10
-1.138378
 20
2.240865999999999
 30
0.0
 11
-1.09375
 21
2.285493999999998
 31
0.0
  0
LINE
  5
1AC
330
2
100
AcDbEntity
  8
0
100
AcDbLine
 10
-1.18825
 20
2.191743999999998
 30
0.0
 11
-1.1875
 21
2.191743999999998
 31
0.0
  0
LINE
  5
1AD
330
2
100
AcDbEntity
  8
0
100
AcDbLine
 10
-1.18825
 20
2.031249999999998
 30
0.0
 11
-1.1875
 21
2.031249999999998
 31
0.0
  0
LINE
  5
1AE
330
2
100
AcDbEntity
  8
0
100
AcDbLine
 10
-1.28125
 20
2.781249999999998
 30
0.0
 11
-1.28125
 21
2.124249999999998
 31
0.0
  0
LINE
  5
1AF
330
2
100
AcDbEntity
  8
0
100
AcDbLine
 10
-1.09375
 20
2.124999999999998
 30
0.0
 11
-1.09375
 21
2.781249999999998
 31
0.0
  0
LINE
  5
1B0
330
2
100
AcDbEntity
  8
0
100
AcDbLine
 10
-1.1875
 20
2.031249999999998
 30
0.0
 11
-1.09375
 21
2.124999999999998
 31
0.0
  0
LINE
  5
1B1
330
2
100
AcDbEntity
  8
0
100
AcDbLine
 10
-1.18825
 20
2.031249999999998
 30
0.0
 11
-1.28125
 21
2.124249999999998
 31
0.0
  0
POINT
  5
1B2
330
2
100
AcDbEntity
  8
0
100
AcDbPoint
 10
-1.1875
 20
2.031249999999998
 30
0.0
  0
ARC
  5
1B3
330
2
100
AcDbEntity
  8
0
100
AcDbCircle
 10
-1.187875
 20
2.290363999999999
 30
0.0
 40
0.07
100
AcDbArc
 50
225.0
 51
315.0
  0
ARC
  5
1B4
330
2
100
AcDbEntity
  8
0
100
AcDbCircle
 10
-0.8437499999999862
 20
2.274774298837519
 30
0.0
 40
0.1627257011624916
100
AcDbArc
 50
106.4204773143156
 51
109.9326970463661
  0
ARC
  5
1B5
330
2
100
AcDbEntity
  8
0
100
AcDbCircle
 10
-0.8504344778046518
 20
2.293207091687135
 30
0.0
 40
0.1431183021570671
100
AcDbArc
 50
109.9326970463548
 51
131.2018769840313
  0
ARC
  5
1B6
330
2
100
AcDbEntity
  8
0
100
AcDbCircle
 10
-0.8607281620619585
 20
2.304964695292641
 30
0.0
 40
0.1274913645769353
100
AcDbArc
 50
131.201876984032
 51
154.680182614194
  0
ARC
  5
1B7
330
2
100
AcDbEntity
  8
0
100
AcDbCircle
 10
-0.8766549622835655
 20
2.312500000000012
 30
0.0
 40
0.10987194965101
100
AcDbArc
 50
154.6801826141993
 51
180.0000000000037
  0
ARC
  5
1B8
330
2
100
AcDbEntity
  8
0
100
AcDbCircle
 10
-0.8766549622835727
 20
2.312499999999998
 30
0.0
 40
0.1098719496510028
100
AcDbArc
 50
179.9999999999963
 51
205.3198173858006
  0
ARC
  5
1B9
330
2
100
AcDbEntity
  8
0
100
AcDbCircle
 10
-0.86072816206195
 20
2.320035304707373
 30
0.0
 40
0.1274913645769427
100
AcDbArc
 50
205.3198173858044
 51
228.7981230159662
  0
ARC
  5
1BA
330
2
100
AcDbEntity
  8
0
100
AcDbCircle
 10
-0.8504344778046535
 20
2.331792908312872
 30
0.0
 40
0.1431183021570633
100
AcDbArc
 50
228.7981230159683
 51
250.0673029536455
  0
ARC
  5
1BB
330
2
100
AcDbEntity
  8
0
100
AcDbCircle
 10
-0.8437499999999862
 20
2.350225701162492
 30
0.0
 40
0.1627257011624916
100
AcDbArc
 50
250.0673029536339
 51
253.5795226856844
  0
ARC
  5
1BC
330
2
100
AcDbEntity
  8
0
100
AcDbCircle
 10
-0.8437500000000178
 20
2.303878177159268
 30
0.0
 40
0.1796218228407326
100
AcDbArc
 50
104.8383959934621
 51
112.0008925954695
  0
ARC
  5
1BD
330
2
100
AcDbEntity
  8
0
100
AcDbCircle
 10
-0.84544588209048
 20
2.308075444365455
 30
0.0
 40
0.1750948958405606
100
AcDbArc
 50
112.0008925954738
 51
134.2879713357528
  0
ARC
  5
1BE
330
2
100
AcDbEntity
  8
0
100
AcDbCircle
 10
-0.8480701165187616
 20
2.310765726997071
 30
0.0
 40
0.1713366745894169
100
AcDbArc
 50
134.2879713357519
 51
156.9920431300936
  0
ARC
  5
1BF
330
2
100
AcDbEntity
  8
0
100
AcDbCircle
 10
-0.8521542306491483
 20
2.312500000000012
 30
0.0
 40
0.1668995932200081
100
AcDbArc
 50
156.9920431300973
 51
180.0000000000024
  0
ARC
  5
1C0
330
2
100
AcDbEntity
  8
0
100
AcDbCircle
 10
-0.8521542306491545
 20
2.312499999999998
 30
0.0
 40
0.1668995932200028
100
AcDbArc
 50
179.9999999999976
 51
203.0079568699036
  0
ARC
  5
1C1
330
2
100
AcDbEntity
  8
0
100
AcDbCircle
 10
-0.8480701165187612
 20
2.314234273002944
 30
0.0
 40
0.171336674589419
100
AcDbArc
 50
203.0079568699075
 51
225.7120286642488
  0
ARC
  5
1C2
330
2
100
AcDbEntity
  8
0
100
AcDbCircle
 10
-0.8454458820904778
 20
2.316924555634559
 30
0.0
 40
0.1750948958405649
100
AcDbArc
 50
225.7120286642475
 51
247.9991074045259
  0
ARC
  5
1C3
330
2
100
AcDbEntity
  8
0
100
AcDbCircle
 10
-0.843750000000048
 20
2.321121822840739
 30
0.0
 40
0.1796218228407181
100
AcDbArc
 50
247.9991074045391
 51
255.1616040065466
  0
LINE
  5
1C4
330
2
100
AcDbEntity
  8
0
100
AcDbLine
 10
1.130556
 20
2.247936999999999
 30
0.0
 11
1.09375
 21
2.284743999999998
 31
0.0
  0
LINE
  5
1C5
330
2
100
AcDbEntity
  8
0
100
AcDbLine
 10
1.243694
 20
2.247936999999999
 30
0.0
 11
1.28125
 21
2.285493999999998
 31
0.0
  0
LINE
  5
1C6
330
2
100
AcDbEntity
  8
0
100
AcDbLine
 10
1.18675
 20
2.031249999999998
 30
0.0
 11
1.1875
 21
2.031249999999998
 31
0.0
  0
LINE
  5
1C7
330
2
100
AcDbEntity
  8
0
100
AcDbLine
 10
1.09375
 20
2.906249999999998
 30
0.0
 11
1.09375
 21
2.124249999999998
 31
0.0
  0
LINE
  5
1C8
330
2
100
AcDbEntity
  8
0
100
AcDbLine
 10
1.28125
 20
2.124999999999998
 30
0.0
 11
1.28125
 21
2.906249999999998
 31
0.0
  0
LINE
  5
1C9
330
2
100
AcDbEntity
  8
0
100
AcDbLine
 10
1.1875
 20
2.031249999999998
 30
0.0
 11
1.28125
 21
2.124999999999998
 31
0.0
  0
LINE
  5
1CA
330
2
100
AcDbEntity
  8
0
100
AcDbLine
 10
1.18675
 20
2.031249999999998
 30
0.0
 11
1.09375
 21
2.124249999999998
 31
0.0
  0
ARC
  5
1CB
330
2
100
AcDbEntity
  8
0
100
AcDbCircle
 10
1.186337
 20
2.349226999999997
 30
0.0
 40
0.114071
100
AcDbArc
 50
54.808812
 51
127.538262
  0
ARC
  5
1CC
330
2
100
AcDbEntity
  8
0
100
AcDbCircle
 10
1.186337
 20
2.502426999999999
 30
0.0
 40
0.114071
100
AcDbArc
 50
232.461738
 51
305.191188
  0
LINE
  5
1CD
330
2
100
AcDbEntity
  8
0
100
AcDbLine
 10
1.137627999999999
 20
2.240865999999999
 30
0.0
 11
1.09375
 21
2.284743999999998
 31
0.0
  0
LINE
  5
1CE
330
2
100
AcDbEntity
  8
0
100
AcDbLine
 10
1.236622000000001
 20
2.240865999999999
 30
0.0
 11
1.28125
 21
2.285493999999998
 31
0.0
  0
LINE
  5
1CF
330
2
100
AcDbEntity
  8
0
100
AcDbLine
 10
1.18675
 20
2.191743999999998
 30
0.0
 11
1.1875
 21
2.191743999999998
 31
0.0
  0
LINE
  5
1D0
330
2
100
AcDbEntity
  8
0
100
AcDbLine
 10
1.18675
 20
2.031249999999998
 30
0.0
 11
1.1875
 21
2.031249999999998
 31
0.0
  0
LINE
  5
1D1
330
2
100
AcDbEntity
  8
0
100
AcDbLine
 10
1.09375
 20
2.781249999999998
 30
0.0
 11
1.09375
 21
2.124249999999998
 31
0.0
  0
LINE
  5
1D2
330
2
100
AcDbEntity
  8
0
100
AcDbLine
 10
1.28125
 20
2.124999999999998
 30
0.0
 11
1.28125
 21
2.781249999999998
 31
0.0
  0
LINE
  5
1D3
330
2
100
AcDbEntity
  8
0
100
AcDbLine
 10
1.1875
 20
2.031249999999998
 30
0.0
 11
1.28125
 21
2.124999999999998
 31
0.0
  0
LINE
  5
1D4
330
2
100
AcDbEntity
  8
0
100
AcDbLine
 10
1.18675
 20
2.031249999999998
 30
0.0
 11
1.09375
 21
2.124249999999998
 31
0.0
  0
POINT
  5
1D5
330
2
100
AcDbEntity
  8
0
100
AcDbPoint
 10
1.1875
 20
2.031249999999998
 30
0.0
  0
ARC
  5
1D6
330
2
100
AcDbEntity
  8
0
100
AcDbCircle
 10
1.187125
 20
2.290363999999999
 30
0.0
 40
0.07
100
AcDbArc
 50
225.0
 51
314.9999999999999
  0
LINE
  5
1D7
330
2
100
AcDbEntity
  8
0
100
AcDbLine
 10
1.130556
 20
2.247936999999999
 30
0.0
 11
1.09375
 21
2.284743999999998
 31
0.0
  0
LINE
  5
1D8
330
2
100
AcDbEntity
  8
0
100
AcDbLine
 10
1.243694
 20
2.247936999999999
 30
0.0
 11
1.28125
 21
2.285493999999998
 31
0.0
  0
LINE
  5
1D9
330
2
100
AcDbEntity
  8
0
100
AcDbLine
 10
1.18675
 20
2.031249999999998
 30
0.0
 11
1.1875
 21
2.031249999999998
 31
0.0
  0
LINE
  5
1DA
330
2
100
AcDbEntity
  8
0
100
AcDbLine
 10
1.09375
 20
2.906249999999998
 30
0.0
 11
1.09375
 21
2.124249999999998
 31
0.0
  0
LINE
  5
1DB
330
2
100
AcDbEntity
  8
0
100
AcDbLine
 10
1.28125
 20
2.124999999999998
 30
0.0
 11
1.28125
 21
2.906249999999998
 31
0.0
  0
LINE
  5
1DC
330
2
100
AcDbEntity
  8
0
100
AcDbLine
 10
1.1875
 20
2.031249999999998
 30
0.0
 11
1.28125
 21
2.124999999999998
 31
0.0
  0
LINE
  5
1DD
330
2
100
AcDbEntity
  8
0
100
AcDbLine
 10
1.18675
 20
2.031249999999998
 30
0.0
 11
1.09375
 21
2.124249999999998
 31
0.0
  0
ARC
  5
1DE
330
2
100
AcDbEntity
  8
0
100
AcDbCircle
 10
1.186337
 20
2.349226999999997
 30
0.0
 40
0.114071
100
AcDbArc
 50
54.808812
 51
127.538262
  0
ARC
  5
1DF
330
2
100
AcDbEntity
  8
0
100
AcDbCircle
 10
1.186337
 20
2.502426999999999
 30
0.0
 40
0.114071
100
AcDbArc
 50
232.461738
 51
305.191188
  0
LINE
  5
1E0
330
2
100
AcDbEntity
  8
0
100
AcDbLine
 10
1.137627999999999
 20
2.240865999999999
 30
0.0
 11
1.09375
 21
2.284743999999998
 31
0.0
  0
LINE
  5
1E1
330
2
100
AcDbEntity
  8
0
100
AcDbLine
 10
1.236622000000001
 20
2.240865999999999
 30
0.0
 11
1.28125
 21
2.285493999999998
 31
0.0
  0
LINE
  5
1E2
330
2
100
AcDbEntity
  8
0
100
AcDbLine
 10
1.18675
 20
2.191743999999998
 30
0.0
 11
1.1875
 21
2.191743999999998
 31
0.0
  0
LINE
  5
1E3
330
2
100
AcDbEntity
  8
0
100
AcDbLine
 10
1.18675
 20
2.031249999999998
 30
0.0
 11
1.1875
 21
2.031249999999998
 31
0.0
  0
LINE
  5
1E4
330
2
100
AcDbEntity
  8
0
100
AcDbLine
 10
1.09375
 20
2.781249999999998
 30
0.0
 11
1.09375
 21
2.124249999999998
 31
0.0
  0
LINE
  5
1E5
330
2
100
AcDbEntity
  8
0
100
AcDbLine
 10
1.28125
 20
2.124999999999998
 30
0.0
 11
1.28125
 21
2.781249999999998
 31
0.0
  0
LINE
  5
1E6
330
2
100
AcDbEntity
  8
0
100
AcDbLine
 10
1.1875
 20
2.031249999999998
 30
0.0
 11
1.28125
 21
2.124999999999998
 31
0.0
  0
LINE
  5
1E7
330
2
100
AcDbEntity
  8
0
100
AcDbLine
 10
1.18675
 20
2.031249999999998
 30
0.0
 11
1.09375
 21
2.124249999999998
 31
0.0
  0
POINT
  5
1E8
330
2
100
AcDbEntity
  8
0
100
AcDbPoint
 10
1.1875
 20
2.031249999999998
 30
0.0
  0
ARC
  5
1E9
330
2
100
AcDbEntity
  8
0
100
AcDbCircle
 10
1.187125
 20
2.290363999999999
 30
0.0
 40
0.07
100
AcDbArc
 50
225.0
 51
314.9999999999999
  0
ARC
  5
1EA
330
2
100
AcDbEntity
  8
0
100
AcDbCircle
 10
0.8437500000000249
 20
2.085128177159268
 30
0.0
 40
0.1796218228407326
100
AcDbArc
 50
67.99910740453053
 51
75.16160400653787
  0
ARC
  5
1EB
330
2
100
AcDbEntity
  8
0
100
AcDbCircle
 10
0.8454458820904875
 20
2.089325444365455
 30
0.0
 40
0.1750948958405604
100
AcDbArc
 50
45.71202866424729
 51
67.99910740452631
  0
ARC
  5
1EC
330
2
100
AcDbEntity
  8
0
100
AcDbCircle
 10
0.8480701165187687
 20
2.092015726997071
 30
0.0
 40
0.1713366745894169
100
AcDbArc
 50
23.00795686990644
 51
45.71202866424806
  0
ARC
  5
1ED
330
2
100
AcDbEntity
  8
0
100
AcDbCircle
 10
0.8521542306491554
 20
2.093750000000012
 30
0.0
 40
0.1668995932200081
100
AcDbArc
 50
359.9999999999976
 51
23.00795686990271
  0
ARC
  5
1EE
330
2
100
AcDbEntity
  8
0
100
AcDbCircle
 10
0.8521542306491616
 20
2.093749999999998
 30
0.0
 40
0.1668995932200028
100
AcDbArc
 50
336.9920431300965
 51
0.0000000000024393
  0
ARC
  5
1EF
330
2
100
AcDbEntity
  8
0
100
AcDbCircle
 10
0.8480701165187679
 20
2.095484273002944
 30
0.0
 40
0.1713366745894194
100
AcDbArc
 50
314.2879713357513
 51
336.9920431300926
  0
ARC
  5
1F0
330
2
100
AcDbEntity
  8
0
100
AcDbCircle
 10
0.8454458820904849
 20
2.098174555634559
 30
0.0
 40
0.1750948958405649
100
AcDbArc
 50
292.0008925954741
 51
314.2879713357525
  0
ARC
  5
1F1
330
2
100
AcDbEntity
  8
0
100
AcDbCircle
 10
0.8437500000000551
 20
2.102371822840739
 30
0.0
 40
0.1796218228407181
100
AcDbArc
 50
284.8383959934534
 51
292.0008925954609
  0
ARC
  5
1F2
330
2
100
AcDbEntity
  8
0
100
AcDbCircle
 10
0.8437499999999929
 20
2.056024298837519
 30
0.0
 40
0.1627257011624917
100
AcDbArc
 50
70.06730295363376
 51
73.57952268568424
  0
ARC
  5
1F3
330
2
100
AcDbEntity
  8
0
100
AcDbCircle
 10
0.8504344778046589
 20
2.074457091687135
 30
0.0
 40
0.1431183021570671
100
AcDbArc
 50
48.79812301596872
 51
70.06730295364524
  0
ARC
  5
1F4
330
2
100
AcDbEntity
  8
0
100
AcDbCircle
 10
0.8607281620619744
 20
2.086214695292645
 30
0.0
 40
0.1274913645769267
100
AcDbArc
 50
25.31981738580771
 51
48.79812301596994
  0
ARC
  5
1F5
330
2
100
AcDbEntity
  8
0
100
AcDbCircle
 10
0.8766549622835642
 20
2.093750000000012
 30
0.0
 40
0.1098719496510191
100
AcDbArc
 50
359.9999999999963
 51
25.31981738580044
  0
ARC
  5
1F6
330
2
100
AcDbEntity
  8
0
100
AcDbCircle
 10
0.8766549622835793
 20
2.093749999999998
 30
0.0
 40
0.1098719496510032
100
AcDbArc
 50
334.6801826141995
 51
0.0000000000037053
  0
ARC
  5
1F7
330
2
100
AcDbEntity
  8
0
100
AcDbCircle
 10
0.8607281620619576
 20
2.101285304707373
 30
0.0
 40
0.1274913645769423
100
AcDbArc
 50
311.2018769840337
 51
334.6801826141955
  0
ARC
  5
1F8
330
2
100
AcDbEntity
  8
0
100
AcDbCircle
 10
0.8504344778046606
 20
2.113042908312872
 30
0.0
 40
0.1431183021570633
100
AcDbArc
 50
289.9326970463546
 51
311.2018769840317
  0
ARC
  5
1F9
330
2
100
AcDbEntity
  8
0
100
AcDbCircle
 10
0.8437499999999929
 20
2.131475701162492
 30
0.0
 40
0.1627257011624917
100
AcDbArc
 50
286.4204773143158
 51
289.9326970463663
  0
ENDSEC
  0
SECTION
  2
OBJECTS
  0
DICTIONARY
  5
9
330
0
100
AcDbDictionary
281
     1
  3
ACAD_COLOR
350
26F
  3
ACAD_GROUP
350
23
  3
ACAD_LAYOUT
350
D
  3
ACAD_MATERIAL
350
26E
  3
ACAD_MLINESTYLE
350
24
  3
ACAD_PLOTSETTINGS
350
25
  3
ACAD_PLOTSTYLENAME
350
8
  3
ACAD_TABLESTYLE
350
270
  3
ACDBHEADERROUNDTRIPXREC
350
28C
  3
AcDbVariableDictionary
350
F5
  0
DICTIONARY
  5
26F
102
{ACAD_REACTORS
330
9
102
}
330
9
100
AcDbDictionary
281
     1
  0
DICTIONARY
  5
23
102
{ACAD_REACTORS
330
9
102
}
330
9
100
AcDbDictionary
281
     1
  0
DICTIONARY
  5
D
102
{ACAD_REACTORS
330
9
102
}
330
9
100
AcDbDictionary
281
     1
  3
Layout1
350
13
  3
Model
350
C
  0
DICTIONARY
  5
26E
102
{ACAD_REACTORS
330
9
102
}
330
9
100
AcDbDictionary
281
     1
  0
DICTIONARY
  5
24
102
{ACAD_REACTORS
330
9
102
}
330
9
100
AcDbDictionary
281
     1
  3
STANDARD
350
27
  0
DICTIONARY
  5
25
102
{ACAD_REACTORS
330
9
102
}
330
9
100
AcDbDictionary
281
     1
  0
ACDBDICTIONARYWDFLT
  5
8
102
{ACAD_REACTORS
330
9
102
}
330
9
100
AcDbDictionary
281
     1
  3
Normal
350
7
100
AcDbDictionaryWithDefault
340
7
  0
DICTIONARY
  5
270
102
{ACAD_REACTORS
330
9
102
}
330
9
100
AcDbDictionary
281
     1
  3
Standard
350
271
  0
DICTIONARY
  5
28C
102
{ACAD_REACTORS
330
9
102
}
330
9
100
AcDbDictionary
281
     1
  3
COLORDICT
350
28D
  3
MATERIALDICT
350
28E
  0
DICTIONARY
  5
F5
102
{ACAD_REACTORS
330
9
102
}
330
9
100
AcDbDictionary
281
     1
  3
CTABLESTYLE
350
27A
  3
HIDETEXT
350
28B
  0
LAYOUT
  5
13
102
{ACAD_REACTORS
330
D
102
}
102
{ACAD_XDICTIONARY
360
28F
102
}
330
D
100
AcDbPlotSettings
  1

  2
HP LaserJet 2100 Series PS
  4

  6

 40
0.0
 41
0.0
 42
0.0
 43
0.0
 44
0.0
 45
0.0
 46
0.0
 47
0.0
 48
0.0
 49
0.0
140
0.0
141
0.0
142
1.0
143
1.0
 70
   688
 72
     0
 73
     0
 74
     5
  7

 75
    16
147
1.0
148
0.0
149
0.0
100
AcDbLayout
  1
Layout1
 70
     0
 71
     1
 10
0.0
 20
0.0
 11
12.0
 21
9.0
 12
0.0
 22
0.0
 32
0.0
 14
1.000000000000000E+20
 24
1.000000000000000E+20
 34
1.000000000000000E+20
 15
-1.000000000000000E+20
 25
-1.000000000000000E+20
 35
-1.000000000000000E+20
146
0.0
 13
0.0
 23
0.0
 33
0.0
 16
1.0
 26
0.0
 36
0.0
 17
0.0
 27
1.0
 37
0.0
 76
     0
330
E
  0
LAYOUT
  5
C
102
{ACAD_REACTORS
330
D
102
}
102
{ACAD_XDICTIONARY
360
291
102
}
330
D
100
AcDbPlotSettings
  1

  2
HP LaserJet 2100 Series PS
  4
Letter
  6

 40
5.365749835968018
 41
5.408084392547607
 42
5.4080810546875
 43
5.365753173828125
 44
215.8999938964844
 45
279.3999938964844
 46
0.0
 47
0.0
 48
0.0
 49
0.0
140
0.0
141
0.0
142
1.0
143
1.0
 70
 11952
 72
     0
 73
     1
 74
     0
  7

 75
     0
147
1.0
148
-45.9138349049767
149
3.160184163354331
100
AcDbLayout
  1
Model
 70
     1
 71
     0
 10
0.0
 20
0.0
 11
12.0
 21
9.0
 12
0.0
 22
0.0
 32
0.0
 14
0.0
 24
0.0
 34
0.0
 15
0.0
 25
0.0
 35
0.0
146
0.0
 13
0.0
 23
0.0
 33
0.0
 16
1.0
 26
0.0
 36
0.0
 17
0.0
 27
1.0
 37
0.0
 76
     0
330
2
  0
MLINESTYLE
  5
27
102
{ACAD_REACTORS
330
24
102
}
330
24
100
AcDbMlineStyle
  2
STANDARD
 70
     0
  3

 62
   256
 51
90.0
 52
90.0
 71
     2
 49
0.5
 62
   256
  6
BYLAYER
 49
-0.5
 62
   256
  6
BYLAYER
  0
ACDBPLACEHOLDER
  5
7
102
{ACAD_REACTORS
330
8
102
}
330
8
  0
ACAD_PROXY_OBJECT
  5
271
102
{ACAD_REACTORS
330
270
102
}
330
270
100
AcDbProxyObject
 90
      499
 91
      589
 95
   983063
 70
     0
 93
     1841
310
4214DD185B99185C9928B81E85EB51B8AE3F2E07A17AD46E2B8FC02B5E8DC0F42B1CFD028000000C1008070000C3001FDFF8000000C1003FBFF000000182007F7FE00000030400FEFFC00000060801FDFF8000000C1003FBFF00000018200000000000000681FA0B0000001820100E000186003FBFF000000182007F7FE000
310
00030400FEFFC00000060801FDFF8000000C1003FBFF000000182007F7FE000000304000AD7A3703D0AC73F4160000003040201C00030C007F7FE00000030400FEFFC00000060801FDFF8000000C1003FBFF000000182007F7FE00000030400FEFFC000000608000
340
16
340
16
340
16
 94
        0
  0
XRECORD
  5
28D
102
{ACAD_REACTORS
330
28C
102
}
330
28C
100
AcDbXrecord
340
26F
  0
XRECORD
  5
28E
102
{ACAD_REACTORS
330
28C
102
}
330
28C
100
AcDbXrecord
340
26E
  0
DICTIONARYVAR
  5
27A
102
{ACAD_REACTORS
330
F5
102
}
330
F5
100
DictionaryVariables
280
     0
  1
STANDARD
  0
DICTIONARYVAR
  5
28B
102
{ACAD_REACTORS
330
F5
102
}
330
F5
100
DictionaryVariables
280
     0
  1
0
  0
DICTIONARY
  5
28F
330
13
100
AcDbDictionary
280
     1
281
     1
  3
ACAD_XREC_ROUNDTRIP
360
290
  0
DICTIONARY
  5
291
330
C
100
AcDbDictionary
280
     1
281
     1
  3
ACAD_XREC_ROUNDTRIP
360
292
  0
XRECORD
  5
290
102
{ACAD_REACTORS
330
28F
102
}
330
28F
100
AcDbXrecord
102
SHADEPLOT
 70
     0
102
SHADEPLOTRESLEVEL
 70
     2
102
SHADEPLOTCUSTOMDPI
 70
   300
  0
XRECORD
  5
292
102
{ACAD_REACTORS
330
291
102
}
330
291
100
AcDbXrecord
102
SHADEPLOT
 70
     0
102
SHADEPLOTRESLEVEL
 70
     2
102
SHADEPLOTCUSTOMDPI
 70
   300
  0
ENDSEC
  0
EOF
