  0
SECTION
  2
HEADER
  9
$ACADVER
  1
AC1015
  9
$ACADMAINTVER
 70
     6
  9
$DWGCODEPAGE
  3
ANSI_1252
  9
$INSBASE
 10
0.0
 20
0.0
 30
0.0
  9
$EXTMIN
 10
-8.160449984858161
 20
-0.0258883476483184
 30
0.0
  9
$EXTMAX
 10
7.886751635754649
 20
13.11200234857698
 30
0.0
  9
$LIMMIN
 10
0.0
 20
0.0
  9
$LIMMAX
 10
42.0
 20
32.0
  9
$ORTHOMODE
 70
     1
  9
$REGENMODE
 70
     1
  9
$FILLMODE
 70
     1
  9
$QTEXTMODE
 70
     0
  9
$MIRRTEXT
 70
     1
  9
$LTSCALE
 40
0.75
  9
$ATTMODE
 70
     1
  9
$TEXTSIZE
 40
0.36
  9
$TRACEWID
 40
0.05
  9
$TEXTSTYLE
  7
STANDARD
  9
$CLAYER
  8
0
  9
$CELTYPE
  6
BYLAYER
  9
$CECOLOR
 62
   256
  9
$CELTSCALE
 40
1.0
  9
$DISPSILH
 70
     0
  9
$DIMSCALE
 40
4.0
  9
$DIMASZ
 40
0.125
  9
$DIMEXO
 40
0.062
  9
$DIMDLI
 40
0.375
  9
$DIMRND
 40
0.0
  9
$DIMDLE
 40
0.0
  9
$DIMEXE
 40
0.08
  9
$DIMTP
 40
0.0
  9
$DIMTM
 40
0.0
  9
$DIMTXT
 40
0.09
  9
$DIMCEN
 40
-0.06
  9
$DIMTSZ
 40
0.0
  9
$DIMTOL
 70
     0
  9
$DIMLIM
 70
     0
  9
$DIMTIH
 70
     1
  9
$DIMTOH
 70
     1
  9
$DIMSE1
 70
     0
  9
$DIMSE2
 70
     0
  9
$DIMTAD
 70
     0
  9
$DIMZIN
 70
     0
  9
$DIMBLK
  1

  9
$DIMASO
 70
     0
  9
$DIMSHO
 70
     0
  9
$DIMPOST
  1

  9
$DIMAPOST
  1

  9
$DIMALT
 70
     0
  9
$DIMALTD
 70
     2
  9
$DIMALTF
 40
25.4
  9
$DIMLFAC
 40
1.0
  9
$DIMTOFL
 70
     0
  9
$DIMTVP
 40
0.0
  9
$DIMTIX
 70
     0
  9
$DIMSOXD
 70
     0
  9
$DIMSAH
 70
     0
  9
$DIMBLK1
  1

  9
$DIMBLK2
  1

  9
$DIMSTYLE
  2
STANDARD
  9
$DIMCLRD
 70
     0
  9
$DIMCLRE
 70
     0
  9
$DIMCLRT
 70
     0
  9
$DIMTFAC
 40
1.0
  9
$DIMGAP
 40
0.09
  9
$DIMJUST
 70
     0
  9
$DIMSD1
 70
     0
  9
$DIMSD2
 70
     0
  9
$DIMTOLJ
 70
     1
  9
$DIMTZIN
 70
     0
  9
$DIMALTZ
 70
     0
  9
$DIMALTTZ
 70
     0
  9
$DIMUPT
 70
     0
  9
$DIMDEC
 70
     5
  9
$DIMTDEC
 70
     5
  9
$DIMALTU
 70
     5
  9
$DIMALTTD
 70
     2
  9
$DIMTXSTY
  7
STANDARD
  9
$DIMAUNIT
 70
     0
  9
$DIMADEC
 70
     0
  9
$DIMALTRND
 40
0.0
  9
$DIMAZIN
 70
     0
  9
$DIMDSEP
 70
    46
  9
$DIMATFIT
 70
     3
  9
$DIMFRAC
 70
     0
  9
$DIMLDRBLK
  1

  9
$DIMLUNIT
 70
     5
  9
$DIMLWD
 70
    -2
  9
$DIMLWE
 70
    -2
  9
$DIMTMOVE
 70
     2
  9
$LUNITS
 70
     5
  9
$LUPREC
 70
     5
  9
$SKETCHINC
 40
0.1
  9
$FILLETRAD
 40
0.0
  9
$AUNITS
 70
     0
  9
$AUPREC
 70
     0
  9
$MENU
  1
SIMPSON
  9
$ELEVATION
 40
0.0
  9
$PELEVATION
 40
0.0
  9
$THICKNESS
 40
0.0
  9
$LIMCHECK
 70
     0
  9
$CHAMFERA
 40
0.0
  9
$CHAMFERB
 40
0.0
  9
$CHAMFERC
 40
0.0
  9
$CHAMFERD
 40
0.0
  9
$SKPOLY
 70
     0
  9
$TDCREATE
 40
2448918.900178935
  9
$TDUCREATE
 40
2448919.233512268
  9
$TDUPDATE
 40
2454175.66155816
  9
$TDUUPDATE
 40
2454175.994891493
  9
$TDINDWG
 40
0.1777394213
  9
$TDUSRTIMER
 40
0.1777394213
  9
$USRTIMER
 70
     1
  9
$ANGBASE
 50
0.0
  9
$ANGDIR
 70
     0
  9
$PDMODE
 70
     0
  9
$PDSIZE
 40
0.0
  9
$PLINEWID
 40
0.0
  9
$SPLFRAME
 70
     0
  9
$SPLINETYPE
 70
     6
  9
$SPLINESEGS
 70
     8
  9
$HANDSEED
  5
1F6
  9
$SURFTAB1
 70
     6
  9
$SURFTAB2
 70
     6
  9
$SURFTYPE
 70
     6
  9
$SURFU
 70
     6
  9
$SURFV
 70
     6
  9
$UCSBASE
  2

  9
$UCSNAME
  2

  9
$UCSORG
 10
0.0
 20
0.0
 30
0.0
  9
$UCSXDIR
 10
1.0
 20
0.0
 30
0.0
  9
$UCSYDIR
 10
0.0
 20
1.0
 30
0.0
  9
$UCSORTHOREF
  2

  9
$UCSORTHOVIEW
 70
     0
  9
$UCSORGTOP
 10
0.0
 20
0.0
 30
0.0
  9
$UCSORGBOTTOM
 10
0.0
 20
0.0
 30
0.0
  9
$UCSORGLEFT
 10
0.0
 20
0.0
 30
0.0
  9
$UCSORGRIGHT
 10
0.0
 20
0.0
 30
0.0
  9
$UCSORGFRONT
 10
0.0
 20
0.0
 30
0.0
  9
$UCSORGBACK
 10
0.0
 20
0.0
 30
0.0
  9
$PUCSBASE
  2

  9
$PUCSNAME
  2

  9
$PUCSORG
 10
0.0
 20
0.0
 30
0.0
  9
$PUCSXDIR
 10
1.0
 20
0.0
 30
0.0
  9
$PUCSYDIR
 10
0.0
 20
1.0
 30
0.0
  9
$PUCSORTHOREF
  2

  9
$PUCSORTHOVIEW
 70
     0
  9
$PUCSORGTOP
 10
0.0
 20
0.0
 30
0.0
  9
$PUCSORGBOTTOM
 10
0.0
 20
0.0
 30
0.0
  9
$PUCSORGLEFT
 10
0.0
 20
0.0
 30
0.0
  9
$PUCSORGRIGHT
 10
0.0
 20
0.0
 30
0.0
  9
$PUCSORGFRONT
 10
0.0
 20
0.0
 30
0.0
  9
$PUCSORGBACK
 10
0.0
 20
0.0
 30
0.0
  9
$USERI1
 70
     0
  9
$USERI2
 70
     0
  9
$USERI3
 70
     0
  9
$USERI4
 70
     0
  9
$USERI5
 70
     0
  9
$USERR1
 40
0.0
  9
$USERR2
 40
0.0
  9
$USERR3
 40
0.0
  9
$USERR4
 40
0.0
  9
$USERR5
 40
0.0
  9
$WORLDVIEW
 70
     1
  9
$SHADEDGE
 70
     3
  9
$SHADEDIF
 70
    70
  9
$TILEMODE
 70
     1
  9
$MAXACTVP
 70
    16
  9
$PINSBASE
 10
0.0
 20
0.0
 30
0.0
  9
$PLIMCHECK
 70
     0
  9
$PEXTMIN
 10
1.000000000000000E+20
 20
1.000000000000000E+20
 30
1.000000000000000E+20
  9
$PEXTMAX
 10
-1.000000000000000E+20
 20
-1.000000000000000E+20
 30
-1.000000000000000E+20
  9
$PLIMMIN
 10
0.0
 20
0.0
  9
$PLIMMAX
 10
12.0
 20
9.0
  9
$UNITMODE
 70
     0
  9
$VISRETAIN
 70
     0
  9
$PLINEGEN
 70
     0
  9
$PSLTSCALE
 70
     0
  9
$TREEDEPTH
 70
  3020
  9
$CMLSTYLE
  2
STANDARD
  9
$CMLJUST
 70
     0
  9
$CMLSCALE
 40
1.0
  9
$PROXYGRAPHICS
 70
     1
  9
$MEASUREMENT
 70
     0
  9
$CELWEIGHT
370
    -1
  9
$ENDCAPS
280
     0
  9
$JOINSTYLE
280
     0
  9
$LWDISPLAY
290
     0
  9
$INSUNITS
 70
     0
  9
$HYPERLINKBASE
  1

  9
$STYLESHEET
  1

  9
$XEDIT
290
     1
  9
$CEPSNTYPE
380
     0
  9
$PSTYLEMODE
290
     1
  9
$FINGERPRINTGUID
  2
{A5685105-C481-11D5-BE3F-00508B5FCD51}
  9
$VERSIONGUID
  2
{0DBC8B4C-E4A6-46D4-89AA-AB28AA35E328}
  9
$EXTNAMES
290
     1
  9
$PSVPSCALE
 40
0.0
  9
$OLESTARTUP
290
     0
  0
ENDSEC
  0
SECTION
  2
CLASSES
  0
CLASS
  1
DICTIONARYVAR
  2
AcDbDictionaryVar
  3
AutoCAD 2000
 90
        0
280
     0
281
     0
  0
CLASS
  1
LWPOLYLINE
  2
AcDbPolyline
  3
AutoCAD 2000
 90
        0
280
     0
281
     1
  0
CLASS
  1
ACDBDICTIONARYWDFLT
  2
AcDbDictionaryWithDefault
  3
AutoCAD 2000
 90
        0
280
     0
281
     0
  0
CLASS
  1
ACDBPLACEHOLDER
  2
AcDbPlaceHolder
  3
ObjectDBX Classes
 90
        0
280
     0
281
     0
  0
CLASS
  1
LAYOUT
  2
AcDbLayout
  3
ObjectDBX Classes
 90
        0
280
     0
281
     0
  0
CLASS
  1
LONG_TRANSACTION
  2
AcDbLongTransaction
  3
ObjectDBX Classes
 90
   -65536
280
     1
281
     0
  0
CLASS
  1
LWPOLYLINE
  2
AcDbPolyline
  3
AutoCAD 2000
 90
        0
280
     0
281
     1
  0
CLASS
  1
HATCH
  2
AcDbHatch
  3
AutoCAD 2000
 90
        0
280
     0
281
     1
  0
CLASS
  1
XRECORD
  2
AcDbXrecord
  3
AutoCAD 2000
 90
        0
280
     0
281
     0
  0
CLASS
  1
LONG_TRANSACTION
  2
AcDbLongTransaction
  3
ObjectDBX Classes
 90
   -65536
280
     1
281
     0
  0
CLASS
  1
LWPOLYLINE
  2
AcDbPolyline
  3
AutoCAD 2000
 90
        0
280
     0
281
     1
  0
CLASS
  1
HATCH
  2
AcDbHatch
  3
AutoCAD 2000
 90
        0
280
     0
281
     1
  0
CLASS
  1
XRECORD
  2
AcDbXrecord
  3
AutoCAD 2000
 90
        0
280
     0
281
     0
  0
CLASS
  1
LONG_TRANSACTION
  2
AcDbLongTransaction
  3
ObjectDBX Classes
 90
   -65536
280
     1
281
     0
  0
CLASS
  1
LWPOLYLINE
  2
AcDbPolyline
  3
AutoCAD 2000
 90
        0
280
     0
281
     1
  0
CLASS
  1
HATCH
  2
AcDbHatch
  3
AutoCAD 2000
 90
        0
280
     0
281
     1
  0
CLASS
  1
XRECORD
  2
AcDbXrecord
  3
AutoCAD 2000
 90
        0
280
     0
281
     0
  0
CLASS
  1
LONG_TRANSACTION
  2
AcDbLongTransaction
  3
ObjectDBX Classes
 90
   -65536
280
     1
281
     0
  0
CLASS
  1
LWPOLYLINE
  2
AcDbPolyline
  3
AutoCAD 2000
 90
        0
280
     0
281
     1
  0
CLASS
  1
HATCH
  2
AcDbHatch
  3
AutoCAD 2000
 90
        0
280
     0
281
     1
  0
CLASS
  1
XRECORD
  2
AcDbXrecord
  3
AutoCAD 2000
 90
        0
280
     0
281
     0
  0
CLASS
  1
LONG_TRANSACTION
  2
AcDbLongTransaction
  3
ObjectDBX Classes
 90
   -65536
280
     1
281
     0
  0
CLASS
  1
LWPOLYLINE
  2
AcDbPolyline
  3
AutoCAD 2000
 90
        0
280
     0
281
     1
  0
CLASS
  1
HATCH
  2
AcDbHatch
  3
AutoCAD 2000
 90
        0
280
     0
281
     1
  0
CLASS
  1
XRECORD
  2
AcDbXrecord
  3
AutoCAD 2000
 90
        0
280
     0
281
     0
  0
CLASS
  1
LONG_TRANSACTION
  2
AcDbLongTransaction
  3
ObjectDBX Classes
 90
   -65536
280
     1
281
     0
  0
CLASS
  1
LWPOLYLINE
  2
AcDbPolyline
  3
AutoCAD 2000
 90
        0
280
     0
281
     1
  0
CLASS
  1
HATCH
  2
AcDbHatch
  3
AutoCAD 2000
 90
        0
280
     0
281
     1
  0
CLASS
  1
XRECORD
  2
AcDbXrecord
  3
AutoCAD 2000
 90
        0
280
     0
281
     0
  0
CLASS
  1
LONG_TRANSACTION
  2
AcDbLongTransaction
  3
ObjectDBX Classes
 90
   -65536
280
     1
281
     0
  0
CLASS
  1
LWPOLYLINE
  2
AcDbPolyline
  3
AutoCAD 2000
 90
        0
280
     0
281
     1
  0
CLASS
  1
HATCH
  2
AcDbHatch
  3
AutoCAD 2000
 90
        0
280
     0
281
     1
  0
CLASS
  1
XRECORD
  2
AcDbXrecord
  3
AutoCAD 2000
 90
        0
280
     0
281
     0
  0
CLASS
  1
LONG_TRANSACTION
  2
AcDbLongTransaction
  3
ObjectDBX Classes
 90
   -65536
280
     1
281
     0
  0
CLASS
  1
LWPOLYLINE
  2
AcDbPolyline
  3
AutoCAD 2000
 90
        0
280
     0
281
     1
  0
CLASS
  1
HATCH
  2
AcDbHatch
  3
AutoCAD 2000
 90
        0
280
     0
281
     1
  0
CLASS
  1
XRECORD
  2
AcDbXrecord
  3
AutoCAD 2000
 90
        0
280
     0
281
     0
  0
CLASS
  1
LONG_TRANSACTION
  2
AcDbLongTransaction
  3
ObjectDBX Classes
 90
   -65536
280
     1
281
     0
  0
CLASS
  1
LWPOLYLINE
  2
AcDbPolyline
  3
AutoCAD 2000
 90
        0
280
     0
281
     1
  0
CLASS
  1
HATCH
  2
AcDbHatch
  3
AutoCAD 2000
 90
        0
280
     0
281
     1
  0
CLASS
  1
XRECORD
  2
AcDbXrecord
  3
AutoCAD 2000
 90
        0
280
     0
281
     0
  0
CLASS
  1
LONG_TRANSACTION
  2
AcDbLongTransaction
  3
ObjectDBX Classes
 90
   -65536
280
     1
281
     0
  0
CLASS
  1
LWPOLYLINE
  2
AcDbPolyline
  3
AutoCAD 2000
 90
        0
280
     0
281
     1
  0
CLASS
  1
HATCH
  2
AcDbHatch
  3
AutoCAD 2000
 90
        0
280
     0
281
     1
  0
CLASS
  1
XRECORD
  2
AcDbXrecord
  3
AutoCAD 2000
 90
        0
280
     0
281
     0
  0
CLASS
  1
TABLESTYLE
  2
AcDbTableStyle
  3
ObjectDBX Classes
 90
     2047
280
     1
281
     0
  0
ENDSEC
  0
SECTION
  2
TABLES
  0
TABLE
  2
VPORT
  5
1D
330
0
100
AcDbSymbolTable
 70
     2
  0
VPORT
  5
1E6
330
1D
100
AcDbSymbolTableRecord
100
AcDbViewportTableRecord
  2
*Active
 70
     0
 10
0.0
 20
0.0
 11
1.0
 21
1.0
 12
12.24119447940885
 22
12.91536106722885
 13
0.0
 23
0.0
 14
0.063
 24
0.063
 15
0.25
 25
0.25
 16
0.0
 26
0.0
 36
1.0
 17
0.0
 27
0.0
 37
0.0
 40
33.02526049594541
 41
1.814583333333333
 42
50.0
 43
0.0
 44
0.0
 50
0.0
 51
0.0
 71
     0
 72
   100
 73
     1
 74
     1
 75
     0
 76
     0
 77
     0
 78
     0
281
     0
 65
     1
110
0.0
120
0.0
130
0.0
111
1.0
121
0.0
131
0.0
112
0.0
122
1.0
132
0.0
 79
     0
146
0.0
  0
ENDTAB
  0
TABLE
  2
LTYPE
  5
18
330
0
100
AcDbSymbolTable
 70
     2
  0
LTYPE
  5
19
330
18
100
AcDbSymbolTableRecord
100
AcDbLinetypeTableRecord
  2
BYBLOCK
 70
     0
  3

 72
    65
 73
     0
 40
0.0
  0
LTYPE
  5
1A
330
18
100
AcDbSymbolTableRecord
100
AcDbLinetypeTableRecord
  2
BYLAYER
 70
     0
  3

 72
    65
 73
     0
 40
0.0
  0
LTYPE
  5
A
330
18
100
AcDbSymbolTableRecord
100
AcDbLinetypeTableRecord
  2
CONTINUOUS
 70
     0
  3
Solid line
 72
    65
 73
     0
 40
0.0
  0
LTYPE
  5
39
330
18
100
AcDbSymbolTableRecord
100
AcDbLinetypeTableRecord
  2
HIDDEN
 70
     0
  3
_ _ _ _ _ _ _ _ _ _ _ _ _ _ _ _ _ _ _ _ _ _ _
 72
    65
 73
     2
 40
0.375
 49
0.25
 74
     0
 49
-0.125
 74
     0
  0
ENDTAB
  0
TABLE
  2
LAYER
  5
14
330
0
100
AcDbSymbolTable
 70
     2
  0
LAYER
  5
6
330
14
100
AcDbSymbolTableRecord
100
AcDbLayerTableRecord
  2
0
 70
     0
 62
     7
  6
CONTINUOUS
370
    -3
390
7
  0
ENDTAB
  0
TABLE
  2
STYLE
  5
15
330
0
100
AcDbSymbolTable
 70
     1
  0
STYLE
  5
16
330
15
100
AcDbSymbolTableRecord
100
AcDbTextStyleTableRecord
  2
STANDARD
 70
     0
 40
0.0
 41
1.0
 50
0.0
 71
     0
 42
0.36
  3
TXT
  4

  0
ENDTAB
  0
TABLE
  2
VIEW
  5
1B
330
0
100
AcDbSymbolTable
 70
     0
  0
ENDTAB
  0
TABLE
  2
UCS
  5
1C
330
0
100
AcDbSymbolTable
 70
     0
  0
ENDTAB
  0
TABLE
  2
APPID
  5
1F
330
0
100
AcDbSymbolTable
 70
     1
  0
APPID
  5
20
330
1F
100
AcDbSymbolTableRecord
100
AcDbRegAppTableRecord
  2
ACAD
 70
     0
  0
ENDTAB
  0
TABLE
  2
DIMSTYLE
  5
21
330
0
100
AcDbSymbolTable
 70
     1
100
AcDbDimStyleTable
  0
DIMSTYLE
105
22
330
21
100
AcDbSymbolTableRecord
100
AcDbDimStyleTableRecord
  2
STANDARD
 70
     0
  3

  4

340
16
  0
ENDTAB
  0
TABLE
  2
BLOCK_RECORD
  5
1
330
0
100
AcDbSymbolTable
 70
     0
  0
BLOCK_RECORD
  5
2
330
1
100
AcDbSymbolTableRecord
100
AcDbBlockTableRecord
  2
*MODEL_SPACE
340
C
  0
BLOCK_RECORD
  5
E
330
1
100
AcDbSymbolTableRecord
100
AcDbBlockTableRecord
  2
*PAPER_SPACE
340
13
  0
ENDTAB
  0
ENDSEC
  0
SECTION
  2
BLOCKS
  0
BLOCK
  5
5
330
2
100
AcDbEntity
  8
0
100
AcDbBlockBegin
  2
*MODEL_SPACE
 70
     0
 10
0.0
 20
0.0
 30
0.0
  3
*MODEL_SPACE
  1

  4

  0
ENDBLK
  5
B
330
2
100
AcDbEntity
  8
0
100
AcDbBlockEnd
  0
BLOCK
  5
11
330
E
100
AcDbEntity
 67
     1
  8
0
100
AcDbBlockBegin
  2
*PAPER_SPACE
 70
     0
 10
0.0
 20
0.0
 30
0.0
  3
*PAPER_SPACE
  1

  4

  0
ENDBLK
  5
12
330
E
100
AcDbEntity
 67
     1
  8
0
100
AcDbBlockEnd
  0
ENDSEC
  0
SECTION
  2
ENTITIES
  0
LINE
  5
29
330
2
100
AcDbEntity
  8
0
100
AcDbLine
 10
-8.160449984858161
 20
1.202158775480019
 30
0.0
 11
-8.160449984858161
 21
5.03125
 31
0.0
  0
LINE
  5
2B
330
2
100
AcDbEntity
  8
0
100
AcDbLine
 10
-8.097949984858161
 20
1.112899525058626
 30
0.0
 11
-8.097949984858161
 21
5.03125
 31
0.0
  0
LINE
  5
2C
330
2
100
AcDbEntity
  8
0
100
AcDbLine
 10
-6.848449984858156
 20
4.348950000000002
 30
0.0
 11
-6.848449984858156
 21
3.713550000000005
 31
0.0
  0
LINE
  5
2E
330
2
100
AcDbEntity
  8
0
100
AcDbLine
 10
-7.097949984858161
 20
3.878426568667095
 30
0.0
 11
-7.097949984858161
 21
4.312426568667092
 31
0.0
  0
LINE
  5
2F
330
2
100
AcDbEntity
  8
0
100
AcDbLine
 10
-8.097949984858161
 20
3.84375
 30
0.0
 11
-7.785449984858161
 21
3.59375
 31
0.0
  0
LINE
  5
30
330
2
100
AcDbEntity
  8
0
100
AcDbLine
 10
-7.876539984858162
 20
3.598140000000001
 30
0.0
 11
-8.097949984858161
 21
3.78125
 31
0.0
  0
LINE
  5
31
330
2
100
AcDbEntity
  8
0
100
AcDbLine
 10
-7.785449984858161
 20
3.59375
 30
0.0
 11
-8.097949984858161
 21
3.40625
 31
0.0
  0
LINE
  5
32
330
2
100
AcDbEntity
  8
0
100
AcDbLine
 10
-8.097949984858161
 20
3.46875
 30
0.0
 11
-7.876539984858162
 21
3.598140000000001
 31
0.0
  0
ARC
  5
33
330
2
100
AcDbEntity
  8
0
100
AcDbCircle
 10
-8.097949984858161
 20
2.781779999999998
 30
0.0
 40
0.156
100
AcDbArc
 50
270.0
 51
90.0
  0
LINE
  5
34
330
2
100
AcDbEntity
  8
0
100
AcDbLine
 10
-7.917086498487791
 20
0.854599697506373
 30
0.0
 11
-8.160449984858161
 21
1.202158775480015
 31
0.0
  0
LINE
  5
35
330
2
100
AcDbEntity
  8
0
100
AcDbLine
 10
-8.097949984858161
 20
3.40625
 30
0.0
 11
-8.097949984858161
 21
3.46875
 31
0.0
  0
LINE
  5
36
330
2
100
AcDbEntity
  8
0
100
AcDbLine
 10
-6.035449984858161
 20
0.65625
 30
0.0
 11
-7.134997133514375
 21
2.624426240467251
 31
0.0
  0
LINE
  5
37
330
2
100
AcDbEntity
  8
0
100
AcDbLine
 10
-6.035449984858161
 20
0.0
 30
0.0
 11
-7.894480504023917
 21
0.0
 31
0.0
  0
LINE
  5
38
330
2
100
AcDbEntity
  8
0
  6
HIDDEN
100
AcDbLine
 10
-6.035449984858161
 20
0.0625
 30
0.0
 11
-7.894480504023917
 21
0.0625
 31
0.0
  0
LINE
  5
3A
330
2
100
AcDbEntity
  8
0
100
AcDbLine
 10
-7.894480504023917
 20
0.0
 30
0.0
 11
-7.894480504023917
 21
0.7829028366059418
 31
0.0
  0
ARC
  5
3B
330
2
100
AcDbEntity
  8
0
100
AcDbCircle
 10
-8.019480504023917
 20
0.7829026429624904
 30
0.0
 40
0.125
100
AcDbArc
 50
0.000000000000007
 51
35.00000000000007
  0
LINE
  5
3C
330
2
100
AcDbEntity
  8
0
100
AcDbLine
 10
-6.035449984858161
 20
0.65625
 30
0.0
 11
-6.035449984858161
 21
0.0
 31
0.0
  0
LINE
  5
41
330
2
100
AcDbEntity
  8
0
100
AcDbLine
 10
-7.097949984858161
 20
1.410959973885511
 30
0.0
 11
-7.097949984858161
 21
1.844959973885509
 31
0.0
  0
ARC
  5
46
330
2
100
AcDbEntity
  8
0
100
AcDbCircle
 10
-7.035949984858149
 20
3.713550000000005
 30
0.0
 40
0.1875
100
AcDbArc
 50
289.6333588975684
 51
0.000000000000007
  0
LINE
  5
47
330
2
100
AcDbEntity
  8
0
100
AcDbLine
 10
-7.160449984858161
 20
2.71875
 30
0.0
 11
-7.160449984858161
 21
3.34375
 31
0.0
  0
ARC
  5
48
330
2
100
AcDbEntity
  8
0
100
AcDbCircle
 10
-6.972949984858161
 20
2.71875
 30
0.0
 40
0.1875
100
AcDbArc
 50
180.0
 51
210.2026586833964
  0
ARC
  5
4B
330
2
100
AcDbEntity
  8
0
100
AcDbCircle
 10
-6.972949984858161
 20
3.34375
 30
0.0
 40
0.1875
100
AcDbArc
 50
90.0
 51
180.0
  0
LINE
  5
4C
330
2
100
AcDbEntity
  8
0
100
AcDbLine
 10
-7.160449984858161
 20
5.03125
 30
0.0
 11
-8.160449984858161
 21
5.03125
 31
0.0
  0
LINE
  5
4D
330
2
100
AcDbEntity
  8
0
100
AcDbLine
 10
-7.160449984858161
 20
4.71875
 30
0.0
 11
-7.160449984858161
 21
5.03125
 31
0.0
  0
LINE
  5
4E
330
2
100
AcDbEntity
  8
0
100
AcDbLine
 10
-7.160449984858161
 20
4.71875
 30
0.0
 11
-7.160449984858161
 21
5.03125
 31
0.0
  0
ARC
  5
4F
330
2
100
AcDbEntity
  8
0
100
AcDbCircle
 10
-7.035949984858149
 20
4.348950000000002
 30
0.0
 40
0.1875
100
AcDbArc
 50
0.000000000000007
 51
90.0
  0
ARC
  5
54
330
2
100
AcDbEntity
  8
0
100
AcDbCircle
 10
-6.972949984858161
 20
4.71875
 30
0.0
 40
0.1875
100
AcDbArc
 50
180.0
 51
250.3666411024103
  0
LINE
  5
55
330
2
100
AcDbEntity
  8
0
100
AcDbLine
 10
7.886751635754646
 20
1.202158775480019
 30
0.0
 11
7.886751635754649
 21
5.03125
 31
0.0
  0
LINE
  5
56
330
2
100
AcDbEntity
  8
0
100
AcDbLine
 10
7.824251635754649
 20
1.112899525058626
 30
0.0
 11
7.824251635754649
 21
5.03125
 31
0.0
  0
LINE
  5
57
330
2
100
AcDbEntity
  8
0
100
AcDbLine
 10
6.574751635754645
 20
4.223950000000002
 30
0.0
 11
6.574751635754645
 21
3.588550000000005
 31
0.0
  0
LINE
  5
59
330
2
100
AcDbEntity
  8
0
100
AcDbLine
 10
6.824251635754649
 20
3.53295
 30
0.0
 11
6.824251635754649
 21
3.966949999999997
 31
0.0
  0
LINE
  5
5A
330
2
100
AcDbEntity
  8
0
100
AcDbLine
 10
7.824251635754649
 20
3.84375
 30
0.0
 11
7.511751635754649
 21
3.59375
 31
0.0
  0
LINE
  5
5B
330
2
100
AcDbEntity
  8
0
100
AcDbLine
 10
7.60284163575465
 20
3.598140000000001
 30
0.0
 11
7.824251635754649
 21
3.78125
 31
0.0
  0
LINE
  5
5E
330
2
100
AcDbEntity
  8
0
100
AcDbLine
 10
2.092590000000001
 20
3.65625
 30
0.0
 11
2.092590000000001
 21
4.40625
 31
0.0
  0
LINE
  5
5F
330
2
100
AcDbEntity
  8
0
100
AcDbLine
 10
1.905090000000001
 20
4.40625
 30
0.0
 11
1.905090000000001
 21
3.65625
 31
0.0
  0
LINE
  5
60
330
2
100
AcDbEntity
  8
0
100
AcDbLine
 10
2.374500000000001
 20
4.348949999999999
 30
0.0
 11
2.374500000000001
 21
3.713550000000002
 31
0.0
  0
LINE
  5
61
330
2
100
AcDbEntity
  8
0
100
AcDbLine
 10
-2.375
 20
4.348949999999999
 30
0.0
 11
-2.375
 21
3.713550000000002
 31
0.0
  0
LINE
  5
62
330
2
100
AcDbEntity
  8
0
100
AcDbLine
 10
-1.5625
 20
1.09375
 30
0.0
 11
-1.5625
 21
5.03125
 31
0.0
  0
LINE
  5
63
330
2
100
AcDbEntity
  8
0
100
AcDbLine
 10
-1.625
 20
1.09375
 30
0.0
 11
-1.625
 21
5.03125
 31
0.0
  0
LINE
  5
64
330
2
100
AcDbEntity
  8
0
100
AcDbLine
 10
1.5625
 20
1.09375
 30
0.0
 11
1.5625
 21
5.03125
 31
0.0
  0
LINE
  5
65
330
2
100
AcDbEntity
  8
0
100
AcDbLine
 10
1.625
 20
1.09375
 30
0.0
 11
1.625
 21
5.03125
 31
0.0
  0
LINE
  5
66
330
2
100
AcDbEntity
  8
0
100
AcDbLine
 10
-1.90509
 20
4.40625
 30
0.0
 11
-1.90509
 21
3.65625
 31
0.0
  0
LINE
  5
67
330
2
100
AcDbEntity
  8
0
100
AcDbLine
 10
-2.09259
 20
3.65625
 30
0.0
 11
-2.09259
 21
4.40625
 31
0.0
  0
LINE
  5
68
330
2
100
AcDbEntity
  8
0
100
AcDbLine
 10
-1.5
 20
0.0
 30
0.0
 11
1.5
 21
0.0
 31
0.0
  0
LINE
  5
69
330
2
100
AcDbEntity
  8
0
100
AcDbLine
 10
-1.500499999999999
 20
0.0625
 30
0.0
 11
1.5
 21
0.0625
 31
0.0
  0
LINE
  5
6A
330
2
100
AcDbEntity
  8
0
100
AcDbLine
 10
-1.625
 20
0.8436500000000002
 30
0.0
 11
-2.661547148656211
 21
2.624426240467251
 31
0.0
  0
ARC
  5
6B
330
2
100
AcDbEntity
  8
0
100
AcDbCircle
 10
-1.5
 20
0.125
 30
0.0
 40
0.125
100
AcDbArc
 50
180.0
 51
270.0
  0
LINE
  5
6C
330
2
100
AcDbEntity
  8
0
100
AcDbLine
 10
-1.5625
 20
0.1245000000000012
 30
0.0
 11
-1.5625
 21
1.09375
 31
0.0
  0
LINE
  5
6D
330
2
100
AcDbEntity
  8
0
100
AcDbLine
 10
-1.625
 20
0.125
 30
0.0
 11
-1.625
 21
1.09375
 31
0.0
  0
ARC
  5
6E
330
2
100
AcDbEntity
  8
0
100
AcDbCircle
 10
-1.500499999999999
 20
0.1245000000000012
 30
0.0
 40
0.062
100
AcDbArc
 50
180.0
 51
270.0
  0
LINE
  5
6F
330
2
100
AcDbEntity
  8
0
100
AcDbLine
 10
-0.1564999999999994
 20
0.0625
 30
0.0
 11
-0.0075000000000003
 21
0.0625
 31
0.0
  0
ARC
  5
70
330
2
100
AcDbEntity
  8
0
100
AcDbCircle
 10
-1.676988878756845
 20
1.850288758927146
 30
0.0
 40
0.0519900307039585
100
AcDbArc
 50
276.6147472958209
 51
0.3814122753966671
  0
ARC
  5
72
330
2
100
AcDbEntity
  8
0
100
AcDbCircle
 10
-1.677636839002005
 20
1.850411314239022
 30
0.0
 40
0.0986370922929614
100
AcDbArc
 50
273.8580859450529
 51
302.2518233885159
  0
ARC
  5
73
330
2
100
AcDbEntity
  8
0
100
AcDbCircle
 10
-1.677636839002005
 20
1.416858383375161
 30
0.0
 40
0.0986370922929614
100
AcDbArc
 50
57.74817661148475
 51
86.14191405494711
  0
ARC
  5
75
330
2
100
AcDbEntity
  8
0
100
AcDbCircle
 10
-1.676988878756845
 20
1.416980938687036
 30
0.0
 40
0.0519900307039585
100
AcDbArc
 50
359.6185877246036
 51
83.38525270417914
  0
ARC
  5
76
330
2
100
AcDbEntity
  8
0
100
AcDbCircle
 10
-2.5625
 20
3.713550000000002
 30
0.0
 40
0.1875
100
AcDbArc
 50
289.6333588975685
 51
0.0
  0
CIRCLE
  5
77
330
2
100
AcDbEntity
  8
0
100
AcDbCircle
 10
-2.375
 20
2.96875
 30
0.0
 40
0.0855
  0
LINE
  5
78
330
2
100
AcDbEntity
  8
0
100
AcDbLine
 10
-2.315
 20
2.96875
 30
0.0
 11
-2.435000000000001
 21
2.96875
 31
0.0
  0
LINE
  5
79
330
2
100
AcDbEntity
  8
0
100
AcDbLine
 10
-2.686999999999999
 20
2.71875
 30
0.0
 11
-2.686999999999999
 21
3.34375
 31
0.0
  0
ARC
  5
7A
330
2
100
AcDbEntity
  8
0
100
AcDbCircle
 10
-2.499499999999999
 20
2.71875
 30
0.0
 40
0.1875
100
AcDbArc
 50
180.0
 51
210.2026586833964
  0
LINE
  5
7B
330
2
100
AcDbEntity
  8
0
100
AcDbLine
 10
-2.375
 20
2.908750000000001
 30
0.0
 11
-2.375
 21
3.028749999999999
 31
0.0
  0
ARC
  5
7C
330
2
100
AcDbEntity
  8
0
100
AcDbCircle
 10
-2.499499999999999
 20
3.34375
 30
0.0
 40
0.1875
100
AcDbArc
 50
90.0
 51
180.0
  0
ARC
  5
7D
330
2
100
AcDbEntity
  8
0
100
AcDbCircle
 10
-1.625
 20
2.78125
 30
0.0
 40
0.156
100
AcDbArc
 50
90.0
 51
270.0
  0
LINE
  5
7E
330
2
100
AcDbEntity
  8
0
100
AcDbLine
 10
-1.99884
 20
3.53125
 30
0.0
 11
-1.90509
 21
3.65625
 31
0.0
  0
LINE
  5
7F
330
2
100
AcDbEntity
  8
0
100
AcDbLine
 10
-1.99884
 20
3.53125
 30
0.0
 11
-2.09259
 21
3.65625
 31
0.0
  0
LINE
  5
80
330
2
100
AcDbEntity
  8
0
100
AcDbLine
 10
1.624500000000001
 20
0.8436500000000002
 30
0.0
 11
2.661047148656213
 21
2.624426240467251
 31
0.0
  0
LINE
  5
81
330
2
100
AcDbEntity
  8
0
100
AcDbLine
 10
1.625
 20
1.946177300392492
 30
0.0
 11
1.625
 21
1.15625
 31
0.0
  0
ARC
  5
82
330
2
100
AcDbEntity
  8
0
100
AcDbCircle
 10
1.5
 20
0.125
 30
0.0
 40
0.125
100
AcDbArc
 50
270.0
 51
0.0
  0
LINE
  5
83
330
2
100
AcDbEntity
  8
0
100
AcDbLine
 10
1.625
 20
0.125
 30
0.0
 11
1.625
 21
1.09375
 31
0.0
  0
LINE
  5
84
330
2
100
AcDbEntity
  8
0
100
AcDbLine
 10
1.5625
 20
0.1245000000000012
 30
0.0
 11
1.5625
 21
1.09375
 31
0.0
  0
ARC
  5
85
330
2
100
AcDbEntity
  8
0
100
AcDbCircle
 10
1.500500000000001
 20
0.1245000000000012
 30
0.0
 40
0.062
100
AcDbArc
 50
270.0
 51
0.0
  0
ARC
  5
86
330
2
100
AcDbEntity
  8
0
100
AcDbCircle
 10
1.676988878756845
 20
1.814596089879949
 30
0.0
 40
0.0519900307039585
100
AcDbArc
 50
96.61474729582088
 51
180.3814122753963
  0
ARC
  5
87
330
2
100
AcDbEntity
  8
0
100
AcDbCircle
 10
1.677636839002005
 20
2.248026465431934
 30
0.0
 40
0.0986370922929614
100
AcDbArc
 50
237.7481766114842
 51
266.1419140549471
  0
ARC
  5
88
330
2
100
AcDbEntity
  8
0
100
AcDbCircle
 10
1.676988878756845
 20
2.247903910120058
 30
0.0
 40
0.0519900307039585
100
AcDbArc
 50
179.6185877246033
 51
263.3852527041792
  0
ARC
  5
89
330
2
100
AcDbEntity
  8
0
100
AcDbCircle
 10
1.677636839002005
 20
1.814473534568073
 30
0.0
 40
0.0986370922929614
100
AcDbArc
 50
93.85808594505291
 51
122.2518233885153
  0
ARC
  5
8C
330
2
100
AcDbEntity
  8
0
100
AcDbCircle
 10
1.625
 20
2.78125
 30
0.0
 40
0.156
100
AcDbArc
 50
270.0
 51
90.0
  0
ARC
  5
8D
330
2
100
AcDbEntity
  8
0
100
AcDbCircle
 10
1.677636839002005
 20
3.501973534568077
 30
0.0
 40
0.0986370922929614
100
AcDbArc
 50
93.85808594505291
 51
122.2518233885153
  0
ARC
  5
8E
330
2
100
AcDbEntity
  8
0
100
AcDbCircle
 10
1.676988878756845
 20
3.502096089879952
 30
0.0
 40
0.0519900307039585
100
AcDbArc
 50
96.61474729582088
 51
180.3814122753963
  0
LINE
  5
8F
330
2
100
AcDbEntity
  8
0
100
AcDbLine
 10
1.998840000000001
 20
3.53125
 30
0.0
 11
2.092590000000001
 21
3.65625
 31
0.0
  0
LINE
  5
90
330
2
100
AcDbEntity
  8
0
100
AcDbLine
 10
1.998840000000001
 20
3.53125
 30
0.0
 11
1.905090000000001
 21
3.65625
 31
0.0
  0
LINE
  5
91
330
2
100
AcDbEntity
  8
0
100
AcDbLine
 10
2.686500000000002
 20
2.71875
 30
0.0
 11
2.686500000000002
 21
3.34375
 31
0.0
  0
LINE
  5
92
330
2
100
AcDbEntity
  8
0
100
AcDbLine
 10
2.374500000000001
 20
2.908750000000001
 30
0.0
 11
2.374500000000001
 21
3.028749999999999
 31
0.0
  0
LINE
  5
93
330
2
100
AcDbEntity
  8
0
100
AcDbLine
 10
2.314500000000002
 20
2.96875
 30
0.0
 11
2.4345
 21
2.96875
 31
0.0
  0
CIRCLE
  5
94
330
2
100
AcDbEntity
  8
0
100
AcDbCircle
 10
2.374500000000001
 20
2.96875
 30
0.0
 40
0.0855
  0
ARC
  5
95
330
2
100
AcDbEntity
  8
0
100
AcDbCircle
 10
2.499000000000002
 20
2.71875
 30
0.0
 40
0.1875
100
AcDbArc
 50
329.7973413166037
 51
0.0000000000000254
  0
ARC
  5
96
330
2
100
AcDbEntity
  8
0
100
AcDbCircle
 10
2.499000000000002
 20
3.34375
 30
0.0
 40
0.1875
100
AcDbArc
 50
0.0000000000000254
 51
90.00000000000003
  0
ARC
  5
97
330
2
100
AcDbEntity
  8
0
100
AcDbCircle
 10
2.562000000000001
 20
3.713550000000002
 30
0.0
 40
0.1875
100
AcDbArc
 50
180.0000000000001
 51
250.3666411024315
  0
LINE
  5
98
330
2
100
AcDbEntity
  8
0
100
AcDbLine
 10
5.761751635754649
 20
0.65625
 30
0.0
 11
6.861298784410857
 21
2.499426240467252
 31
0.0
  0
LINE
  5
99
330
2
100
AcDbEntity
  8
0
100
AcDbLine
 10
7.643388149384279
 20
0.854599697506373
 30
0.0
 11
7.886751635754649
 21
1.202158775480015
 31
0.0
  0
LINE
  5
9A
330
2
100
AcDbEntity
  8
0
100
AcDbLine
 10
5.761751635754646
 20
0.0
 30
0.0
 11
7.620782154920406
 21
0.0
 31
0.0
  0
LINE
  5
9B
330
2
100
AcDbEntity
  8
0
  6
HIDDEN
100
AcDbLine
 10
5.761751635754646
 20
0.0625
 30
0.0
 11
7.620782154920406
 21
0.0625
 31
0.0
  0
LINE
  5
9C
330
2
100
AcDbEntity
  8
0
100
AcDbLine
 10
5.761751635754649
 20
0.65625
 30
0.0
 11
5.761751635754646
 21
0.0
 31
0.0
  0
LINE
  5
9D
330
2
100
AcDbEntity
  8
0
100
AcDbLine
 10
7.620782154920406
 20
0.0
 30
0.0
 11
7.620782154920406
 21
0.7829028366059418
 31
0.0
  0
ARC
  5
9E
330
2
100
AcDbEntity
  8
0
100
AcDbCircle
 10
7.745782154920402
 20
0.7829026429624904
 30
0.0
 40
0.125
100
AcDbArc
 50
144.9999999999999
 51
180.0
  0
LINE
  5
9F
330
2
100
AcDbEntity
  8
0
100
AcDbLine
 10
7.511751635754649
 20
3.59375
 30
0.0
 11
7.824251635754649
 21
3.40625
 31
0.0
  0
LINE
  5
A0
330
2
100
AcDbEntity
  8
0
100
AcDbLine
 10
7.824251635754649
 20
3.46875
 30
0.0
 11
7.60284163575465
 21
3.598140000000001
 31
0.0
  0
ARC
  5
A1
330
2
100
AcDbEntity
  8
0
100
AcDbCircle
 10
7.824251635754646
 20
2.781779999999998
 30
0.0
 40
0.156
100
AcDbArc
 50
90.0
 51
270.0
  0
ARC
  5
A9
330
2
100
AcDbEntity
  8
0
100
AcDbCircle
 10
6.762251635754641
 20
3.588550000000005
 30
0.0
 40
0.1875
100
AcDbArc
 50
180.0
 51
250.3666411024315
  0
LINE
  5
AA
330
2
100
AcDbEntity
  8
0
100
AcDbLine
 10
6.886751635754649
 20
2.59375
 30
0.0
 11
6.886751635754649
 21
3.21875
 31
0.0
  0
ARC
  5
AB
330
2
100
AcDbEntity
  8
0
100
AcDbCircle
 10
6.699251635754646
 20
2.59375
 30
0.0
 40
0.1875
100
AcDbArc
 50
329.7973413166036
 51
0.0
  0
ARC
  5
AD
330
2
100
AcDbEntity
  8
0
100
AcDbCircle
 10
6.699251635754646
 20
3.21875
 30
0.0
 40
0.1875
100
AcDbArc
 50
0.0
 51
90.0
  0
LINE
  5
AF
330
2
100
AcDbEntity
  8
0
100
AcDbLine
 10
7.824251635754649
 20
3.40625
 30
0.0
 11
7.824251635754649
 21
3.46875
 31
0.0
  0
LINE
  5
B0
330
2
100
AcDbEntity
  8
0
100
AcDbLine
 10
-2.687000000000001
 20
4.71875
 30
0.0
 11
-2.687000000000001
 21
5.03125
 31
0.0
  0
ARC
  5
B1
330
2
100
AcDbEntity
  8
0
100
AcDbCircle
 10
-2.5625
 20
4.348949999999999
 30
0.0
 40
0.1875
100
AcDbArc
 50
0.0
 51
90.0
  0
CIRCLE
  5
B2
330
2
100
AcDbEntity
  8
0
100
AcDbCircle
 10
-2.375
 20
4.71875
 30
0.0
 40
0.0855
  0
LINE
  5
B3
330
2
100
AcDbEntity
  8
0
100
AcDbLine
 10
-2.315
 20
4.71875
 30
0.0
 11
-2.435000000000001
 21
4.71875
 31
0.0
  0
ARC
  5
B4
330
2
100
AcDbEntity
  8
0
100
AcDbCircle
 10
-2.499499999999999
 20
4.71875
 30
0.0
 40
0.1875
100
AcDbArc
 50
180.0
 51
250.3666411024103
  0
LINE
  5
B5
330
2
100
AcDbEntity
  8
0
100
AcDbLine
 10
-2.375
 20
4.658750000000001
 30
0.0
 11
-2.375
 21
4.778749999999999
 31
0.0
  0
LINE
  5
B6
330
2
100
AcDbEntity
  8
0
100
AcDbLine
 10
-1.99884
 20
3.90625
 30
0.0
 11
-2.09259
 21
4.03125
 31
0.0
  0
LINE
  5
B7
330
2
100
AcDbEntity
  8
0
100
AcDbLine
 10
-1.99884
 20
3.90625
 30
0.0
 11
-1.90509
 21
4.03125
 31
0.0
  0
ARC
  5
B8
330
2
100
AcDbEntity
  8
0
100
AcDbCircle
 10
-1.676988878756845
 20
3.899976089879957
 30
0.0
 40
0.0519900307039585
100
AcDbArc
 50
359.6185877246036
 51
83.38525270417914
  0
ARC
  5
B9
330
2
100
AcDbEntity
  8
0
100
AcDbCircle
 10
-1.676988878756845
 20
4.333283910120066
 30
0.0
 40
0.0519900307039585
100
AcDbArc
 50
276.6147472958209
 51
0.3814122753966671
  0
ARC
  5
BA
330
2
100
AcDbEntity
  8
0
100
AcDbCircle
 10
-1.677636839002005
 20
4.333406465431942
 30
0.0
 40
0.0986370922929614
100
AcDbArc
 50
273.8580859450529
 51
302.2518233885159
  0
ARC
  5
BB
330
2
100
AcDbEntity
  8
0
100
AcDbCircle
 10
-1.677636839002005
 20
3.899853534568081
 30
0.0
 40
0.0986370922929614
100
AcDbArc
 50
57.74817661148475
 51
86.14191405494711
  0
LINE
  5
BE
330
2
100
AcDbEntity
  8
0
100
AcDbLine
 10
-2.09259
 20
4.40625
 30
0.0
 11
-1.90509
 21
4.40625
 31
0.0
  0
LINE
  5
BF
330
2
100
AcDbEntity
  8
0
100
AcDbLine
 10
-1.5625
 20
5.03125
 30
0.0
 11
-2.6875
 21
5.03125
 31
0.0
  0
LINE
  5
C0
330
2
100
AcDbEntity
  8
0
100
AcDbLine
 10
2.6875
 20
5.03125
 30
0.0
 11
2.686500000000002
 21
4.71875
 31
0.0
  0
ARC
  5
C1
330
2
100
AcDbEntity
  8
0
100
AcDbCircle
 10
1.676988878756845
 20
3.935403910120062
 30
0.0
 40
0.0519900307039585
100
AcDbArc
 50
179.6185877246033
 51
263.3852527041792
  0
ARC
  5
C2
330
2
100
AcDbEntity
  8
0
100
AcDbCircle
 10
1.677636839002005
 20
3.935526465431938
 30
0.0
 40
0.0986370922929614
100
AcDbArc
 50
237.7481766114842
 51
266.1419140549471
  0
LINE
  5
C3
330
2
100
AcDbEntity
  8
0
100
AcDbLine
 10
1.998840000000001
 20
3.90625
 30
0.0
 11
1.905090000000001
 21
4.03125
 31
0.0
  0
LINE
  5
C4
330
2
100
AcDbEntity
  8
0
100
AcDbLine
 10
1.998840000000001
 20
3.90625
 30
0.0
 11
2.092590000000001
 21
4.03125
 31
0.0
  0
LINE
  5
C5
330
2
100
AcDbEntity
  8
0
100
AcDbLine
 10
2.092590000000001
 20
4.40625
 30
0.0
 11
1.905090000000001
 21
4.40625
 31
0.0
  0
ARC
  5
C6
330
2
100
AcDbEntity
  8
0
100
AcDbCircle
 10
2.562000000000001
 20
4.348949999999999
 30
0.0
 40
0.1875
100
AcDbArc
 50
90.00000000000003
 51
180.0000000000001
  0
ARC
  5
C7
330
2
100
AcDbEntity
  8
0
100
AcDbCircle
 10
2.499000000000002
 20
4.71875
 30
0.0
 40
0.1875
100
AcDbArc
 50
289.6333588975897
 51
0.0000000000000254
  0
LINE
  5
C8
330
2
100
AcDbEntity
  8
0
100
AcDbLine
 10
2.374500000000001
 20
4.658750000000001
 30
0.0
 11
2.374500000000001
 21
4.778749999999999
 31
0.0
  0
LINE
  5
C9
330
2
100
AcDbEntity
  8
0
100
AcDbLine
 10
2.314500000000002
 20
4.71875
 30
0.0
 11
2.4345
 21
4.71875
 31
0.0
  0
CIRCLE
  5
CA
330
2
100
AcDbEntity
  8
0
100
AcDbCircle
 10
2.374500000000001
 20
4.71875
 30
0.0
 40
0.0855
  0
LINE
  5
CB
330
2
100
AcDbEntity
  8
0
100
AcDbLine
 10
1.5625
 20
5.03125
 30
0.0
 11
2.6875
 21
5.03125
 31
0.0
  0
ARC
  5
CC
330
2
100
AcDbEntity
  8
0
100
AcDbCircle
 10
1.0625
 20
12.83073134513043
 30
0.0
 40
0.125
100
AcDbArc
 50
180.0
 51
0.0
  0
ARC
  5
CD
330
2
100
AcDbEntity
  8
0
100
AcDbCircle
 10
1.0625
 20
10.83073134513043
 30
0.0
 40
0.125
100
AcDbArc
 50
0.0
 51
180.0
  0
LINE
  5
CE
330
2
100
AcDbEntity
  8
0
100
AcDbLine
 10
-1.625
 20
12.97170082596466
 30
0.0
 11
-1.625
 21
10.83073134513043
 31
0.0
  0
LINE
  5
CF
330
2
100
AcDbEntity
  8
0
100
AcDbLine
 10
-1.1875
 20
10.83073134513043
 30
0.0
 11
-1.625
 21
10.83073134513043
 31
0.0
  0
LINE
  5
D0
330
2
100
AcDbEntity
  8
0
100
AcDbLine
 10
-0.9375
 20
10.83073134513043
 30
0.0
 11
0.9375
 21
10.83073134513043
 31
0.0
  0
ARC
  5
D1
330
2
100
AcDbEntity
  8
0
100
AcDbCircle
 10
-1.0625
 20
10.83073134513043
 30
0.0
 40
0.125
100
AcDbArc
 50
0.0
 51
180.0
  0
LINE
  5
D2
330
2
100
AcDbEntity
  8
0
100
AcDbLine
 10
-1.1875
 20
12.83073134513043
 30
0.0
 11
-1.5625
 21
12.83073134513043
 31
0.0
  0
ARC
  5
D3
330
2
100
AcDbEntity
  8
0
100
AcDbCircle
 10
-1.689700000000002
 20
12.20605565560592
 30
0.0
 40
0.0647
100
AcDbArc
 50
314.9999999999998
 51
0.0000000000002176
  0
LINE
  5
D4
330
2
100
AcDbEntity
  8
0
100
AcDbLine
 10
-1.767776911934583
 20
11.97142530231664
 30
0.0
 11
-1.800303823869164
 21
12.00395221425123
 31
0.0
  0
LINE
  5
D5
330
2
100
AcDbEntity
  8
0
100
AcDbLine
 10
-1.767776911934583
 20
11.97142530231664
 30
0.0
 11
-1.625
 21
11.89323134513043
 31
0.0
  0
LINE
  5
D6
330
2
100
AcDbEntity
  8
0
100
AcDbLine
 10
-1.800303823869164
 20
12.00395221425123
 30
0.0
 11
-1.643950191257233
 21
12.16030584686315
 31
0.0
  0
LINE
  5
D7
330
2
100
AcDbEntity
  8
0
100
AcDbLine
 10
-1.6555
 20
13.09670082596466
 30
0.0
 11
-2.6875
 21
13.09670082596466
 31
0.0
  0
LINE
  5
D8
330
2
100
AcDbEntity
  8
0
100
AcDbLine
 10
-2.6875
 20
13.03420082596466
 30
0.0
 11
-1.686999999999998
 21
13.03420082596466
 31
0.0
  0
LINE
  5
D9
330
2
100
AcDbEntity
  8
0
100
AcDbLine
 10
-2.6875
 20
13.09670082596466
 30
0.0
 11
-2.6875
 21
13.03420082596466
 31
0.0
  0
LINE
  5
DA
330
2
100
AcDbEntity
  8
0
100
AcDbLine
 10
-1.998840000000001
 20
12.99472082596466
 30
0.0
 11
-1.905090000000001
 21
12.89865082596466
 31
0.0
  0
LINE
  5
DB
330
2
100
AcDbEntity
  8
0
100
AcDbLine
 10
-1.998840000000001
 20
12.99472082596466
 30
0.0
 11
-2.092590000000001
 21
12.89826082596466
 31
0.0
  0
LINE
  5
DC
330
2
100
AcDbEntity
  8
0
100
AcDbLine
 10
-1.905090000000001
 20
12.78420082596466
 30
0.0
 11
-1.905090000000001
 21
13.03420082596466
 31
0.0
  0
LINE
  5
DD
330
2
100
AcDbEntity
  8
0
100
AcDbLine
 10
-2.092590000000001
 20
12.78420082596466
 30
0.0
 11
-2.092590000000001
 21
13.03420082596466
 31
0.0
  0
LINE
  5
DE
330
2
100
AcDbEntity
  8
0
100
AcDbLine
 10
-2.092590000000001
 20
12.78420082596466
 30
0.0
 11
-1.905090000000001
 21
12.78420082596466
 31
0.0
  0
LINE
  5
DF
330
2
100
AcDbEntity
  8
0
100
AcDbLine
 10
-1.5625
 20
12.97170082596466
 30
0.0
 11
-1.5625
 21
10.83073134513043
 31
0.0
  0
ARC
  5
E0
330
2
100
AcDbEntity
  8
0
100
AcDbCircle
 10
-1.67201
 20
12.98719082596466
 30
0.0
 40
0.110749
100
AcDbArc
 50
8.573899999999989
 51
81.42610000000003
  0
ARC
  5
E1
330
2
100
AcDbEntity
  8
0
100
AcDbCircle
 10
-1.686999999999998
 20
12.97220082596466
 30
0.0
 40
0.062
100
AcDbArc
 50
0.0
 51
90.00000000000003
  0
LINE
  5
E2
330
2
100
AcDbEntity
  8
0
100
AcDbLine
 10
-1.5625
 20
12.97170082596466
 30
0.0
 11
-1.5625
 21
13.00370082596465
 31
0.0
  0
LINE
  5
E3
330
2
100
AcDbEntity
  8
0
100
AcDbLine
 10
0.9375
 20
12.83073134513043
 30
0.0
 11
-0.9375
 21
12.83073134513043
 31
0.0
  0
ARC
  5
E4
330
2
100
AcDbEntity
  8
0
100
AcDbCircle
 10
-1.0625
 20
12.83073134513043
 30
0.0
 40
0.125
100
AcDbArc
 50
180.0
 51
0.0
  0
LINE
  5
E5
330
2
100
AcDbEntity
  8
0
100
AcDbLine
 10
1.625
 20
10.83073134513043
 30
0.0
 11
1.625000000000002
 21
12.97220082596466
 31
0.0
  0
LINE
  5
E6
330
2
100
AcDbEntity
  8
0
100
AcDbLine
 10
1.625
 20
10.83073134513043
 30
0.0
 11
1.1875
 21
10.83073134513043
 31
0.0
  0
ARC
  5
E7
330
2
100
AcDbEntity
  8
0
100
AcDbCircle
 10
1.689700000000002
 20
12.20605565560592
 30
0.0
 40
0.0647
100
AcDbArc
 50
179.9999999999998
 51
225.0000000000001
  0
LINE
  5
E8
330
2
100
AcDbEntity
  8
0
100
AcDbLine
 10
1.767776911934583
 20
11.97142530231664
 30
0.0
 11
1.800303823869164
 21
12.00395221425123
 31
0.0
  0
LINE
  5
E9
330
2
100
AcDbEntity
  8
0
100
AcDbLine
 10
1.767776911934583
 20
11.97142530231664
 30
0.0
 11
1.625000000000002
 21
11.89323134513043
 31
0.0
  0
LINE
  5
EA
330
2
100
AcDbEntity
  8
0
100
AcDbLine
 10
1.800303823869164
 20
12.00395221425123
 30
0.0
 11
1.643950191257234
 21
12.16030584686315
 31
0.0
  0
LINE
  5
EB
330
2
100
AcDbEntity
  8
0
100
AcDbLine
 10
1.6555
 20
13.09670082596466
 30
0.0
 11
2.90625
 21
13.09670082596466
 31
0.0
  0
LINE
  5
EC
330
2
100
AcDbEntity
  8
0
100
AcDbLine
 10
2.90625
 20
13.03420082596466
 30
0.0
 11
1.687000000000001
 21
13.03420082596466
 31
0.0
  0
ARC
  5
ED
330
2
100
AcDbEntity
  8
0
100
AcDbCircle
 10
1.67201
 20
12.98719082596466
 30
0.0
 40
0.110749
100
AcDbArc
 50
98.5739
 51
171.4261
  0
LINE
  5
EE
330
2
100
AcDbEntity
  8
0
100
AcDbLine
 10
1.1875
 20
12.83073134513043
 30
0.0
 11
1.5625
 21
12.83073134513043
 31
0.0
  0
LINE
  5
EF
330
2
100
AcDbEntity
  8
0
100
AcDbLine
 10
1.5625
 20
12.97170082596466
 30
0.0
 11
1.5625
 21
10.83073134513043
 31
0.0
  0
LINE
  5
F0
330
2
100
AcDbEntity
  8
0
100
AcDbLine
 10
1.5625
 20
12.97170082596466
 30
0.0
 11
1.5625
 21
13.00370082596465
 31
0.0
  0
LINE
  5
F1
330
2
100
AcDbEntity
  8
0
100
AcDbLine
 10
1.905090000000001
 20
12.78420082596466
 30
0.0
 11
1.905090000000001
 21
13.03420082596466
 31
0.0
  0
LINE
  5
F2
330
2
100
AcDbEntity
  8
0
100
AcDbLine
 10
2.092589999999998
 20
12.78420082596466
 30
0.0
 11
2.092589999999998
 21
13.03420082596466
 31
0.0
  0
LINE
  5
F3
330
2
100
AcDbEntity
  8
0
100
AcDbLine
 10
1.998840000000001
 20
12.99472082596466
 30
0.0
 11
1.905090000000001
 21
12.89826082596466
 31
0.0
  0
LINE
  5
F4
330
2
100
AcDbEntity
  8
0
100
AcDbLine
 10
1.998840000000001
 20
12.99472082596466
 30
0.0
 11
2.092589999999998
 21
12.89865082596466
 31
0.0
  0
ARC
  5
F5
330
2
100
AcDbEntity
  8
0
100
AcDbCircle
 10
1.687000000000001
 20
12.97220082596466
 30
0.0
 40
0.062
100
AcDbArc
 50
90.00000000000003
 51
180.0
  0
LINE
  5
F6
330
2
100
AcDbEntity
  8
0
100
AcDbLine
 10
1.905090000000001
 20
12.78420082596466
 30
0.0
 11
2.092589999999998
 21
12.78420082596466
 31
0.0
  0
LINE
  5
F7
330
2
100
AcDbEntity
  8
0
100
AcDbLine
 10
2.90625
 20
13.09670082596466
 30
0.0
 11
2.90625
 21
13.03420082596466
 31
0.0
  0
LINE
  5
F8
330
2
100
AcDbEntity
  8
0
100
AcDbLine
 10
6.886751635754649
 20
5.03125
 30
0.0
 11
7.886751635754649
 21
5.03125
 31
0.0
  0
LINE
  5
F9
330
2
100
AcDbEntity
  8
0
100
AcDbLine
 10
6.886751635754649
 20
4.71875
 30
0.0
 11
6.886751635754649
 21
5.03125
 31
0.0
  0
LINE
  5
FA
330
2
100
AcDbEntity
  8
0
100
AcDbLine
 10
6.886751635754646
 20
4.59375
 30
0.0
 11
6.886751635754649
 21
5.03125
 31
0.0
  0
ARC
  5
FB
330
2
100
AcDbEntity
  8
0
100
AcDbCircle
 10
6.762251635754641
 20
4.223950000000002
 30
0.0
 40
0.1875
100
AcDbArc
 50
90.0
 51
180.0
  0
ARC
  5
100
330
2
100
AcDbEntity
  8
0
100
AcDbCircle
 10
6.699251635754646
 20
4.59375
 30
0.0
 40
0.1875
100
AcDbArc
 50
289.6333588975897
 51
0.0
  0
ARC
  5
107
330
2
100
AcDbEntity
  8
0
100
AcDbCircle
 10
-7.097949984858172
 20
3.99785209504628
 30
0.0
 40
0.0734255263791788
100
AcDbArc
 50
237.3920789848133
 51
270.0000000000083
  0
ARC
  5
108
330
2
100
AcDbEntity
  8
0
100
AcDbCircle
 10
-7.068079389890654
 20
4.044545219350727
 30
0.0
 40
0.1288556653021872
100
AcDbArc
 50
212.9226719024485
 51
237.392078984804
  0
ARC
  5
109
330
2
100
AcDbEntity
  8
0
100
AcDbCircle
 10
-7.020615999595701
 20
4.075277311893903
 30
0.0
 40
0.185399762521732
100
AcDbArc
 50
195.0133710020058
 51
212.9226719024582
  0
ARC
  5
10A
330
2
100
AcDbEntity
  8
0
100
AcDbCircle
 10
-6.945488083778688
 20
4.095426568667079
 30
0.0
 40
0.2631827702002704
100
AcDbArc
 50
179.9999999999969
 51
195.0133710019941
  0
ARC
  5
10B
330
2
100
AcDbEntity
  8
0
100
AcDbCircle
 10
-6.945488083778694
 20
4.095426568667111
 30
0.0
 40
0.263182770200264
100
AcDbArc
 50
164.9866289980064
 51
180.0000000000039
  0
ARC
  5
10C
330
2
100
AcDbEntity
  8
0
100
AcDbCircle
 10
-7.020615999595707
 20
4.115575825440288
 30
0.0
 40
0.1853997625217251
100
AcDbArc
 50
147.0773280975416
 51
164.9866289979947
  0
ARC
  5
10D
330
2
100
AcDbEntity
  8
0
100
AcDbCircle
 10
-7.068079389890651
 20
4.14630791798346
 30
0.0
 40
0.1288556653021893
100
AcDbArc
 50
122.607921015197
 51
147.0773280975521
  0
ARC
  5
10E
330
2
100
AcDbEntity
  8
0
100
AcDbCircle
 10
-7.097949984858158
 20
4.193001042287907
 30
0.0
 40
0.0734255263791857
100
AcDbArc
 50
90.00000000000208
 51
122.6079210151955
  0
ARC
  5
125
330
2
100
AcDbEntity
  8
0
100
AcDbCircle
 10
-7.13080015597434
 20
4.213507278157412
 30
0.0
 40
0.3304548456263149
100
AcDbArc
 50
235.2517244545765
 51
244.668920742142
  0
ARC
  5
126
330
2
100
AcDbEntity
  8
0
100
AcDbCircle
 10
-7.18099036267182
 20
4.141153744503935
 30
0.0
 40
0.2423975308791539
100
AcDbArc
 50
230.4363921703664
 51
235.2517244545537
  0
ARC
  5
127
330
2
100
AcDbEntity
  8
0
100
AcDbCircle
 10
-7.097949984858161
 20
4.327835667078325
 30
0.0
 40
0.4494090984112305
100
AcDbArc
 50
255.6955204934708
 51
270.0
  0
ARC
  5
128
330
2
100
AcDbEntity
  8
0
100
AcDbCircle
 10
-7.180990362671803
 20
4.049699392830313
 30
0.0
 40
0.242397530879118
100
AcDbArc
 50
124.7482755454591
 51
129.5636078296458
  0
ARC
  5
129
330
2
100
AcDbEntity
  8
0
100
AcDbCircle
 10
-7.130800155974304
 20
3.977345859176744
 30
0.0
 40
0.3304548456263654
100
AcDbArc
 50
115.3310792578606
 51
124.7482755454265
  0
ARC
  5
12A
330
2
100
AcDbEntity
  8
0
100
AcDbCircle
 10
-7.25756929426367
 20
4.095426568667122
 30
0.0
 40
0.1532050010699973
100
AcDbArc
 50
180.0000000000106
 51
203.0157918004584
  0
ARC
  5
12B
330
2
100
AcDbEntity
  8
0
100
AcDbCircle
 10
-7.257569294263667
 20
4.095426568667065
 30
0.0
 40
0.1532050010699999
100
AcDbArc
 50
156.984208199542
 51
179.9999999999894
  0
ARC
  5
12C
330
2
100
AcDbEntity
  8
0
100
AcDbCircle
 10
-7.097949984858105
 20
3.863017470255873
 30
0.0
 40
0.449409098411234
100
AcDbArc
 50
90.00000000000713
 51
104.3044795065365
  0
ARC
  5
12D
330
2
100
AcDbEntity
  8
0
100
AcDbCircle
 10
-7.09794998485816
 20
4.020706177487618
 30
0.0
 40
0.0502796088205244
100
AcDbArc
 50
236.4891770443282
 51
269.999999999999
  0
ARC
  5
12E
330
2
100
AcDbEntity
  8
0
100
AcDbCircle
 10
-7.07430289691496
 20
4.056418371392926
 30
0.0
 40
0.0931112041880074
100
AcDbArc
 50
212.0281066666093
 51
236.4891770443309
  0
ARC
  5
12F
330
2
100
AcDbEntity
  8
0
100
AcDbCircle
 10
-7.036650464720924
 20
4.079971912760414
 30
0.0
 40
0.1375237582811512
100
AcDbArc
 50
194.5265478167946
 51
212.0281066666053
  0
ARC
  5
130
330
2
100
AcDbEntity
  8
0
100
AcDbCircle
 10
-6.977005766405479
 20
4.095426568667104
 30
0.0
 40
0.1991381756388982
100
AcDbArc
 50
180.0000000000031
 51
194.5265478168002
  0
ARC
  5
131
330
2
100
AcDbEntity
  8
0
100
AcDbCircle
 10
-6.97700576640545
 20
4.09542656866709
 30
0.0
 40
0.1991381756389261
100
AcDbArc
 50
165.4734521832019
 51
179.999999999999
  0
ARC
  5
132
330
2
100
AcDbEntity
  8
0
100
AcDbCircle
 10
-7.036650464720956
 20
4.110881224573785
 30
0.0
 40
0.1375237582811191
100
AcDbArc
 50
147.9718933333914
 51
165.4734521832035
  0
ARC
  5
133
330
2
100
AcDbEntity
  8
0
100
AcDbCircle
 10
-7.07430289691496
 20
4.134434765941261
 30
0.0
 40
0.0931112041880077
100
AcDbArc
 50
123.5108229556691
 51
147.9718933333907
  0
ARC
  5
134
330
2
100
AcDbEntity
  8
0
100
AcDbCircle
 10
-7.09794998485816
 20
4.170146959846566
 30
0.0
 40
0.0502796088205275
100
AcDbArc
 50
90.00000000000101
 51
123.5108229556696
  0
ARC
  5
135
330
2
100
AcDbEntity
  8
0
100
AcDbCircle
 10
1.624999999999993
 20
3.681024298837517
 30
0.0
 40
0.1627257011624917
100
AcDbArc
 50
70.06730295363376
 51
73.57952268568424
  0
ARC
  5
136
330
2
100
AcDbEntity
  8
0
100
AcDbCircle
 10
1.631684477804658
 20
3.69945709168714
 30
0.0
 40
0.1431183021570608
100
AcDbArc
 50
48.79812301596765
 51
70.06730295364395
  0
ARC
  5
137
330
2
100
AcDbEntity
  8
0
100
AcDbCircle
 10
1.641978162061973
 20
3.711214695292632
 30
0.0
 40
0.1274913645769336
100
AcDbArc
 50
25.3198173858117
 51
48.79812301597369
  0
ARC
  5
138
330
2
100
AcDbEntity
  8
0
100
AcDbCircle
 10
1.657904962283565
 20
3.718750000000011
 30
0.0
 40
0.1098719496510183
100
AcDbArc
 50
359.9999999999963
 51
25.31981738580065
  0
ARC
  5
139
330
2
100
AcDbEntity
  8
0
100
AcDbCircle
 10
1.657904962283579
 20
3.718749999999996
 30
0.0
 40
0.1098719496510032
100
AcDbArc
 50
334.6801826141995
 51
0.0000000000037053
  0
ARC
  5
13A
330
2
100
AcDbEntity
  8
0
100
AcDbCircle
 10
1.641978162061955
 20
3.726285304707378
 30
0.0
 40
0.1274913645769478
100
AcDbArc
 50
311.2018769840313
 51
334.6801826141931
  0
ARC
  5
13B
330
2
100
AcDbEntity
  8
0
100
AcDbCircle
 10
1.631684477804658
 20
3.73804290831286
 30
0.0
 40
0.1431183021570547
100
AcDbArc
 50
289.932697046357
 51
311.2018769840342
  0
ARC
  5
13C
330
2
100
AcDbEntity
  8
0
100
AcDbCircle
 10
1.624999999999993
 20
3.75647570116249
 30
0.0
 40
0.1627257011624917
100
AcDbArc
 50
286.4204773143158
 51
289.9326970463663
  0
ARC
  5
13D
330
2
100
AcDbEntity
  8
0
100
AcDbCircle
 10
1.624999999999996
 20
3.710128177159266
 30
0.0
 40
0.1796218228407433
100
AcDbArc
 50
67.99910740452214
 51
75.1616040065294
  0
ARC
  5
13E
330
2
100
AcDbEntity
  8
0
100
AcDbCircle
 10
1.626695882090488
 20
3.714325444365453
 30
0.0
 40
0.1750948958405604
100
AcDbArc
 50
45.71202866424729
 51
67.99910740452631
  0
ARC
  5
13F
330
2
100
AcDbEntity
  8
0
100
AcDbCircle
 10
1.629320116518768
 20
3.717015726997069
 30
0.0
 40
0.1713366745894175
100
AcDbArc
 50
23.00795686990632
 51
45.71202866424785
  0
ARC
  5
140
330
2
100
AcDbEntity
  8
0
100
AcDbCircle
 10
1.633404230649155
 20
3.718750000000011
 30
0.0
 40
0.1668995932200081
100
AcDbArc
 50
359.9999999999976
 51
23.00795686990271
  0
ARC
  5
141
330
2
100
AcDbEntity
  8
0
100
AcDbCircle
 10
1.633404230649161
 20
3.718749999999996
 30
0.0
 40
0.1668995932200037
100
AcDbArc
 50
336.9920431300965
 51
0.0000000000024393
  0
ARC
  5
142
330
2
100
AcDbEntity
  8
0
100
AcDbCircle
 10
1.629320116518768
 20
3.720484273002942
 30
0.0
 40
0.1713366745894194
100
AcDbArc
 50
314.2879713357513
 51
336.9920431300926
  0
ARC
  5
143
330
2
100
AcDbEntity
  8
0
100
AcDbCircle
 10
1.626695882090486
 20
3.723174555634557
 30
0.0
 40
0.1750948958405643
100
AcDbArc
 50
292.0008925954738
 51
314.2879713357523
  0
ARC
  5
144
330
2
100
AcDbEntity
  8
0
100
AcDbCircle
 10
1.625000000000055
 20
3.727371822840738
 30
0.0
 40
0.1796218228407181
100
AcDbArc
 50
284.8383959934534
 51
292.0008925954609
  0
ARC
  5
145
330
2
100
AcDbEntity
  8
0
100
AcDbCircle
 10
-1.624999999999993
 20
1.595909147644601
 30
0.0
 40
0.1627257011624917
100
AcDbArc
 50
106.4204773143158
 51
109.9326970463662
  0
ARC
  5
146
330
2
100
AcDbEntity
  8
0
100
AcDbCircle
 10
-1.631684477804658
 20
1.614341940494224
 30
0.0
 40
0.1431183021570608
100
AcDbArc
 50
109.9326970463561
 51
131.2018769840323
  0
ARC
  5
147
330
2
100
AcDbEntity
  8
0
100
AcDbCircle
 10
-1.641978162061973
 20
1.626099544099716
 30
0.0
 40
0.1274913645769336
100
AcDbArc
 50
131.2018769840263
 51
154.6801826141883
  0
ARC
  5
148
330
2
100
AcDbEntity
  8
0
100
AcDbCircle
 10
-1.657904962283565
 20
1.633634848807095
 30
0.0
 40
0.1098719496510183
100
AcDbArc
 50
154.6801826141994
 51
180.0000000000037
  0
ARC
  5
149
330
2
100
AcDbEntity
  8
0
100
AcDbCircle
 10
-1.657904962283579
 20
1.63363484880708
 30
0.0
 40
0.1098719496510032
100
AcDbArc
 50
179.9999999999963
 51
205.3198173858004
  0
ARC
  5
14A
330
2
100
AcDbEntity
  8
0
100
AcDbCircle
 10
-1.641978162061955
 20
1.641170153514462
 30
0.0
 40
0.1274913645769478
100
AcDbArc
 50
205.3198173858069
 51
228.7981230159687
  0
ARC
  5
14B
330
2
100
AcDbEntity
  8
0
100
AcDbCircle
 10
-1.631684477804658
 20
1.652927757119944
 30
0.0
 40
0.1431183021570547
100
AcDbArc
 50
228.7981230159658
 51
250.067302953643
  0
ARC
  5
14C
330
2
100
AcDbEntity
  8
0
100
AcDbCircle
 10
-1.624999999999993
 20
1.671360549969574
 30
0.0
 40
0.1627257011624917
100
AcDbArc
 50
250.0673029536338
 51
253.5795226856842
  0
ARC
  5
14D
330
2
100
AcDbEntity
  8
0
100
AcDbCircle
 10
-1.624999999999996
 20
1.62501302596635
 30
0.0
 40
0.1796218228407433
100
AcDbArc
 50
104.8383959934706
 51
112.0008925954779
  0
ARC
  5
14E
330
2
100
AcDbEntity
  8
0
100
AcDbCircle
 10
-1.626695882090488
 20
1.629210293172537
 30
0.0
 40
0.1750948958405604
100
AcDbArc
 50
112.0008925954737
 51
134.2879713357527
  0
ARC
  5
14F
330
2
100
AcDbEntity
  8
0
100
AcDbCircle
 10
-1.629320116518768
 20
1.631900575804153
 30
0.0
 40
0.1713366745894175
100
AcDbArc
 50
134.2879713357522
 51
156.9920431300937
  0
ARC
  5
150
330
2
100
AcDbEntity
  8
0
100
AcDbCircle
 10
-1.633404230649155
 20
1.633634848807095
 30
0.0
 40
0.1668995932200081
100
AcDbArc
 50
156.9920431300973
 51
180.0000000000024
  0
ARC
  5
151
330
2
100
AcDbEntity
  8
0
100
AcDbCircle
 10
-1.633404230649161
 20
1.63363484880708
 30
0.0
 40
0.1668995932200037
100
AcDbArc
 50
179.9999999999976
 51
203.0079568699034
  0
ARC
  5
152
330
2
100
AcDbEntity
  8
0
100
AcDbCircle
 10
-1.629320116518768
 20
1.635369121810026
 30
0.0
 40
0.1713366745894194
100
AcDbArc
 50
203.0079568699074
 51
225.7120286642487
  0
ARC
  5
153
330
2
100
AcDbEntity
  8
0
100
AcDbCircle
 10
-1.626695882090486
 20
1.638059404441641
 30
0.0
 40
0.1750948958405643
100
AcDbArc
 50
225.7120286642477
 51
247.9991074045262
  0
ARC
  5
154
330
2
100
AcDbEntity
  8
0
100
AcDbCircle
 10
-1.625000000000055
 20
1.642256671647822
 30
0.0
 40
0.1796218228407181
100
AcDbArc
 50
247.9991074045391
 51
255.1616040065466
  0
ARC
  5
155
330
2
100
AcDbEntity
  8
0
100
AcDbCircle
 10
1.624999999999993
 20
1.99352429883751
 30
0.0
 40
0.1627257011624951
100
AcDbArc
 50
70.0673029536342
 51
73.57952268568459
  0
ARC
  5
156
330
2
100
AcDbEntity
  8
0
100
AcDbCircle
 10
1.631684477804658
 20
2.01195709168714
 30
0.0
 40
0.1431183021570574
100
AcDbArc
 50
48.79812301596672
 51
70.06730295364346
  0
ARC
  5
157
330
2
100
AcDbEntity
  8
0
100
AcDbCircle
 10
1.641978162061973
 20
2.023714695292629
 30
0.0
 40
0.1274913645769336
100
AcDbArc
 50
25.3198173858117
 51
48.79812301597369
  0
ARC
  5
158
330
2
100
AcDbEntity
  8
0
100
AcDbCircle
 10
1.657904962283565
 20
2.031250000000011
 30
0.0
 40
0.1098719496510168
100
AcDbArc
 50
359.9999999999944
 51
25.31981738579897
  0
ARC
  5
159
330
2
100
AcDbEntity
  8
0
100
AcDbCircle
 10
1.657904962283579
 20
2.031249999999996
 30
0.0
 40
0.1098719496510032
100
AcDbArc
 50
334.6801826141979
 51
0.0000000000018527
  0
ARC
  5
15A
330
2
100
AcDbEntity
  8
0
100
AcDbCircle
 10
1.641978162061955
 20
2.038785304707371
 30
0.0
 40
0.1274913645769462
100
AcDbArc
 50
311.2018769840324
 51
334.6801826141946
  0
ARC
  5
15B
330
2
100
AcDbEntity
  8
0
100
AcDbCircle
 10
1.631684477804658
 20
2.05054290831286
 30
0.0
 40
0.1431183021570573
100
AcDbArc
 50
289.9326970463566
 51
311.2018769840333
  0
ARC
  5
15C
330
2
100
AcDbEntity
  8
0
100
AcDbCircle
 10
1.624999999999993
 20
2.06897570116249
 30
0.0
 40
0.1627257011624951
100
AcDbArc
 50
286.4204773143154
 51
289.9326970463658
  0
ARC
  5
15D
330
2
100
AcDbEntity
  8
0
100
AcDbCircle
 10
1.624999999999996
 20
2.022628177159263
 30
0.0
 40
0.1796218228407433
100
AcDbArc
 50
67.99910740452214
 51
75.1616040065294
  0
ARC
  5
15E
330
2
100
AcDbEntity
  8
0
100
AcDbCircle
 10
1.626695882090488
 20
2.02682544436545
 30
0.0
 40
0.1750948958405604
100
AcDbArc
 50
45.71202866424729
 51
67.99910740452631
  0
ARC
  5
15F
330
2
100
AcDbEntity
  8
0
100
AcDbCircle
 10
1.629320116518768
 20
2.029515726997065
 30
0.0
 40
0.1713366745894175
100
AcDbArc
 50
23.00795686990632
 51
45.71202866424785
  0
ARC
  5
160
330
2
100
AcDbEntity
  8
0
100
AcDbCircle
 10
1.633404230649155
 20
2.031250000000004
 30
0.0
 40
0.1668995932200094
100
AcDbArc
 50
359.9999999999988
 51
23.00795686990384
  0
ARC
  5
161
330
2
100
AcDbEntity
  8
0
100
AcDbCircle
 10
1.633404230649161
 20
2.031249999999996
 30
0.0
 40
0.1668995932200037
100
AcDbArc
 50
336.9920431300955
 51
0.0000000000012196
  0
ARC
  5
162
330
2
100
AcDbEntity
  8
0
100
AcDbCircle
 10
1.629320116518768
 20
2.032984273002935
 30
0.0
 40
0.171336674589418
100
AcDbArc
 50
314.2879713357522
 51
336.9920431300936
  0
ARC
  5
163
330
2
100
AcDbEntity
  8
0
100
AcDbCircle
 10
1.626695882090486
 20
2.035674555634554
 30
0.0
 40
0.1750948958405643
100
AcDbArc
 50
292.0008925954738
 51
314.2879713357523
  0
ARC
  5
164
330
2
100
AcDbEntity
  8
0
100
AcDbCircle
 10
1.625000000000055
 20
2.039871822840734
 30
0.0
 40
0.1796218228407181
100
AcDbArc
 50
284.8383959934534
 51
292.0008925954609
  0
ARC
  5
165
330
2
100
AcDbEntity
  8
0
100
AcDbCircle
 10
-1.624999999999993
 20
4.078904298837518
 30
0.0
 40
0.1627257011624951
100
AcDbArc
 50
106.4204773143154
 51
109.9326970463658
  0
ARC
  5
166
330
2
100
AcDbEntity
  8
0
100
AcDbCircle
 10
-1.631684477804658
 20
4.097337091687148
 30
0.0
 40
0.1431183021570574
100
AcDbArc
 50
109.9326970463565
 51
131.2018769840333
  0
ARC
  5
167
330
2
100
AcDbEntity
  8
0
100
AcDbCircle
 10
-1.641978162061973
 20
4.109094695292637
 30
0.0
 40
0.1274913645769336
100
AcDbArc
 50
131.2018769840263
 51
154.6801826141883
  0
ARC
  5
168
330
2
100
AcDbEntity
  8
0
100
AcDbCircle
 10
-1.657904962283565
 20
4.116630000000018
 30
0.0
 40
0.1098719496510168
100
AcDbArc
 50
154.680182614201
 51
180.0000000000055
  0
ARC
  5
169
330
2
100
AcDbEntity
  8
0
100
AcDbCircle
 10
-1.657904962283579
 20
4.116630000000004
 30
0.0
 40
0.1098719496510032
100
AcDbArc
 50
179.9999999999982
 51
205.3198173858021
  0
ARC
  5
16A
330
2
100
AcDbEntity
  8
0
100
AcDbCircle
 10
-1.641978162061955
 20
4.124165304707379
 30
0.0
 40
0.1274913645769462
100
AcDbArc
 50
205.3198173858054
 51
228.7981230159677
  0
ARC
  5
16B
330
2
100
AcDbEntity
  8
0
100
AcDbCircle
 10
-1.631684477804658
 20
4.135922908312868
 30
0.0
 40
0.1431183021570573
100
AcDbArc
 50
228.7981230159667
 51
250.0673029536435
  0
ARC
  5
16C
330
2
100
AcDbEntity
  8
0
100
AcDbCircle
 10
-1.624999999999993
 20
4.154355701162498
 30
0.0
 40
0.1627257011624951
100
AcDbArc
 50
250.0673029536342
 51
253.5795226856846
  0
ARC
  5
16D
330
2
100
AcDbEntity
  8
0
100
AcDbCircle
 10
-1.624999999999996
 20
4.10800817715927
 30
0.0
 40
0.1796218228407433
100
AcDbArc
 50
104.8383959934706
 51
112.0008925954779
  0
ARC
  5
16E
330
2
100
AcDbEntity
  8
0
100
AcDbCircle
 10
-1.626695882090488
 20
4.112205444365458
 30
0.0
 40
0.1750948958405604
100
AcDbArc
 50
112.0008925954737
 51
134.2879713357527
  0
ARC
  5
16F
330
2
100
AcDbEntity
  8
0
100
AcDbCircle
 10
-1.629320116518768
 20
4.114895726997073
 30
0.0
 40
0.1713366745894175
100
AcDbArc
 50
134.2879713357522
 51
156.9920431300937
  0
ARC
  5
170
330
2
100
AcDbEntity
  8
0
100
AcDbCircle
 10
-1.633404230649155
 20
4.116630000000011
 30
0.0
 40
0.1668995932200094
100
AcDbArc
 50
156.9920431300962
 51
180.0000000000013
  0
ARC
  5
171
330
2
100
AcDbEntity
  8
0
100
AcDbCircle
 10
-1.633404230649161
 20
4.116630000000004
 30
0.0
 40
0.1668995932200037
100
AcDbArc
 50
179.9999999999988
 51
203.0079568699046
  0
ARC
  5
172
330
2
100
AcDbEntity
  8
0
100
AcDbCircle
 10
-1.629320116518768
 20
4.118364273002943
 30
0.0
 40
0.171336674589418
100
AcDbArc
 50
203.0079568699063
 51
225.7120286642478
  0
ARC
  5
173
330
2
100
AcDbEntity
  8
0
100
AcDbCircle
 10
-1.626695882090486
 20
4.121054555634562
 30
0.0
 40
0.1750948958405643
100
AcDbArc
 50
225.7120286642477
 51
247.9991074045262
  0
ARC
  5
174
330
2
100
AcDbEntity
  8
0
100
AcDbCircle
 10
-1.625000000000055
 20
4.125251822840742
 30
0.0
 40
0.1796218228407181
100
AcDbArc
 50
247.9991074045391
 51
255.1616040065466
  0
ARC
  5
175
330
2
100
AcDbEntity
  8
0
100
AcDbCircle
 10
6.82425163575466
 20
3.652375526379185
 30
0.0
 40
0.0734255263791788
100
AcDbArc
 50
269.9999999999917
 51
302.6079210151868
  0
ARC
  5
176
330
2
100
AcDbEntity
  8
0
100
AcDbCircle
 10
6.794381040787144
 20
3.699068650683632
 30
0.0
 40
0.1288556653021863
100
AcDbArc
 50
302.6079210151953
 51
327.0773280975511
  0
ARC
  5
177
330
2
100
AcDbEntity
  8
0
100
AcDbCircle
 10
6.74691765049219
 20
3.729800743226807
 30
0.0
 40
0.1853997625217313
100
AcDbArc
 50
327.0773280975416
 51
344.9866289979941
  0
ARC
  5
178
330
2
100
AcDbEntity
  8
0
100
AcDbCircle
 10
6.671789734675176
 20
3.749949999999984
 30
0.0
 40
0.2631827702002704
100
AcDbArc
 50
344.986628998006
 51
0.0000000000030938
  0
ARC
  5
179
330
2
100
AcDbEntity
  8
0
100
AcDbCircle
 10
6.671789734675183
 20
3.749950000000016
 30
0.0
 40
0.2631827702002632
100
AcDbArc
 50
359.9999999999961
 51
15.01337100199369
  0
ARC
  5
17A
330
2
100
AcDbEntity
  8
0
100
AcDbCircle
 10
6.746917650492197
 20
3.770099256773193
 30
0.0
 40
0.1853997625217234
100
AcDbArc
 50
15.01337100200542
 51
32.92267190245869
  0
ARC
  5
17B
330
2
100
AcDbEntity
  8
0
100
AcDbCircle
 10
6.79438104078714
 20
3.800831349316365
 30
0.0
 40
0.1288556653021885
100
AcDbArc
 50
32.92267190244809
 51
57.39207898480337
  0
ARC
  5
17C
330
2
100
AcDbEntity
  8
0
100
AcDbCircle
 10
6.824251635754646
 20
3.847524473620812
 30
0.0
 40
0.0734255263791862
100
AcDbArc
 50
57.3920789848039
 51
89.99999999999723
  0
ARC
  5
193
330
2
100
AcDbEntity
  8
0
100
AcDbCircle
 10
6.824251635754649
 20
3.98235909841123
 30
0.0
 40
0.4494090984112305
100
AcDbArc
 50
270.0
 51
284.3044795065292
  0
ARC
  5
194
330
2
100
AcDbEntity
  8
0
100
AcDbCircle
 10
6.85710180687083
 20
3.868030709490316
 30
0.0
 40
0.3304548456263142
100
AcDbArc
 50
295.3310792578577
 51
304.7482755454233
  0
ARC
  5
195
330
2
100
AcDbEntity
  8
0
100
AcDbCircle
 10
6.907292013568309
 20
3.79567717583684
 30
0.0
 40
0.2423975308791534
100
AcDbArc
 50
304.7482755454461
 51
309.5636078296334
  0
ARC
  5
196
330
2
100
AcDbEntity
  8
0
100
AcDbCircle
 10
6.824251635754592
 20
3.517540901588777
 30
0.0
 40
0.4494090984112342
100
AcDbArc
 50
75.69552049346343
 51
89.99999999999277
  0
ARC
  5
197
330
2
100
AcDbEntity
  8
0
100
AcDbCircle
 10
6.824251635754649
 20
3.675229608820523
 30
0.0
 40
0.0502796088205244
100
AcDbArc
 50
270.0
 51
303.5108229556709
  0
ARC
  5
198
330
2
100
AcDbEntity
  8
0
100
AcDbCircle
 10
6.800604547811446
 20
3.710941802725831
 30
0.0
 40
0.0931112041880084
100
AcDbArc
 50
303.5108229556701
 51
327.9718933333913
  0
ARC
  5
199
330
2
100
AcDbEntity
  8
0
100
AcDbCircle
 10
6.762952115617413
 20
3.734495344093318
 30
0.0
 40
0.1375237582811504
100
AcDbArc
 50
327.9718933333945
 51
345.4734521832053
  0
ARC
  5
19A
330
2
100
AcDbEntity
  8
0
100
AcDbCircle
 10
6.703307417301968
 20
3.749950000000009
 30
0.0
 40
0.1991381756388974
100
AcDbArc
 50
345.4734521831998
 51
359.9999999999969
  0
ARC
  5
19B
330
2
100
AcDbEntity
  8
0
100
AcDbCircle
 10
6.703307417301939
 20
3.749949999999995
 30
0.0
 40
0.1991381756389252
100
AcDbArc
 50
0.0000000000010222
 51
14.52654781679821
  0
ARC
  5
19C
330
2
100
AcDbEntity
  8
0
100
AcDbCircle
 10
6.762952115617445
 20
3.765404655906689
 30
0.0
 40
0.1375237582811182
100
AcDbArc
 50
14.52654781679661
 51
32.02810666660878
  0
ARC
  5
19D
330
2
100
AcDbEntity
  8
0
100
AcDbCircle
 10
6.800604547811446
 20
3.788958197274166
 30
0.0
 40
0.0931112041880092
100
AcDbArc
 50
32.02810666660869
 51
56.48917704432994
  0
ARC
  5
19E
330
2
100
AcDbEntity
  8
0
100
AcDbCircle
 10
6.824251635754649
 20
3.82467039117947
 30
0.0
 40
0.050279608820527
100
AcDbArc
 50
56.48917704433129
 51
90.0
  0
ARC
  5
19F
330
2
100
AcDbEntity
  8
0
100
AcDbCircle
 10
6.907292013568291
 20
3.704222824163217
 30
0.0
 40
0.242397530879118
100
AcDbArc
 50
50.43639217035425
 51
55.25172445454089
  0
ARC
  5
1A0
330
2
100
AcDbEntity
  8
0
100
AcDbCircle
 10
6.857101806870791
 20
3.631869290509648
 30
0.0
 40
0.3304548456263663
100
AcDbArc
 50
55.25172445457327
 51
64.66892074213908
  0
ARC
  5
1A1
330
2
100
AcDbEntity
  8
0
100
AcDbCircle
 10
6.983870945160156
 20
3.749950000000027
 30
0.0
 40
0.153205001069999
100
AcDbArc
 50
336.9842081995419
 51
359.9999999999894
  0
ARC
  5
1A2
330
2
100
AcDbEntity
  8
0
100
AcDbCircle
 10
6.983870945160156
 20
3.74994999999997
 30
0.0
 40
0.153205001069999
100
AcDbArc
 50
0.0000000000106292
 51
23.01579180045814
  0
LINE
  5
1A9
330
2
100
AcDbEntity
  8
0
100
AcDbLine
 10
6.824251635754648
 20
1.719959973885526
 30
0.0
 11
6.824251635754648
 21
2.220602356611778
 31
0.0
  0
LINE
  5
1AA
330
2
100
AcDbEntity
  8
0
100
AcDbLine
 10
6.824251635754648
 20
1.814249999999998
 30
0.0
 11
6.824251635754648
 21
2.248249999999995
 31
0.0
  0
ARC
  5
1AB
330
2
100
AcDbEntity
  8
0
100
AcDbCircle
 10
6.824251635754659
 20
1.933675526379183
 30
0.0
 40
0.0734255263791788
100
AcDbArc
 50
269.9999999999917
 51
302.6079210151868
  0
ARC
  5
1AC
330
2
100
AcDbEntity
  8
0
100
AcDbCircle
 10
6.794381040787143
 20
1.98036865068363
 30
0.0
 40
0.1288556653021863
100
AcDbArc
 50
302.6079210151953
 51
327.0773280975511
  0
ARC
  5
1AD
330
2
100
AcDbEntity
  8
0
100
AcDbCircle
 10
6.746917650492189
 20
2.011100743226805
 30
0.0
 40
0.1853997625217313
100
AcDbArc
 50
327.0773280975416
 51
344.9866289979941
  0
ARC
  5
1AE
330
2
100
AcDbEntity
  8
0
100
AcDbCircle
 10
6.671789734675175
 20
2.031249999999982
 30
0.0
 40
0.2631827702002704
100
AcDbArc
 50
344.986628998006
 51
0.0000000000030938
  0
ARC
  5
1AF
330
2
100
AcDbEntity
  8
0
100
AcDbCircle
 10
6.671789734675182
 20
2.031250000000014
 30
0.0
 40
0.2631827702002632
100
AcDbArc
 50
359.9999999999961
 51
15.01337100199369
  0
ARC
  5
1B0
330
2
100
AcDbEntity
  8
0
100
AcDbCircle
 10
6.746917650492196
 20
2.051399256773191
 30
0.0
 40
0.1853997625217234
100
AcDbArc
 50
15.01337100200542
 51
32.92267190245869
  0
ARC
  5
1B1
330
2
100
AcDbEntity
  8
0
100
AcDbCircle
 10
6.794381040787139
 20
2.082131349316363
 30
0.0
 40
0.1288556653021885
100
AcDbArc
 50
32.92267190244809
 51
57.39207898480337
  0
ARC
  5
1B2
330
2
100
AcDbEntity
  8
0
100
AcDbCircle
 10
6.824251635754645
 20
2.12882447362081
 30
0.0
 40
0.0734255263791862
100
AcDbArc
 50
57.3920789848039
 51
89.99999999999723
  0
ARC
  5
1B3
330
2
100
AcDbEntity
  8
0
100
AcDbCircle
 10
6.824251635754648
 20
2.263659098411228
 30
0.0
 40
0.4494090984112305
100
AcDbArc
 50
270.0
 51
284.3044795065292
  0
ARC
  5
1B4
330
2
100
AcDbEntity
  8
0
100
AcDbCircle
 10
6.857101806870829
 20
2.149330709490315
 30
0.0
 40
0.3304548456263142
100
AcDbArc
 50
295.3310792578577
 51
304.7482755454233
  0
ARC
  5
1B5
330
2
100
AcDbEntity
  8
0
100
AcDbCircle
 10
6.907292013568308
 20
2.076977175836838
 30
0.0
 40
0.2423975308791534
100
AcDbArc
 50
304.7482755454461
 51
309.5636078296334
  0
ARC
  5
1B6
330
2
100
AcDbEntity
  8
0
100
AcDbCircle
 10
6.824251635754592
 20
1.798840901588775
 30
0.0
 40
0.4494090984112342
100
AcDbArc
 50
75.69552049346343
 51
89.99999999999277
  0
ARC
  5
1B7
330
2
100
AcDbEntity
  8
0
100
AcDbCircle
 10
6.824251635754648
 20
1.956529608820521
 30
0.0
 40
0.0502796088205244
100
AcDbArc
 50
270.0
 51
303.5108229556709
  0
ARC
  5
1B8
330
2
100
AcDbEntity
  8
0
100
AcDbCircle
 10
6.800604547811445
 20
1.992241802725829
 30
0.0
 40
0.0931112041880084
100
AcDbArc
 50
303.5108229556701
 51
327.9718933333913
  0
ARC
  5
1B9
330
2
100
AcDbEntity
  8
0
100
AcDbCircle
 10
6.762952115617412
 20
2.015795344093316
 30
0.0
 40
0.1375237582811504
100
AcDbArc
 50
327.9718933333945
 51
345.4734521832053
  0
ARC
  5
1BA
330
2
100
AcDbEntity
  8
0
100
AcDbCircle
 10
6.703307417301967
 20
2.031250000000007
 30
0.0
 40
0.1991381756388974
100
AcDbArc
 50
345.4734521831998
 51
359.9999999999969
  0
ARC
  5
1BB
330
2
100
AcDbEntity
  8
0
100
AcDbCircle
 10
6.703307417301939
 20
2.031249999999993
 30
0.0
 40
0.1991381756389252
100
AcDbArc
 50
0.0000000000010222
 51
14.52654781679821
  0
ARC
  5
1BC
330
2
100
AcDbEntity
  8
0
100
AcDbCircle
 10
6.762952115617444
 20
2.046704655906687
 30
0.0
 40
0.1375237582811182
100
AcDbArc
 50
14.52654781679661
 51
32.02810666660878
  0
ARC
  5
1BD
330
2
100
AcDbEntity
  8
0
100
AcDbCircle
 10
6.800604547811445
 20
2.070258197274164
 30
0.0
 40
0.0931112041880092
100
AcDbArc
 50
32.02810666660869
 51
56.48917704432994
  0
ARC
  5
1BE
330
2
100
AcDbEntity
  8
0
100
AcDbCircle
 10
6.824251635754648
 20
2.105970391179469
 30
0.0
 40
0.050279608820527
100
AcDbArc
 50
56.48917704433129
 51
90.0
  0
ARC
  5
1BF
330
2
100
AcDbEntity
  8
0
100
AcDbCircle
 10
6.907292013568291
 20
1.985522824163216
 30
0.0
 40
0.242397530879118
100
AcDbArc
 50
50.43639217035425
 51
55.25172445454089
  0
ARC
  5
1C0
330
2
100
AcDbEntity
  8
0
100
AcDbCircle
 10
6.85710180687079
 20
1.913169290509647
 30
0.0
 40
0.3304548456263663
100
AcDbArc
 50
55.25172445457327
 51
64.66892074213908
  0
ARC
  5
1C1
330
2
100
AcDbEntity
  8
0
100
AcDbCircle
 10
6.983870945160155
 20
2.031250000000025
 30
0.0
 40
0.153205001069999
100
AcDbArc
 50
336.9842081995419
 51
359.9999999999894
  0
ARC
  5
1C2
330
2
100
AcDbEntity
  8
0
100
AcDbCircle
 10
6.983870945160155
 20
2.031249999999968
 30
0.0
 40
0.153205001069999
100
AcDbArc
 50
0.0000000000106292
 51
23.01579180045814
  0
ARC
  5
1C3
330
2
100
AcDbEntity
  8
0
100
AcDbCircle
 10
-7.09794998485816
 20
1.702680365064982
 30
0.0
 40
0.0502796088205275
100
AcDbArc
 50
90.00000000000101
 51
123.5108229556696
  0
ARC
  5
1C4
330
2
100
AcDbEntity
  8
0
100
AcDbCircle
 10
-7.07430289691496
 20
1.666968171159677
 30
0.0
 40
0.0931112041880077
100
AcDbArc
 50
123.5108229556691
 51
147.9718933333907
  0
ARC
  5
1C5
330
2
100
AcDbEntity
  8
0
100
AcDbCircle
 10
-7.036650464720956
 20
1.643414629792201
 30
0.0
 40
0.1375237582811191
100
AcDbArc
 50
147.9718933333914
 51
165.4734521832035
  0
ARC
  5
1C6
330
2
100
AcDbEntity
  8
0
100
AcDbCircle
 10
-6.97700576640545
 20
1.627959973885506
 30
0.0
 40
0.1991381756389261
100
AcDbArc
 50
165.4734521832019
 51
179.999999999999
  0
ARC
  5
1C7
330
2
100
AcDbEntity
  8
0
100
AcDbCircle
 10
-6.977005766405479
 20
1.62795997388552
 30
0.0
 40
0.1991381756388982
100
AcDbArc
 50
180.0000000000031
 51
194.5265478168002
  0
ARC
  5
1C8
330
2
100
AcDbEntity
  8
0
100
AcDbCircle
 10
-7.097949984858105
 20
1.395550875474289
 30
0.0
 40
0.449409098411234
100
AcDbArc
 50
90.00000000000713
 51
104.3044795065365
  0
ARC
  5
1C9
330
2
100
AcDbEntity
  8
0
100
AcDbCircle
 10
-7.257569294263667
 20
1.627959973885481
 30
0.0
 40
0.1532050010699999
100
AcDbArc
 50
156.984208199542
 51
179.9999999999894
  0
ARC
  5
1CA
330
2
100
AcDbEntity
  8
0
100
AcDbCircle
 10
-7.25756929426367
 20
1.627959973885538
 30
0.0
 40
0.1532050010699973
100
AcDbArc
 50
180.0000000000106
 51
203.0157918004584
  0
ARC
  5
1CB
330
2
100
AcDbEntity
  8
0
100
AcDbCircle
 10
-7.130800155974304
 20
1.50987926439516
 30
0.0
 40
0.3304548456263654
100
AcDbArc
 50
115.3310792578606
 51
124.7482755454265
  0
ARC
  5
1CC
330
2
100
AcDbEntity
  8
0
100
AcDbCircle
 10
-7.180990362671803
 20
1.582232798048729
 30
0.0
 40
0.242397530879118
100
AcDbArc
 50
124.7482755454591
 51
129.5636078296458
  0
ARC
  5
1CD
330
2
100
AcDbEntity
  8
0
100
AcDbCircle
 10
-7.097949984858158
 20
1.725534447506323
 30
0.0
 40
0.0734255263791857
100
AcDbArc
 50
90.00000000000208
 51
122.6079210151955
  0
ARC
  5
1CE
330
2
100
AcDbEntity
  8
0
100
AcDbCircle
 10
-7.068079389890651
 20
1.678841323201876
 30
0.0
 40
0.1288556653021893
100
AcDbArc
 50
122.607921015197
 51
147.0773280975521
  0
ARC
  5
1CF
330
2
100
AcDbEntity
  8
0
100
AcDbCircle
 10
-7.020615999595707
 20
1.648109230658704
 30
0.0
 40
0.1853997625217251
100
AcDbArc
 50
147.0773280975416
 51
164.9866289979947
  0
ARC
  5
1D0
330
2
100
AcDbEntity
  8
0
100
AcDbCircle
 10
-6.945488083778694
 20
1.627959973885528
 30
0.0
 40
0.263182770200264
100
AcDbArc
 50
164.9866289980064
 51
180.0000000000039
  0
ARC
  5
1D1
330
2
100
AcDbEntity
  8
0
100
AcDbCircle
 10
-6.945488083778688
 20
1.627959973885496
 30
0.0
 40
0.2631827702002704
100
AcDbArc
 50
179.9999999999969
 51
195.0133710019941
  0
ARC
  5
1D2
330
2
100
AcDbEntity
  8
0
100
AcDbCircle
 10
-7.036650464720924
 20
1.61250531797883
 30
0.0
 40
0.1375237582811512
100
AcDbArc
 50
194.5265478167946
 51
212.0281066666053
  0
ARC
  5
1D3
330
2
100
AcDbEntity
  8
0
100
AcDbCircle
 10
-7.07430289691496
 20
1.588951776611342
 30
0.0
 40
0.0931112041880074
100
AcDbArc
 50
212.0281066666093
 51
236.4891770443309
  0
ARC
  5
1D4
330
2
100
AcDbEntity
  8
0
100
AcDbCircle
 10
-7.09794998485816
 20
1.553239582706034
 30
0.0
 40
0.0502796088205244
100
AcDbArc
 50
236.4891770443282
 51
269.999999999999
  0
ARC
  5
1D5
330
2
100
AcDbEntity
  8
0
100
AcDbCircle
 10
-7.097949984858161
 20
1.860369072296741
 30
0.0
 40
0.4494090984112305
100
AcDbArc
 50
255.6955204934708
 51
270.0
  0
ARC
  5
1D6
330
2
100
AcDbEntity
  8
0
100
AcDbCircle
 10
-7.18099036267182
 20
1.673687149722351
 30
0.0
 40
0.2423975308791539
100
AcDbArc
 50
230.4363921703664
 51
235.2517244545537
  0
ARC
  5
1D7
330
2
100
AcDbEntity
  8
0
100
AcDbCircle
 10
-7.13080015597434
 20
1.746040683375828
 30
0.0
 40
0.3304548456263149
100
AcDbArc
 50
235.2517244545765
 51
244.668920742142
  0
ARC
  5
1D8
330
2
100
AcDbEntity
  8
0
100
AcDbCircle
 10
-7.020615999595701
 20
1.607810717112319
 30
0.0
 40
0.185399762521732
100
AcDbArc
 50
195.0133710020058
 51
212.9226719024582
  0
ARC
  5
1D9
330
2
100
AcDbEntity
  8
0
100
AcDbCircle
 10
-7.068079389890654
 20
1.577078624569143
 30
0.0
 40
0.1288556653021872
100
AcDbArc
 50
212.9226719024485
 51
237.392078984804
  0
ARC
  5
1DA
330
2
100
AcDbEntity
  8
0
100
AcDbCircle
 10
-7.097949984858172
 20
1.530385500264696
 30
0.0
 40
0.0734255263791788
100
AcDbArc
 50
237.3920789848133
 51
270.0000000000083
  0
ENDSEC
  0
SECTION
  2
OBJECTS
  0
DICTIONARY
  5
9
330
0
100
AcDbDictionary
281
     1
  3
ACAD_COLOR
350
1E1
  3
ACAD_GROUP
350
24
  3
ACAD_LAYOUT
350
D
  3
ACAD_MATERIAL
350
1E0
  3
ACAD_MLINESTYLE
350
25
  3
ACAD_PLOTSETTINGS
350
26
  3
ACAD_PLOTSTYLENAME
350
8
  3
ACAD_TABLESTYLE
350
1E2
  3
ACDBHEADERROUNDTRIPXREC
350
1EF
  3
AcDbVariableDictionary
350
101
  0
DICTIONARY
  5
1E1
102
{ACAD_REACTORS
330
9
102
}
330
9
100
AcDbDictionary
281
     1
  0
DICTIONARY
  5
24
102
{ACAD_REACTORS
330
9
102
}
330
9
100
AcDbDictionary
281
     1
  0
DICTIONARY
  5
D
102
{ACAD_REACTORS
330
9
102
}
330
9
100
AcDbDictionary
281
     1
  3
Layout1
350
13
  3
Model
350
C
  0
DICTIONARY
  5
1E0
102
{ACAD_REACTORS
330
9
102
}
330
9
100
AcDbDictionary
281
     1
  0
DICTIONARY
  5
25
102
{ACAD_REACTORS
330
9
102
}
330
9
100
AcDbDictionary
281
     1
  3
STANDARD
350
28
  0
DICTIONARY
  5
26
102
{ACAD_REACTORS
330
9
102
}
330
9
100
AcDbDictionary
281
     1
  0
ACDBDICTIONARYWDFLT
  5
8
102
{ACAD_REACTORS
330
9
102
}
330
9
100
AcDbDictionary
281
     1
  3
Normal
350
7
100
AcDbDictionaryWithDefault
340
7
  0
DICTIONARY
  5
1E2
102
{ACAD_REACTORS
330
9
102
}
330
9
100
AcDbDictionary
281
     1
  3
Standard
350
1E3
  0
DICTIONARY
  5
1EF
102
{ACAD_REACTORS
330
9
102
}
330
9
100
AcDbDictionary
281
     1
  3
COLORDICT
350
1F0
  3
MATERIALDICT
350
1F1
  0
DICTIONARY
  5
101
102
{ACAD_REACTORS
330
9
102
}
330
9
100
AcDbDictionary
281
     1
  3
CTABLESTYLE
350
1EC
  3
HIDETEXT
350
1EE
  0
LAYOUT
  5
13
102
{ACAD_REACTORS
330
D
102
}
102
{ACAD_XDICTIONARY
360
1F2
102
}
330
D
100
AcDbPlotSettings
  1

  2
HP LaserJet 2100 Series PS
  4

  6

 40
0.0
 41
0.0
 42
0.0
 43
0.0
 44
0.0
 45
0.0
 46
0.0
 47
0.0
 48
0.0
 49
0.0
140
0.0
141
0.0
142
1.0
143
1.0
 70
   688
 72
     0
 73
     0
 74
     5
  7

 75
    16
147
1.0
148
0.0
149
0.0
100
AcDbLayout
  1
Layout1
 70
     0
 71
     1
 10
0.0
 20
0.0
 11
12.0
 21
9.0
 12
0.0
 22
0.0
 32
0.0
 14
1.000000000000000E+20
 24
1.000000000000000E+20
 34
1.000000000000000E+20
 15
-1.000000000000000E+20
 25
-1.000000000000000E+20
 35
-1.000000000000000E+20
146
0.0
 13
0.0
 23
0.0
 33
0.0
 16
1.0
 26
0.0
 36
0.0
 17
0.0
 27
1.0
 37
0.0
 76
     0
330
E
  0
LAYOUT
  5
C
102
{ACAD_REACTORS
330
D
102
}
102
{ACAD_XDICTIONARY
360
1F4
102
}
330
D
100
AcDbPlotSettings
  1

  2
HP LaserJet 2100 Series PS
  4
Letter
  6

 40
5.365749835968018
 41
5.408084392547607
 42
5.4080810546875
 43
5.365753173828125
 44
215.8999938964844
 45
279.3999938964844
 46
0.0
 47
0.0
 48
0.0
 49
0.0
140
0.0
141
0.0
142
1.0
143
1.0
 70
 11952
 72
     0
 73
     1
 74
     0
  7

 75
     0
147
1.0
148
-329.8250215307568
149
14.94015642114902
100
AcDbLayout
  1
Model
 70
     1
 71
     0
 10
0.0
 20
0.0
 11
12.0
 21
9.0
 12
0.0
 22
0.0
 32
0.0
 14
0.0
 24
0.0
 34
0.0
 15
0.0
 25
0.0
 35
0.0
146
0.0
 13
0.0
 23
0.0
 33
0.0
 16
1.0
 26
0.0
 36
0.0
 17
0.0
 27
1.0
 37
0.0
 76
     0
330
2
  0
MLINESTYLE
  5
28
102
{ACAD_REACTORS
330
25
102
}
330
25
100
AcDbMlineStyle
  2
STANDARD
 70
     0
  3

 62
   256
 51
90.0
 52
90.0
 71
     2
 49
0.5
 62
   256
  6
BYLAYER
 49
-0.5
 62
   256
  6
BYLAYER
  0
ACDBPLACEHOLDER
  5
7
102
{ACAD_REACTORS
330
8
102
}
330
8
  0
ACAD_PROXY_OBJECT
  5
1E3
102
{ACAD_REACTORS
330
1E2
102
}
330
1E2
100
AcDbProxyObject
 90
      499
 91
      545
 95
   983063
 70
     0
 93
     1841
310
4214DD185B99185C9928B81E85EB51B8AE3F2E07A17AD46E2B8FC02B5E8DC0F42B1CFD028000000C1008070000C3001FDFF8000000C1003FBFF000000182007F7FE00000030400FEFFC00000060801FDFF8000000C1003FBFF00000018200000000000000681FA0B0000001820100E000186003FBFF000000182007F7FE000
310
00030400FEFFC00000060801FDFF8000000C1003FBFF000000182007F7FE000000304000AD7A3703D0AC73F4160000003040201C00030C007F7FE00000030400FEFFC00000060801FDFF8000000C1003FBFF000000182007F7FE00000030400FEFFC000000608000
340
16
340
16
340
16
 94
        0
  0
XRECORD
  5
1F0
102
{ACAD_REACTORS
330
1EF
102
}
330
1EF
100
AcDbXrecord
340
1E1
  0
XRECORD
  5
1F1
102
{ACAD_REACTORS
330
1EF
102
}
330
1EF
100
AcDbXrecord
340
1E0
  0
DICTIONARYVAR
  5
1EC
102
{ACAD_REACTORS
330
101
102
}
330
101
100
DictionaryVariables
280
     0
  1
STANDARD
  0
DICTIONARYVAR
  5
1EE
102
{ACAD_REACTORS
330
101
102
}
330
101
100
DictionaryVariables
280
     0
  1
0
  0
DICTIONARY
  5
1F2
330
13
100
AcDbDictionary
280
     1
281
     1
  3
ACAD_XREC_ROUNDTRIP
360
1F3
  0
DICTIONARY
  5
1F4
330
C
100
AcDbDictionary
280
     1
281
     1
  3
ACAD_XREC_ROUNDTRIP
360
1F5
  0
XRECORD
  5
1F3
102
{ACAD_REACTORS
330
1F2
102
}
330
1F2
100
AcDbXrecord
102
SHADEPLOT
 70
     0
102
SHADEPLOTRESLEVEL
 70
     2
102
SHADEPLOTCUSTOMDPI
 70
   300
  0
XRECORD
  5
1F5
102
{ACAD_REACTORS
330
1F4
102
}
330
1F4
100
AcDbXrecord
102
SHADEPLOT
 70
     0
102
SHADEPLOTRESLEVEL
 70
     2
102
SHADEPLOTCUSTOMDPI
 70
   300
  0
ENDSEC
  0
EOF
