  0
SECTION
  2
HEADER
  9
$ACADVER
  1
AC1015
  9
$ACADMAINTVER
 70
     6
  9
$DWGCODEPAGE
  3
ANSI_1252
  9
$INSBASE
 10
0.0
 20
0.0
 30
0.0
  9
$EXTMIN
 10
-6.420995256032942
 20
-0.0258883476483184
 30
0.0
  9
$EXTMAX
 10
6.452245256032942
 20
10.55269439870172
 30
0.0
  9
$LIMMIN
 10
0.0
 20
0.0
  9
$LIMMAX
 10
16.0
 20
21.0
  9
$ORTHOMODE
 70
     1
  9
$REGENMODE
 70
     1
  9
$FILLMODE
 70
     1
  9
$QTEXTMODE
 70
     0
  9
$MIRRTEXT
 70
     0
  9
$LTSCALE
 40
0.5
  9
$ATTMODE
 70
     1
  9
$TEXTSIZE
 40
0.18
  9
$TRACEWID
 40
0.05
  9
$TEXTSTYLE
  7
STANDARD
  9
$CLAYER
  8
0
  9
$CELTYPE
  6
BYLAYER
  9
$CECOLOR
 62
   256
  9
$CELTSCALE
 40
1.0
  9
$DISPSILH
 70
     0
  9
$DIMSCALE
 40
2.0
  9
$DIMASZ
 40
0.125
  9
$DIMEXO
 40
0.062
  9
$DIMDLI
 40
0.375
  9
$DIMRND
 40
0.0
  9
$DIMDLE
 40
0.0
  9
$DIMEXE
 40
0.08
  9
$DIMTP
 40
0.0
  9
$DIMTM
 40
0.0
  9
$DIMTXT
 40
0.09
  9
$DIMCEN
 40
-0.06
  9
$DIMTSZ
 40
0.0
  9
$DIMTOL
 70
     0
  9
$DIMLIM
 70
     0
  9
$DIMTIH
 70
     1
  9
$DIMTOH
 70
     1
  9
$DIMSE1
 70
     0
  9
$DIMSE2
 70
     0
  9
$DIMTAD
 70
     0
  9
$DIMZIN
 70
     0
  9
$DIMBLK
  1

  9
$DIMASO
 70
     0
  9
$DIMSHO
 70
     1
  9
$DIMPOST
  1

  9
$DIMAPOST
  1

  9
$DIMALT
 70
     0
  9
$DIMALTD
 70
     2
  9
$DIMALTF
 40
25.4
  9
$DIMLFAC
 40
1.0
  9
$DIMTOFL
 70
     0
  9
$DIMTVP
 40
0.0
  9
$DIMTIX
 70
     0
  9
$DIMSOXD
 70
     0
  9
$DIMSAH
 70
     0
  9
$DIMBLK1
  1

  9
$DIMBLK2
  1

  9
$DIMSTYLE
  2
STANDARD
  9
$DIMCLRD
 70
     0
  9
$DIMCLRE
 70
     0
  9
$DIMCLRT
 70
     0
  9
$DIMTFAC
 40
1.0
  9
$DIMGAP
 40
0.09
  9
$DIMJUST
 70
     0
  9
$DIMSD1
 70
     0
  9
$DIMSD2
 70
     0
  9
$DIMTOLJ
 70
     1
  9
$DIMTZIN
 70
     0
  9
$DIMALTZ
 70
     0
  9
$DIMALTTZ
 70
     0
  9
$DIMUPT
 70
     0
  9
$DIMDEC
 70
     5
  9
$DIMTDEC
 70
     5
  9
$DIMALTU
 70
     5
  9
$DIMALTTD
 70
     2
  9
$DIMTXSTY
  7
STANDARD
  9
$DIMAUNIT
 70
     0
  9
$DIMADEC
 70
     0
  9
$DIMALTRND
 40
0.0
  9
$DIMAZIN
 70
     0
  9
$DIMDSEP
 70
    46
  9
$DIMATFIT
 70
     3
  9
$DIMFRAC
 70
     2
  9
$DIMLDRBLK
  1

  9
$DIMLUNIT
 70
     5
  9
$DIMLWD
 70
    -2
  9
$DIMLWE
 70
    -2
  9
$DIMTMOVE
 70
     2
  9
$LUNITS
 70
     5
  9
$LUPREC
 70
     5
  9
$SKETCHINC
 40
0.1
  9
$FILLETRAD
 40
0.0
  9
$AUNITS
 70
     0
  9
$AUPREC
 70
     0
  9
$MENU
  1
acad
  9
$ELEVATION
 40
0.0
  9
$PELEVATION
 40
0.0
  9
$THICKNESS
 40
0.0
  9
$LIMCHECK
 70
     0
  9
$CHAMFERA
 40
0.0
  9
$CHAMFERB
 40
0.0
  9
$CHAMFERC
 40
0.0
  9
$CHAMFERD
 40
0.0
  9
$SKPOLY
 70
     0
  9
$TDCREATE
 40
2450710.881116319
  9
$TDUCREATE
 40
2450711.214449653
  9
$TDUPDATE
 40
2454175.66054125
  9
$TDUUPDATE
 40
2454175.993874583
  9
$TDINDWG
 40
0.2435001505
  9
$TDUSRTIMER
 40
0.2435001505
  9
$USRTIMER
 70
     1
  9
$ANGBASE
 50
0.0
  9
$ANGDIR
 70
     0
  9
$PDMODE
 70
     0
  9
$PDSIZE
 40
0.0
  9
$PLINEWID
 40
0.0
  9
$SPLFRAME
 70
     0
  9
$SPLINETYPE
 70
     6
  9
$SPLINESEGS
 70
     8
  9
$HANDSEED
  5
324
  9
$SURFTAB1
 70
     6
  9
$SURFTAB2
 70
     6
  9
$SURFTYPE
 70
     6
  9
$SURFU
 70
     6
  9
$SURFV
 70
     6
  9
$UCSBASE
  2

  9
$UCSNAME
  2

  9
$UCSORG
 10
0.0
 20
0.0
 30
0.0
  9
$UCSXDIR
 10
1.0
 20
0.0
 30
0.0
  9
$UCSYDIR
 10
0.0
 20
1.0
 30
0.0
  9
$UCSORTHOREF
  2

  9
$UCSORTHOVIEW
 70
     0
  9
$UCSORGTOP
 10
0.0
 20
0.0
 30
0.0
  9
$UCSORGBOTTOM
 10
0.0
 20
0.0
 30
0.0
  9
$UCSORGLEFT
 10
0.0
 20
0.0
 30
0.0
  9
$UCSORGRIGHT
 10
0.0
 20
0.0
 30
0.0
  9
$UCSORGFRONT
 10
0.0
 20
0.0
 30
0.0
  9
$UCSORGBACK
 10
0.0
 20
0.0
 30
0.0
  9
$PUCSBASE
  2

  9
$PUCSNAME
  2

  9
$PUCSORG
 10
0.0
 20
0.0
 30
0.0
  9
$PUCSXDIR
 10
1.0
 20
0.0
 30
0.0
  9
$PUCSYDIR
 10
0.0
 20
1.0
 30
0.0
  9
$PUCSORTHOREF
  2

  9
$PUCSORTHOVIEW
 70
     0
  9
$PUCSORGTOP
 10
0.0
 20
0.0
 30
0.0
  9
$PUCSORGBOTTOM
 10
0.0
 20
0.0
 30
0.0
  9
$PUCSORGLEFT
 10
0.0
 20
0.0
 30
0.0
  9
$PUCSORGRIGHT
 10
0.0
 20
0.0
 30
0.0
  9
$PUCSORGFRONT
 10
0.0
 20
0.0
 30
0.0
  9
$PUCSORGBACK
 10
0.0
 20
0.0
 30
0.0
  9
$USERI1
 70
     0
  9
$USERI2
 70
     0
  9
$USERI3
 70
     0
  9
$USERI4
 70
     0
  9
$USERI5
 70
     0
  9
$USERR1
 40
0.0
  9
$USERR2
 40
0.0
  9
$USERR3
 40
0.0
  9
$USERR4
 40
0.0
  9
$USERR5
 40
0.0
  9
$WORLDVIEW
 70
     1
  9
$SHADEDGE
 70
     3
  9
$SHADEDIF
 70
    70
  9
$TILEMODE
 70
     1
  9
$MAXACTVP
 70
    16
  9
$PINSBASE
 10
0.0
 20
0.0
 30
0.0
  9
$PLIMCHECK
 70
     0
  9
$PEXTMIN
 10
1.000000000000000E+20
 20
1.000000000000000E+20
 30
1.000000000000000E+20
  9
$PEXTMAX
 10
-1.000000000000000E+20
 20
-1.000000000000000E+20
 30
-1.000000000000000E+20
  9
$PLIMMIN
 10
0.0
 20
0.0
  9
$PLIMMAX
 10
12.0
 20
9.0
  9
$UNITMODE
 70
     0
  9
$VISRETAIN
 70
     0
  9
$PLINEGEN
 70
     0
  9
$PSLTSCALE
 70
     0
  9
$TREEDEPTH
 70
  3020
  9
$CMLSTYLE
  2
STANDARD
  9
$CMLJUST
 70
     0
  9
$CMLSCALE
 40
1.0
  9
$PROXYGRAPHICS
 70
     1
  9
$MEASUREMENT
 70
     0
  9
$CELWEIGHT
370
    -1
  9
$ENDCAPS
280
     0
  9
$JOINSTYLE
280
     0
  9
$LWDISPLAY
290
     0
  9
$INSUNITS
 70
     0
  9
$HYPERLINKBASE
  1

  9
$STYLESHEET
  1

  9
$XEDIT
290
     1
  9
$CEPSNTYPE
380
     0
  9
$PSTYLEMODE
290
     1
  9
$FINGERPRINTGUID
  2
{A56850F9-C481-11D5-BE3F-00508B5FCD51}
  9
$VERSIONGUID
  2
{0790AEE0-DD7E-408A-A4F3-216ADFBE8BA0}
  9
$EXTNAMES
290
     1
  9
$PSVPSCALE
 40
0.0
  9
$OLESTARTUP
290
     0
  0
ENDSEC
  0
SECTION
  2
CLASSES
  0
CLASS
  1
DICTIONARYVAR
  2
AcDbDictionaryVar
  3
AutoCAD 2000
 90
        0
280
     0
281
     0
  0
CLASS
  1
LWPOLYLINE
  2
AcDbPolyline
  3
AutoCAD 2000
 90
        0
280
     0
281
     1
  0
CLASS
  1
ACDBDICTIONARYWDFLT
  2
AcDbDictionaryWithDefault
  3
AutoCAD 2000
 90
        0
280
     0
281
     0
  0
CLASS
  1
ACDBPLACEHOLDER
  2
AcDbPlaceHolder
  3
ObjectDBX Classes
 90
        0
280
     0
281
     0
  0
CLASS
  1
LAYOUT
  2
AcDbLayout
  3
ObjectDBX Classes
 90
        0
280
     0
281
     0
  0
CLASS
  1
LONG_TRANSACTION
  2
AcDbLongTransaction
  3
ObjectDBX Classes
 90
   -65536
280
     1
281
     0
  0
CLASS
  1
LWPOLYLINE
  2
AcDbPolyline
  3
AutoCAD 2000
 90
        0
280
     0
281
     1
  0
CLASS
  1
HATCH
  2
AcDbHatch
  3
AutoCAD 2000
 90
        0
280
     0
281
     1
  0
CLASS
  1
XRECORD
  2
AcDbXrecord
  3
AutoCAD 2000
 90
        0
280
     0
281
     0
  0
CLASS
  1
LONG_TRANSACTION
  2
AcDbLongTransaction
  3
ObjectDBX Classes
 90
   -65536
280
     1
281
     0
  0
CLASS
  1
LWPOLYLINE
  2
AcDbPolyline
  3
AutoCAD 2000
 90
        0
280
     0
281
     1
  0
CLASS
  1
HATCH
  2
AcDbHatch
  3
AutoCAD 2000
 90
        0
280
     0
281
     1
  0
CLASS
  1
XRECORD
  2
AcDbXrecord
  3
AutoCAD 2000
 90
        0
280
     0
281
     0
  0
CLASS
  1
LONG_TRANSACTION
  2
AcDbLongTransaction
  3
ObjectDBX Classes
 90
   -65536
280
     1
281
     0
  0
CLASS
  1
LWPOLYLINE
  2
AcDbPolyline
  3
AutoCAD 2000
 90
        0
280
     0
281
     1
  0
CLASS
  1
HATCH
  2
AcDbHatch
  3
AutoCAD 2000
 90
        0
280
     0
281
     1
  0
CLASS
  1
XRECORD
  2
AcDbXrecord
  3
AutoCAD 2000
 90
        0
280
     0
281
     0
  0
CLASS
  1
LONG_TRANSACTION
  2
AcDbLongTransaction
  3
ObjectDBX Classes
 90
   -65536
280
     1
281
     0
  0
CLASS
  1
LWPOLYLINE
  2
AcDbPolyline
  3
AutoCAD 2000
 90
        0
280
     0
281
     1
  0
CLASS
  1
HATCH
  2
AcDbHatch
  3
AutoCAD 2000
 90
        0
280
     0
281
     1
  0
CLASS
  1
XRECORD
  2
AcDbXrecord
  3
AutoCAD 2000
 90
        0
280
     0
281
     0
  0
CLASS
  1
LONG_TRANSACTION
  2
AcDbLongTransaction
  3
ObjectDBX Classes
 90
   -65536
280
     1
281
     0
  0
CLASS
  1
LWPOLYLINE
  2
AcDbPolyline
  3
AutoCAD 2000
 90
        0
280
     0
281
     1
  0
CLASS
  1
HATCH
  2
AcDbHatch
  3
AutoCAD 2000
 90
        0
280
     0
281
     1
  0
CLASS
  1
XRECORD
  2
AcDbXrecord
  3
AutoCAD 2000
 90
        0
280
     0
281
     0
  0
CLASS
  1
LONG_TRANSACTION
  2
AcDbLongTransaction
  3
ObjectDBX Classes
 90
   -65536
280
     1
281
     0
  0
CLASS
  1
LWPOLYLINE
  2
AcDbPolyline
  3
AutoCAD 2000
 90
        0
280
     0
281
     1
  0
CLASS
  1
HATCH
  2
AcDbHatch
  3
AutoCAD 2000
 90
        0
280
     0
281
     1
  0
CLASS
  1
XRECORD
  2
AcDbXrecord
  3
AutoCAD 2000
 90
        0
280
     0
281
     0
  0
CLASS
  1
LONG_TRANSACTION
  2
AcDbLongTransaction
  3
ObjectDBX Classes
 90
   -65536
280
     1
281
     0
  0
CLASS
  1
LWPOLYLINE
  2
AcDbPolyline
  3
AutoCAD 2000
 90
        0
280
     0
281
     1
  0
CLASS
  1
HATCH
  2
AcDbHatch
  3
AutoCAD 2000
 90
        0
280
     0
281
     1
  0
CLASS
  1
XRECORD
  2
AcDbXrecord
  3
AutoCAD 2000
 90
        0
280
     0
281
     0
  0
CLASS
  1
LONG_TRANSACTION
  2
AcDbLongTransaction
  3
ObjectDBX Classes
 90
   -65536
280
     1
281
     0
  0
CLASS
  1
LWPOLYLINE
  2
AcDbPolyline
  3
AutoCAD 2000
 90
        0
280
     0
281
     1
  0
CLASS
  1
HATCH
  2
AcDbHatch
  3
AutoCAD 2000
 90
        0
280
     0
281
     1
  0
CLASS
  1
XRECORD
  2
AcDbXrecord
  3
AutoCAD 2000
 90
        0
280
     0
281
     0
  0
CLASS
  1
LONG_TRANSACTION
  2
AcDbLongTransaction
  3
ObjectDBX Classes
 90
   -65536
280
     1
281
     0
  0
CLASS
  1
LWPOLYLINE
  2
AcDbPolyline
  3
AutoCAD 2000
 90
        0
280
     0
281
     1
  0
CLASS
  1
HATCH
  2
AcDbHatch
  3
AutoCAD 2000
 90
        0
280
     0
281
     1
  0
CLASS
  1
XRECORD
  2
AcDbXrecord
  3
AutoCAD 2000
 90
        0
280
     0
281
     0
  0
CLASS
  1
LONG_TRANSACTION
  2
AcDbLongTransaction
  3
ObjectDBX Classes
 90
   -65536
280
     1
281
     0
  0
CLASS
  1
LWPOLYLINE
  2
AcDbPolyline
  3
AutoCAD 2000
 90
        0
280
     0
281
     1
  0
CLASS
  1
HATCH
  2
AcDbHatch
  3
AutoCAD 2000
 90
        0
280
     0
281
     1
  0
CLASS
  1
XRECORD
  2
AcDbXrecord
  3
AutoCAD 2000
 90
        0
280
     0
281
     0
  0
CLASS
  1
LONG_TRANSACTION
  2
AcDbLongTransaction
  3
ObjectDBX Classes
 90
   -65536
280
     1
281
     0
  0
CLASS
  1
LWPOLYLINE
  2
AcDbPolyline
  3
AutoCAD 2000
 90
        0
280
     0
281
     1
  0
CLASS
  1
HATCH
  2
AcDbHatch
  3
AutoCAD 2000
 90
        0
280
     0
281
     1
  0
CLASS
  1
XRECORD
  2
AcDbXrecord
  3
AutoCAD 2000
 90
        0
280
     0
281
     0
  0
CLASS
  1
LONG_TRANSACTION
  2
AcDbLongTransaction
  3
ObjectDBX Classes
 90
   -65536
280
     1
281
     0
  0
CLASS
  1
LWPOLYLINE
  2
AcDbPolyline
  3
AutoCAD 2000
 90
        0
280
     0
281
     1
  0
CLASS
  1
HATCH
  2
AcDbHatch
  3
AutoCAD 2000
 90
        0
280
     0
281
     1
  0
CLASS
  1
XRECORD
  2
AcDbXrecord
  3
AutoCAD 2000
 90
        0
280
     0
281
     0
  0
CLASS
  1
LONG_TRANSACTION
  2
AcDbLongTransaction
  3
ObjectDBX Classes
 90
   -65536
280
     1
281
     0
  0
CLASS
  1
LWPOLYLINE
  2
AcDbPolyline
  3
AutoCAD 2000
 90
        0
280
     0
281
     1
  0
CLASS
  1
HATCH
  2
AcDbHatch
  3
AutoCAD 2000
 90
        0
280
     0
281
     1
  0
CLASS
  1
XRECORD
  2
AcDbXrecord
  3
AutoCAD 2000
 90
        0
280
     0
281
     0
  0
CLASS
  1
LONG_TRANSACTION
  2
AcDbLongTransaction
  3
ObjectDBX Classes
 90
   -65536
280
     1
281
     0
  0
CLASS
  1
LWPOLYLINE
  2
AcDbPolyline
  3
AutoCAD 2000
 90
        0
280
     0
281
     1
  0
CLASS
  1
HATCH
  2
AcDbHatch
  3
AutoCAD 2000
 90
        0
280
     0
281
     1
  0
CLASS
  1
XRECORD
  2
AcDbXrecord
  3
AutoCAD 2000
 90
        0
280
     0
281
     0
  0
CLASS
  1
LONG_TRANSACTION
  2
AcDbLongTransaction
  3
ObjectDBX Classes
 90
   -65536
280
     1
281
     0
  0
CLASS
  1
LWPOLYLINE
  2
AcDbPolyline
  3
AutoCAD 2000
 90
        0
280
     0
281
     1
  0
CLASS
  1
HATCH
  2
AcDbHatch
  3
AutoCAD 2000
 90
        0
280
     0
281
     1
  0
CLASS
  1
XRECORD
  2
AcDbXrecord
  3
AutoCAD 2000
 90
        0
280
     0
281
     0
  0
CLASS
  1
LONG_TRANSACTION
  2
AcDbLongTransaction
  3
ObjectDBX Classes
 90
   -65536
280
     1
281
     0
  0
CLASS
  1
LWPOLYLINE
  2
AcDbPolyline
  3
AutoCAD 2000
 90
        0
280
     0
281
     1
  0
CLASS
  1
HATCH
  2
AcDbHatch
  3
AutoCAD 2000
 90
        0
280
     0
281
     1
  0
CLASS
  1
XRECORD
  2
AcDbXrecord
  3
AutoCAD 2000
 90
        0
280
     0
281
     0
  0
CLASS
  1
LONG_TRANSACTION
  2
AcDbLongTransaction
  3
ObjectDBX Classes
 90
   -65536
280
     1
281
     0
  0
CLASS
  1
LWPOLYLINE
  2
AcDbPolyline
  3
AutoCAD 2000
 90
        0
280
     0
281
     1
  0
CLASS
  1
HATCH
  2
AcDbHatch
  3
AutoCAD 2000
 90
        0
280
     0
281
     1
  0
CLASS
  1
XRECORD
  2
AcDbXrecord
  3
AutoCAD 2000
 90
        0
280
     0
281
     0
  0
CLASS
  1
LONG_TRANSACTION
  2
AcDbLongTransaction
  3
ObjectDBX Classes
 90
   -65536
280
     1
281
     0
  0
CLASS
  1
LWPOLYLINE
  2
AcDbPolyline
  3
AutoCAD 2000
 90
        0
280
     0
281
     1
  0
CLASS
  1
HATCH
  2
AcDbHatch
  3
AutoCAD 2000
 90
        0
280
     0
281
     1
  0
CLASS
  1
XRECORD
  2
AcDbXrecord
  3
AutoCAD 2000
 90
        0
280
     0
281
     0
  0
CLASS
  1
LONG_TRANSACTION
  2
AcDbLongTransaction
  3
ObjectDBX Classes
 90
   -65536
280
     1
281
     0
  0
CLASS
  1
LWPOLYLINE
  2
AcDbPolyline
  3
AutoCAD 2000
 90
        0
280
     0
281
     1
  0
CLASS
  1
HATCH
  2
AcDbHatch
  3
AutoCAD 2000
 90
        0
280
     0
281
     1
  0
CLASS
  1
XRECORD
  2
AcDbXrecord
  3
AutoCAD 2000
 90
        0
280
     0
281
     0
  0
CLASS
  1
TABLESTYLE
  2
AcDbTableStyle
  3
ObjectDBX Classes
 90
     2047
280
     1
281
     0
  0
ENDSEC
  0
SECTION
  2
TABLES
  0
TABLE
  2
VPORT
  5
1D
330
0
100
AcDbSymbolTable
 70
     3
  0
VPORT
  5
316
330
1D
100
AcDbSymbolTableRecord
100
AcDbViewportTableRecord
  2
*Active
 70
     0
 10
0.0
 20
0.0
 11
1.0
 21
1.0
 12
5.376539198605599
 22
8.244114397066669
 13
0.0
 23
0.0
 14
0.03125
 24
0.03125
 15
0.25
 25
0.25
 16
0.0
 26
0.0
 36
1.0
 17
0.0
 27
0.0
 37
0.0
 40
21.68274175495451
 41
1.814583333333333
 42
50.0
 43
0.0
 44
0.0
 50
0.0
 51
0.0
 71
     0
 72
   100
 73
     1
 74
     0
 75
     0
 76
     0
 77
     0
 78
     0
281
     0
 65
     1
110
0.0
120
0.0
130
0.0
111
1.0
121
0.0
131
0.0
112
0.0
122
1.0
132
0.0
 79
     0
146
0.0
  0
ENDTAB
  0
TABLE
  2
LTYPE
  5
18
330
0
100
AcDbSymbolTable
 70
     2
  0
LTYPE
  5
19
330
18
100
AcDbSymbolTableRecord
100
AcDbLinetypeTableRecord
  2
BYBLOCK
 70
     0
  3

 72
    65
 73
     0
 40
0.0
  0
LTYPE
  5
1A
330
18
100
AcDbSymbolTableRecord
100
AcDbLinetypeTableRecord
  2
BYLAYER
 70
     0
  3

 72
    65
 73
     0
 40
0.0
  0
LTYPE
  5
A
330
18
100
AcDbSymbolTableRecord
100
AcDbLinetypeTableRecord
  2
CONTINUOUS
 70
     0
  3
Solid line
 72
    65
 73
     0
 40
0.0
  0
LTYPE
  5
2F8
330
18
100
AcDbSymbolTableRecord
100
AcDbLinetypeTableRecord
  2
HIDDEN
 70
     0
  3
Hidden __ __ __ __ __ __ __ __ __ __ __ __ __ _
 72
    65
 73
     2
 40
0.375
 49
0.25
 74
     0
 49
-0.125
 74
     0
  0
ENDTAB
  0
TABLE
  2
LAYER
  5
14
330
0
100
AcDbSymbolTable
 70
     1
  0
LAYER
  5
6
330
14
100
AcDbSymbolTableRecord
100
AcDbLayerTableRecord
  2
0
 70
     0
 62
     7
  6
CONTINUOUS
370
    -3
390
7
  0
ENDTAB
  0
TABLE
  2
STYLE
  5
15
330
0
100
AcDbSymbolTable
 70
     1
  0
STYLE
  5
16
330
15
100
AcDbSymbolTableRecord
100
AcDbTextStyleTableRecord
  2
STANDARD
 70
     0
 40
0.0
 41
1.0
 50
0.0
 71
     0
 42
0.18
  3
TXT
  4

  0
ENDTAB
  0
TABLE
  2
VIEW
  5
1B
330
0
100
AcDbSymbolTable
 70
     0
  0
ENDTAB
  0
TABLE
  2
UCS
  5
1C
330
0
100
AcDbSymbolTable
 70
     0
  0
ENDTAB
  0
TABLE
  2
APPID
  5
1F
330
0
100
AcDbSymbolTable
 70
     1
  0
APPID
  5
20
330
1F
100
AcDbSymbolTableRecord
100
AcDbRegAppTableRecord
  2
ACAD
 70
     0
  0
ENDTAB
  0
TABLE
  2
DIMSTYLE
  5
21
330
0
100
AcDbSymbolTable
 70
     1
100
AcDbDimStyleTable
  0
DIMSTYLE
105
28
330
21
100
AcDbSymbolTableRecord
100
AcDbDimStyleTableRecord
  2
STANDARD
 70
     0
  3

  4

340
16
  0
ENDTAB
  0
TABLE
  2
BLOCK_RECORD
  5
1
330
0
100
AcDbSymbolTable
 70
     0
  0
BLOCK_RECORD
  5
2
330
1
100
AcDbSymbolTableRecord
100
AcDbBlockTableRecord
  2
*MODEL_SPACE
340
C
  0
BLOCK_RECORD
  5
E
330
1
100
AcDbSymbolTableRecord
100
AcDbBlockTableRecord
  2
*PAPER_SPACE
340
13
  0
ENDTAB
  0
ENDSEC
  0
SECTION
  2
BLOCKS
  0
BLOCK
  5
5
330
2
100
AcDbEntity
  8
0
100
AcDbBlockBegin
  2
*MODEL_SPACE
 70
     0
 10
0.0
 20
0.0
 30
0.0
  3
*MODEL_SPACE
  1

  4

  0
ENDBLK
  5
B
330
2
100
AcDbEntity
  8
0
100
AcDbBlockEnd
  0
BLOCK
  5
11
330
E
100
AcDbEntity
 67
     1
  8
0
100
AcDbBlockBegin
  2
*PAPER_SPACE
 70
     0
 10
0.0
 20
0.0
 30
0.0
  3
*PAPER_SPACE
  1

  4

  0
ENDBLK
  5
12
330
E
100
AcDbEntity
 67
     1
  8
0
100
AcDbBlockEnd
  0
ENDSEC
  0
SECTION
  2
ENTITIES
  0
LINE
  5
150
330
2
100
AcDbEntity
  8
0
100
AcDbLine
 10
-0.703125
 20
0.0625
 30
0.0
 11
0.703125
 21
0.0625
 31
0.0
  0
LINE
  5
151
330
2
100
AcDbEntity
  8
0
100
AcDbLine
 10
0.703125
 20
0.0
 30
0.0
 11
-0.703125
 21
0.0
 31
0.0
  0
LINE
  5
155
330
2
100
AcDbEntity
  8
0
100
AcDbLine
 10
-0.7656249999999947
 20
4.8125
 30
0.0
 11
-0.765625
 21
0.125
 31
0.0
  0
LINE
  5
156
330
2
100
AcDbEntity
  8
0
100
AcDbLine
 10
-0.828125
 20
0.125
 30
0.0
 11
-0.8281249999999947
 21
4.8125
 31
0.0
  0
LINE
  5
157
330
2
100
AcDbEntity
  8
0
100
AcDbLine
 10
-1.453124999999998
 20
3.59375
 30
0.0
 11
-1.453124999999998
 21
4.15625
 31
0.0
  0
LINE
  5
158
330
2
100
AcDbEntity
  8
0
100
AcDbLine
 10
-0.828125
 20
0.3125
 30
0.0
 11
-1.828124999999998
 21
1.3125
 31
0.0
  0
ARC
  5
159
330
2
100
AcDbEntity
  8
0
100
AcDbCircle
 10
-0.703125
 20
0.125
 30
0.0
 40
0.125
100
AcDbArc
 50
180.0
 51
270.0
  0
ARC
  5
15A
330
2
100
AcDbEntity
  8
0
100
AcDbCircle
 10
-0.703125
 20
0.125
 30
0.0
 40
0.0625
100
AcDbArc
 50
180.0
 51
270.0
  0
LINE
  5
15D
330
2
100
AcDbEntity
  8
0
100
AcDbLine
 10
-1.453124999999998
 20
1.96875
 30
0.0
 11
-1.453124999999998
 21
2.53125
 31
0.0
  0
LINE
  5
15E
330
2
100
AcDbEntity
  8
0
100
AcDbLine
 10
-1.828124999999998
 20
1.71875
 30
0.0
 11
-1.828124999999998
 21
1.3125
 31
0.0
  0
CIRCLE
  5
15F
330
2
100
AcDbEntity
  8
0
100
AcDbCircle
 10
-1.578124999999998
 20
1.40625
 30
0.0
 40
0.078125
  0
ARC
  5
160
330
2
100
AcDbEntity
  8
0
100
AcDbCircle
 10
-1.578124999999998
 20
1.96875
 30
0.0
 40
0.125
100
AcDbArc
 50
270.0
 51
0.0
  0
ARC
  5
161
330
2
100
AcDbEntity
  8
0
100
AcDbCircle
 10
-1.703124999999998
 20
1.71875
 30
0.0
 40
0.125
100
AcDbArc
 50
90.0
 51
180.0
  0
LINE
  5
162
330
2
100
AcDbEntity
  8
0
100
AcDbLine
 10
-1.703124999999998
 20
1.84375
 30
0.0
 11
-1.578124999999998
 21
1.84375
 31
0.0
  0
ARC
  5
163
330
2
100
AcDbEntity
  8
0
100
AcDbCircle
 10
-0.8281249999999982
 20
1.407145916537131
 30
0.0
 40
0.1875
100
AcDbArc
 50
90.0
 51
270.0
  0
ARC
  5
164
330
2
100
AcDbEntity
  8
0
100
AcDbCircle
 10
-0.8807618390020018
 20
2.06622353456806
 30
0.0
 40
0.0986370922929614
100
AcDbArc
 50
57.74817661148467
 51
86.14191405494718
  0
ARC
  5
165
330
2
100
AcDbEntity
  8
0
100
AcDbCircle
 10
-0.8801138787568377
 20
2.066346089879936
 30
0.0
 40
0.0519900307039585
100
AcDbArc
 50
359.6185877246035
 51
83.38525270417924
  0
LINE
  5
166
330
2
100
AcDbEntity
  8
0
100
AcDbLine
 10
-1.828124999999998
 20
3.34375
 30
0.0
 11
-1.828124999999998
 21
2.78125
 31
0.0
  0
ARC
  5
167
330
2
100
AcDbEntity
  8
0
100
AcDbCircle
 10
-1.578124999999998
 20
2.53125
 30
0.0
 40
0.125
100
AcDbArc
 50
0.0
 51
90.0
  0
ARC
  5
168
330
2
100
AcDbEntity
  8
0
100
AcDbCircle
 10
-1.703124999999998
 20
2.78125
 30
0.0
 40
0.125
100
AcDbArc
 50
180.0
 51
270.0
  0
LINE
  5
169
330
2
100
AcDbEntity
  8
0
100
AcDbLine
 10
-1.703124999999998
 20
2.65625
 30
0.0
 11
-1.578124999999998
 21
2.65625
 31
0.0
  0
ARC
  5
16A
330
2
100
AcDbEntity
  8
0
100
AcDbCircle
 10
-1.578124999999998
 20
3.59375
 30
0.0
 40
0.125
100
AcDbArc
 50
270.0
 51
0.0
  0
ARC
  5
16B
330
2
100
AcDbEntity
  8
0
100
AcDbCircle
 10
-1.703124999999998
 20
3.34375
 30
0.0
 40
0.125
100
AcDbArc
 50
90.0
 51
180.0
  0
LINE
  5
16C
330
2
100
AcDbEntity
  8
0
100
AcDbLine
 10
-1.703124999999998
 20
3.46875
 30
0.0
 11
-1.578124999999998
 21
3.46875
 31
0.0
  0
ARC
  5
16D
330
2
100
AcDbEntity
  8
0
100
AcDbCircle
 10
-0.8807618390020018
 20
2.499776465431928
 30
0.0
 40
0.0986370922929614
100
AcDbArc
 50
273.858085945053
 51
302.2518233885159
  0
ARC
  5
16E
330
2
100
AcDbEntity
  8
0
100
AcDbCircle
 10
-0.8801138787568377
 20
2.499653910120049
 30
0.0
 40
0.0519900307039585
100
AcDbArc
 50
276.614747295821
 51
0.38141227539666
  0
ARC
  5
16F
330
2
100
AcDbEntity
  8
0
100
AcDbCircle
 10
-0.880761839002
 20
3.69122353456806
 30
0.0
 40
0.0986370922929614
100
AcDbArc
 50
57.74817661148467
 51
86.14191405494718
  0
ARC
  5
170
330
2
100
AcDbEntity
  8
0
100
AcDbCircle
 10
-0.8801138787568359
 20
3.691346089879936
 30
0.0
 40
0.0519900307039585
100
AcDbArc
 50
359.6185877246035
 51
83.38525270417924
  0
LINE
  5
171
330
2
100
AcDbEntity
  8
0
100
AcDbLine
 10
-1.828124999999998
 20
4.8125
 30
0.0
 11
-0.8281249999999947
 21
4.8125
 31
0.0
  0
LINE
  5
172
330
2
100
AcDbEntity
  8
0
100
AcDbLine
 10
-1.828124999999998
 20
4.8125
 30
0.0
 11
-1.828124999999998
 21
4.40625
 31
0.0
  0
CIRCLE
  5
173
330
2
100
AcDbEntity
  8
0
100
AcDbCircle
 10
-1.578124999999998
 20
4.5
 30
0.0
 40
0.078125
  0
ARC
  5
174
330
2
100
AcDbEntity
  8
0
100
AcDbCircle
 10
-1.578124999999998
 20
4.15625
 30
0.0
 40
0.125
100
AcDbArc
 50
0.0
 51
90.0
  0
ARC
  5
175
330
2
100
AcDbEntity
  8
0
100
AcDbCircle
 10
-1.703124999999998
 20
4.40625
 30
0.0
 40
0.125
100
AcDbArc
 50
180.0
 51
270.0
  0
LINE
  5
176
330
2
100
AcDbEntity
  8
0
100
AcDbLine
 10
-1.703124999999998
 20
4.28125
 30
0.0
 11
-1.578124999999998
 21
4.28125
 31
0.0
  0
ARC
  5
177
330
2
100
AcDbEntity
  8
0
100
AcDbCircle
 10
-0.880761839002
 20
4.124776465431928
 30
0.0
 40
0.0986370922929614
100
AcDbArc
 50
273.858085945053
 51
302.2518233885159
  0
ARC
  5
178
330
2
100
AcDbEntity
  8
0
100
AcDbCircle
 10
-0.8801138787568359
 20
4.124653910120049
 30
0.0
 40
0.0519900307039585
100
AcDbArc
 50
276.614747295821
 51
0.38141227539666
  0
LINE
  5
179
330
2
100
AcDbEntity
  8
0
100
AcDbLine
 10
-0.8281249999999947
 20
4.8125
 30
0.0
 11
-0.7656249999999947
 21
4.8125
 31
0.0
  0
LINE
  5
17B
330
2
100
AcDbEntity
  8
0
100
AcDbLine
 10
0.765625
 20
0.125
 30
0.0
 11
0.7656250000000053
 21
4.8125
 31
0.0
  0
LINE
  5
17C
330
2
100
AcDbEntity
  8
0
100
AcDbLine
 10
0.8281250000000053
 20
4.8125
 30
0.0
 11
0.828125
 21
0.125
 31
0.0
  0
LINE
  5
17D
330
2
100
AcDbEntity
  8
0
100
AcDbLine
 10
1.453125000000004
 20
3.4375
 30
0.0
 11
1.453125000000004
 21
4.0
 31
0.0
  0
LINE
  5
17E
330
2
100
AcDbEntity
  8
0
100
AcDbLine
 10
0.828125
 20
0.3125
 30
0.0
 11
1.828125000000002
 21
1.3125
 31
0.0
  0
ARC
  5
17F
330
2
100
AcDbEntity
  8
0
100
AcDbCircle
 10
0.703125
 20
0.125
 30
0.0
 40
0.125
100
AcDbArc
 50
270.0
 51
0.0
  0
ARC
  5
180
330
2
100
AcDbEntity
  8
0
100
AcDbCircle
 10
0.703125
 20
0.125
 30
0.0
 40
0.0625
100
AcDbArc
 50
270.0
 51
0.0
  0
ARC
  5
181
330
2
100
AcDbEntity
  8
0
100
AcDbCircle
 10
1.703125000000002
 20
2.625
 30
0.0
 40
0.125
100
AcDbArc
 50
270.0
 51
0.0
  0
ARC
  5
182
330
2
100
AcDbEntity
  8
0
100
AcDbCircle
 10
1.703125000000002
 20
1.5625
 30
0.0
 40
0.125
100
AcDbArc
 50
0.0
 51
90.0
  0
ARC
  5
183
330
2
100
AcDbEntity
  8
0
100
AcDbCircle
 10
1.703125000000002
 20
3.1875
 30
0.0
 40
0.125
100
AcDbArc
 50
0.0
 51
90.0
  0
LINE
  5
184
330
2
100
AcDbEntity
  8
0
100
AcDbLine
 10
1.453125000000002
 20
1.8125
 30
0.0
 11
1.453125000000002
 21
2.375
 31
0.0
  0
ARC
  5
185
330
2
100
AcDbEntity
  8
0
100
AcDbCircle
 10
0.8801138787568457
 20
2.249653910120049
 30
0.0
 40
0.0519900307039585
100
AcDbArc
 50
179.6185877246033
 51
263.385252704179
  0
ARC
  5
186
330
2
100
AcDbEntity
  8
0
100
AcDbCircle
 10
0.8807618390020098
 20
2.249776465431928
 30
0.0
 40
0.0986370922929614
100
AcDbArc
 50
237.7481766114841
 51
266.141914054947
  0
ARC
  5
187
330
2
100
AcDbEntity
  8
0
100
AcDbCircle
 10
0.8801138787568457
 20
1.816346089879936
 30
0.0
 40
0.0519900307039585
100
AcDbArc
 50
96.61474729582074
 51
180.3814122753964
  0
ARC
  5
188
330
2
100
AcDbEntity
  8
0
100
AcDbCircle
 10
0.8807618390020098
 20
1.81622353456806
 30
0.0
 40
0.0986370922929614
100
AcDbArc
 50
93.85808594505281
 51
122.2518233885153
  0
ARC
  5
189
330
2
100
AcDbEntity
  8
0
100
AcDbCircle
 10
0.8281250000000018
 20
1.407145916537131
 30
0.0
 40
0.1875
100
AcDbArc
 50
270.0
 51
90.0
  0
CIRCLE
  5
18A
330
2
100
AcDbEntity
  8
0
100
AcDbCircle
 10
1.578125000000002
 20
1.40625
 30
0.0
 40
0.078125
  0
ARC
  5
18D
330
2
100
AcDbEntity
  8
0
100
AcDbCircle
 10
1.578125000000002
 20
1.8125
 30
0.0
 40
0.125
100
AcDbArc
 50
180.0
 51
270.0
  0
LINE
  5
18E
330
2
100
AcDbEntity
  8
0
100
AcDbLine
 10
1.703125000000002
 20
1.6875
 30
0.0
 11
1.578125000000002
 21
1.6875
 31
0.0
  0
ARC
  5
18F
330
2
100
AcDbEntity
  8
0
100
AcDbCircle
 10
0.8801138787568483
 20
3.441346089879936
 30
0.0
 40
0.0519900307039585
100
AcDbArc
 50
96.61474729582074
 51
180.3814122753964
  0
ARC
  5
190
330
2
100
AcDbEntity
  8
0
100
AcDbCircle
 10
0.8807618390020124
 20
3.44122353456806
 30
0.0
 40
0.0986370922929614
100
AcDbArc
 50
93.85808594505281
 51
122.2518233885153
  0
ARC
  5
191
330
2
100
AcDbEntity
  8
0
100
AcDbCircle
 10
0.8801138787568483
 20
3.874653910120049
 30
0.0
 40
0.0519900307039585
100
AcDbArc
 50
179.6185877246033
 51
263.385252704179
  0
ARC
  5
192
330
2
100
AcDbEntity
  8
0
100
AcDbCircle
 10
0.8807618390020124
 20
3.874776465431928
 30
0.0
 40
0.0986370922929614
100
AcDbArc
 50
237.7481766114841
 51
266.141914054947
  0
ARC
  5
193
330
2
100
AcDbEntity
  8
0
100
AcDbCircle
 10
1.578125000000002
 20
2.375
 30
0.0
 40
0.125
100
AcDbArc
 50
90.0
 51
180.0
  0
LINE
  5
194
330
2
100
AcDbEntity
  8
0
100
AcDbLine
 10
1.703125000000002
 20
2.5
 30
0.0
 11
1.578125000000002
 21
2.5
 31
0.0
  0
ARC
  5
197
330
2
100
AcDbEntity
  8
0
100
AcDbCircle
 10
1.578125000000004
 20
3.4375
 30
0.0
 40
0.125
100
AcDbArc
 50
180.0
 51
270.0
  0
LINE
  5
198
330
2
100
AcDbEntity
  8
0
100
AcDbLine
 10
1.703125000000002
 20
3.3125
 30
0.0
 11
1.578125000000002
 21
3.3125
 31
0.0
  0
LINE
  5
199
330
2
100
AcDbEntity
  8
0
100
AcDbLine
 10
1.828125000000002
 20
1.5625
 30
0.0
 11
1.828125000000002
 21
1.3125
 31
0.0
  0
LINE
  5
19A
330
2
100
AcDbEntity
  8
0
100
AcDbLine
 10
1.828125000000002
 20
3.1875
 30
0.0
 11
1.828125000000002
 21
2.625
 31
0.0
  0
ARC
  5
19B
330
2
100
AcDbEntity
  8
0
100
AcDbCircle
 10
1.703125000000004
 20
4.25
 30
0.0
 40
0.125
100
AcDbArc
 50
270.0
 51
0.0
  0
LINE
  5
19C
330
2
100
AcDbEntity
  8
0
100
AcDbLine
 10
1.828125000000005
 20
4.8125
 30
0.0
 11
0.8281250000000053
 21
4.8125
 31
0.0
  0
LINE
  5
19D
330
2
100
AcDbEntity
  8
0
100
AcDbLine
 10
0.7656250000000053
 20
4.8125
 30
0.0
 11
0.8281250000000053
 21
4.8125
 31
0.0
  0
ARC
  5
19E
330
2
100
AcDbEntity
  8
0
100
AcDbCircle
 10
1.578125000000004
 20
4.0
 30
0.0
 40
0.125
100
AcDbArc
 50
90.0
 51
180.0
  0
LINE
  5
19F
330
2
100
AcDbEntity
  8
0
100
AcDbLine
 10
1.703125000000004
 20
4.125
 30
0.0
 11
1.578125000000004
 21
4.125
 31
0.0
  0
CIRCLE
  5
1A0
330
2
100
AcDbEntity
  8
0
100
AcDbCircle
 10
1.578125000000004
 20
4.5
 30
0.0
 40
0.078125
  0
LINE
  5
1A1
330
2
100
AcDbEntity
  8
0
100
AcDbLine
 10
1.828125000000005
 20
4.8125
 30
0.0
 11
1.828125000000004
 21
4.25
 31
0.0
  0
LINE
  5
1D5
330
2
100
AcDbEntity
  8
0
100
AcDbLine
 10
1.115681000000002
 20
3.904187
 30
0.0
 11
1.078875000000002
 21
3.940994
 31
0.0
  0
LINE
  5
1D6
330
2
100
AcDbEntity
  8
0
100
AcDbLine
 10
1.228819000000001
 20
3.904187
 30
0.0
 11
1.266375000000002
 21
3.941744
 31
0.0
  0
LINE
  5
1D7
330
2
100
AcDbEntity
  8
0
100
AcDbLine
 10
1.171875000000002
 20
3.6875
 30
0.0
 11
1.172625000000002
 21
3.6875
 31
0.0
  0
LINE
  5
1D8
330
2
100
AcDbEntity
  8
0
100
AcDbLine
 10
1.078875000000002
 20
4.5625
 30
0.0
 11
1.078875000000002
 21
3.7805
 31
0.0
  0
LINE
  5
1D9
330
2
100
AcDbEntity
  8
0
100
AcDbLine
 10
1.266375000000002
 20
3.78125
 30
0.0
 11
1.266375000000002
 21
4.5625
 31
0.0
  0
LINE
  5
1DA
330
2
100
AcDbEntity
  8
0
100
AcDbLine
 10
1.172625000000002
 20
3.6875
 30
0.0
 11
1.266375000000002
 21
3.78125
 31
0.0
  0
LINE
  5
1DB
330
2
100
AcDbEntity
  8
0
100
AcDbLine
 10
1.171875000000002
 20
3.6875
 30
0.0
 11
1.078875000000002
 21
3.7805
 31
0.0
  0
ARC
  5
1DC
330
2
100
AcDbEntity
  8
0
100
AcDbCircle
 10
1.171462000000002
 20
4.005476999999999
 30
0.0
 40
0.114071
100
AcDbArc
 50
54.808812
 51
127.538262
  0
ARC
  5
1DD
330
2
100
AcDbEntity
  8
0
100
AcDbCircle
 10
1.171462000000002
 20
4.158677000000001
 30
0.0
 40
0.114071
100
AcDbArc
 50
232.461738
 51
305.191188
  0
LINE
  5
1DE
330
2
100
AcDbEntity
  8
0
100
AcDbLine
 10
1.122753000000001
 20
3.897116000000001
 30
0.0
 11
1.078875000000002
 21
3.940994
 31
0.0
  0
LINE
  5
1DF
330
2
100
AcDbEntity
  8
0
100
AcDbLine
 10
1.221747000000002
 20
3.897116000000001
 30
0.0
 11
1.266375000000002
 21
3.941744
 31
0.0
  0
LINE
  5
1E0
330
2
100
AcDbEntity
  8
0
100
AcDbLine
 10
1.171875000000002
 20
3.847994
 30
0.0
 11
1.172625000000002
 21
3.847994
 31
0.0
  0
LINE
  5
1E1
330
2
100
AcDbEntity
  8
0
100
AcDbLine
 10
1.171875000000002
 20
3.6875
 30
0.0
 11
1.172625000000002
 21
3.6875
 31
0.0
  0
LINE
  5
1E2
330
2
100
AcDbEntity
  8
0
100
AcDbLine
 10
1.078875000000002
 20
4.4375
 30
0.0
 11
1.078875000000002
 21
3.7805
 31
0.0
  0
LINE
  5
1E3
330
2
100
AcDbEntity
  8
0
100
AcDbLine
 10
1.266375000000002
 20
3.78125
 30
0.0
 11
1.266375000000002
 21
4.4375
 31
0.0
  0
LINE
  5
1E4
330
2
100
AcDbEntity
  8
0
100
AcDbLine
 10
1.172625000000002
 20
3.6875
 30
0.0
 11
1.266375000000002
 21
3.78125
 31
0.0
  0
LINE
  5
1E5
330
2
100
AcDbEntity
  8
0
100
AcDbLine
 10
1.171875000000002
 20
3.6875
 30
0.0
 11
1.078875000000002
 21
3.7805
 31
0.0
  0
POINT
  5
1E6
330
2
100
AcDbEntity
  8
0
100
AcDbPoint
 10
1.172625000000002
 20
3.6875
 30
0.0
  0
ARC
  5
1E7
330
2
100
AcDbEntity
  8
0
100
AcDbCircle
 10
1.172250000000002
 20
3.946614
 30
0.0
 40
0.07
100
AcDbArc
 50
225.0
 51
314.9999999999999
  0
LINE
  5
1E8
330
2
100
AcDbEntity
  8
0
100
AcDbLine
 10
-1.228068999999998
 20
3.904187
 30
0.0
 11
-1.264874999999998
 21
3.940994
 31
0.0
  0
LINE
  5
1E9
330
2
100
AcDbEntity
  8
0
100
AcDbLine
 10
-1.114930999999998
 20
3.904187
 30
0.0
 11
-1.077374999999998
 21
3.941744
 31
0.0
  0
LINE
  5
1EA
330
2
100
AcDbEntity
  8
0
100
AcDbLine
 10
-1.171874999999998
 20
3.6875
 30
0.0
 11
-1.171124999999998
 21
3.6875
 31
0.0
  0
LINE
  5
1EB
330
2
100
AcDbEntity
  8
0
100
AcDbLine
 10
-1.264874999999998
 20
4.5625
 30
0.0
 11
-1.264874999999998
 21
3.7805
 31
0.0
  0
LINE
  5
1EC
330
2
100
AcDbEntity
  8
0
100
AcDbLine
 10
-1.077374999999998
 20
3.78125
 30
0.0
 11
-1.077374999999998
 21
4.5625
 31
0.0
  0
LINE
  5
1ED
330
2
100
AcDbEntity
  8
0
100
AcDbLine
 10
-1.171124999999998
 20
3.6875
 30
0.0
 11
-1.077374999999998
 21
3.78125
 31
0.0
  0
LINE
  5
1EE
330
2
100
AcDbEntity
  8
0
100
AcDbLine
 10
-1.171874999999998
 20
3.6875
 30
0.0
 11
-1.264874999999998
 21
3.7805
 31
0.0
  0
ARC
  5
1EF
330
2
100
AcDbEntity
  8
0
100
AcDbCircle
 10
-1.172287999999998
 20
4.005476999999999
 30
0.0
 40
0.114071
100
AcDbArc
 50
54.808812
 51
127.538262
  0
ARC
  5
1F0
330
2
100
AcDbEntity
  8
0
100
AcDbCircle
 10
-1.172287999999998
 20
4.158677000000001
 30
0.0
 40
0.114071
100
AcDbArc
 50
232.461738
 51
305.191188
  0
LINE
  5
1F1
330
2
100
AcDbEntity
  8
0
100
AcDbLine
 10
-1.220996999999998
 20
3.897116000000001
 30
0.0
 11
-1.264874999999998
 21
3.940994
 31
0.0
  0
LINE
  5
1F2
330
2
100
AcDbEntity
  8
0
100
AcDbLine
 10
-1.122002999999998
 20
3.897116000000001
 30
0.0
 11
-1.077374999999998
 21
3.941744
 31
0.0
  0
LINE
  5
1F3
330
2
100
AcDbEntity
  8
0
100
AcDbLine
 10
-1.171874999999998
 20
3.847994
 30
0.0
 11
-1.171124999999998
 21
3.847994
 31
0.0
  0
LINE
  5
1F4
330
2
100
AcDbEntity
  8
0
100
AcDbLine
 10
-1.171874999999998
 20
3.6875
 30
0.0
 11
-1.171124999999998
 21
3.6875
 31
0.0
  0
LINE
  5
1F5
330
2
100
AcDbEntity
  8
0
100
AcDbLine
 10
-1.264874999999998
 20
4.4375
 30
0.0
 11
-1.264874999999998
 21
3.7805
 31
0.0
  0
LINE
  5
1F6
330
2
100
AcDbEntity
  8
0
100
AcDbLine
 10
-1.077374999999998
 20
3.78125
 30
0.0
 11
-1.077374999999998
 21
4.4375
 31
0.0
  0
LINE
  5
1F7
330
2
100
AcDbEntity
  8
0
100
AcDbLine
 10
-1.171124999999998
 20
3.6875
 30
0.0
 11
-1.077374999999998
 21
3.78125
 31
0.0
  0
LINE
  5
1F8
330
2
100
AcDbEntity
  8
0
100
AcDbLine
 10
-1.171874999999998
 20
3.6875
 30
0.0
 11
-1.264874999999998
 21
3.7805
 31
0.0
  0
POINT
  5
1F9
330
2
100
AcDbEntity
  8
0
100
AcDbPoint
 10
-1.171124999999998
 20
3.6875
 30
0.0
  0
ARC
  5
1FA
330
2
100
AcDbEntity
  8
0
100
AcDbCircle
 10
-1.171499999999998
 20
3.946614
 30
0.0
 40
0.07
100
AcDbArc
 50
225.0
 51
315.0
  0
ARC
  5
1FB
330
2
100
AcDbEntity
  8
0
100
AcDbCircle
 10
-0.828125000000016
 20
3.899378177159257
 30
0.0
 40
0.1796218228407326
100
AcDbArc
 50
104.8383959934621
 51
112.0008925954695
  0
ARC
  5
1FC
330
2
100
AcDbEntity
  8
0
100
AcDbCircle
 10
-0.8298208820904782
 20
3.903575444365444
 30
0.0
 40
0.1750948958405606
100
AcDbArc
 50
112.0008925954738
 51
134.2879713357528
  0
ARC
  5
1FD
330
2
100
AcDbEntity
  8
0
100
AcDbCircle
 10
-0.8324451165187599
 20
3.906265726997059
 30
0.0
 40
0.1713366745894169
100
AcDbArc
 50
134.2879713357519
 51
156.9920431300936
  0
ARC
  5
1FE
330
2
100
AcDbEntity
  8
0
100
AcDbCircle
 10
-0.8365292306491465
 20
3.908000000000001
 30
0.0
 40
0.1668995932200081
100
AcDbArc
 50
156.9920431300973
 51
180.0000000000024
  0
ARC
  5
1FF
330
2
100
AcDbEntity
  8
0
100
AcDbCircle
 10
-0.8365292306491527
 20
3.907999999999987
 30
0.0
 40
0.1668995932200028
100
AcDbArc
 50
179.9999999999976
 51
203.0079568699036
  0
ARC
  5
200
330
2
100
AcDbEntity
  8
0
100
AcDbCircle
 10
-0.8324451165187594
 20
3.909734273002933
 30
0.0
 40
0.171336674589419
100
AcDbArc
 50
203.0079568699075
 51
225.7120286642488
  0
ARC
  5
201
330
2
100
AcDbEntity
  8
0
100
AcDbCircle
 10
-0.829820882090476
 20
3.912424555634548
 30
0.0
 40
0.1750948958405649
100
AcDbArc
 50
225.7120286642475
 51
247.9991074045259
  0
ARC
  5
202
330
2
100
AcDbEntity
  8
0
100
AcDbCircle
 10
-0.8281250000000178
 20
3.916621822840725
 30
0.0
 40
0.1796218228407254
100
AcDbArc
 50
247.9991074045302
 51
255.1616040065378
  0
ARC
  5
203
330
2
100
AcDbEntity
  8
0
100
AcDbCircle
 10
-0.8281249999999845
 20
3.870274298837508
 30
0.0
 40
0.1627257011624916
100
AcDbArc
 50
106.4204773143156
 51
109.9326970463661
  0
ARC
  5
204
330
2
100
AcDbEntity
  8
0
100
AcDbCircle
 10
-0.83480947780465
 20
3.888707091687124
 30
0.0
 40
0.1431183021570671
100
AcDbArc
 50
109.9326970463548
 51
131.2018769840313
  0
ARC
  5
205
330
2
100
AcDbEntity
  8
0
100
AcDbCircle
 10
-0.8451031620619567
 20
3.90046469529263
 30
0.0
 40
0.1274913645769353
100
AcDbArc
 50
131.201876984032
 51
154.680182614194
  0
ARC
  5
206
330
2
100
AcDbEntity
  8
0
100
AcDbCircle
 10
-0.8610299622835638
 20
3.908000000000001
 30
0.0
 40
0.10987194965101
100
AcDbArc
 50
154.6801826141993
 51
180.0000000000037
  0
ARC
  5
207
330
2
100
AcDbEntity
  8
0
100
AcDbCircle
 10
-0.8610299622835709
 20
3.907999999999987
 30
0.0
 40
0.1098719496510028
100
AcDbArc
 50
179.9999999999963
 51
205.3198173858006
  0
ARC
  5
208
330
2
100
AcDbEntity
  8
0
100
AcDbCircle
 10
-0.8451031620619482
 20
3.915535304707362
 30
0.0
 40
0.1274913645769427
100
AcDbArc
 50
205.3198173858044
 51
228.7981230159662
  0
ARC
  5
209
330
2
100
AcDbEntity
  8
0
100
AcDbCircle
 10
-0.8348094778046518
 20
3.927292908312861
 30
0.0
 40
0.1431183021570633
100
AcDbArc
 50
228.7981230159683
 51
250.0673029536455
  0
ARC
  5
20A
330
2
100
AcDbEntity
  8
0
100
AcDbCircle
 10
-0.8281249999999845
 20
3.94572570116248
 30
0.0
 40
0.1627257011624916
100
AcDbArc
 50
250.0673029536339
 51
253.5795226856844
  0
ARC
  5
20B
330
2
100
AcDbEntity
  8
0
100
AcDbCircle
 10
0.8281249999999965
 20
3.620274298837508
 30
0.0
 40
0.1627257011624917
100
AcDbArc
 50
70.06730295363376
 51
73.57952268568424
  0
ARC
  5
20C
330
2
100
AcDbEntity
  8
0
100
AcDbCircle
 10
0.8348094778046624
 20
3.638707091687124
 30
0.0
 40
0.1431183021570671
100
AcDbArc
 50
48.79812301596872
 51
70.06730295364524
  0
ARC
  5
20D
330
2
100
AcDbEntity
  8
0
100
AcDbCircle
 10
0.8451031620619691
 20
3.65046469529263
 30
0.0
 40
0.1274913645769353
100
AcDbArc
 50
25.31981738580601
 51
48.79812301596798
  0
ARC
  5
20E
330
2
100
AcDbEntity
  8
0
100
AcDbCircle
 10
0.8610299622835758
 20
3.658000000000001
 30
0.0
 40
0.1098719496510104
100
AcDbArc
 50
359.9999999999963
 51
25.31981738580055
  0
ARC
  5
20F
330
2
100
AcDbEntity
  8
0
100
AcDbCircle
 10
0.8610299622835829
 20
3.657999999999987
 30
0.0
 40
0.1098719496510032
100
AcDbArc
 50
334.6801826141995
 51
0.0000000000037053
  0
ARC
  5
210
330
2
100
AcDbEntity
  8
0
100
AcDbCircle
 10
0.8451031620619611
 20
3.665535304707362
 30
0.0
 40
0.1274913645769423
100
AcDbArc
 50
311.2018769840337
 51
334.6801826141955
  0
ARC
  5
211
330
2
100
AcDbEntity
  8
0
100
AcDbCircle
 10
0.8348094778046642
 20
3.677292908312861
 30
0.0
 40
0.1431183021570633
100
AcDbArc
 50
289.9326970463546
 51
311.2018769840317
  0
ARC
  5
212
330
2
100
AcDbEntity
  8
0
100
AcDbCircle
 10
0.8281249999999965
 20
3.69572570116248
 30
0.0
 40
0.1627257011624917
100
AcDbArc
 50
286.4204773143158
 51
289.9326970463663
  0
ARC
  5
213
330
2
100
AcDbEntity
  8
0
100
AcDbCircle
 10
0.8281250000000284
 20
3.649378177159257
 30
0.0
 40
0.1796218228407326
100
AcDbArc
 50
67.99910740453053
 51
75.16160400653787
  0
ARC
  5
214
330
2
100
AcDbEntity
  8
0
100
AcDbCircle
 10
0.8298208820904911
 20
3.653575444365444
 30
0.0
 40
0.1750948958405604
100
AcDbArc
 50
45.71202866424729
 51
67.99910740452631
  0
ARC
  5
215
330
2
100
AcDbEntity
  8
0
100
AcDbCircle
 10
0.8324451165187723
 20
3.656265726997059
 30
0.0
 40
0.1713366745894169
100
AcDbArc
 50
23.00795686990644
 51
45.71202866424806
  0
ARC
  5
216
330
2
100
AcDbEntity
  8
0
100
AcDbCircle
 10
0.836529230649159
 20
3.658000000000001
 30
0.0
 40
0.1668995932200081
100
AcDbArc
 50
359.9999999999976
 51
23.00795686990271
  0
ARC
  5
217
330
2
100
AcDbEntity
  8
0
100
AcDbCircle
 10
0.8365292306491652
 20
3.657999999999987
 30
0.0
 40
0.1668995932200028
100
AcDbArc
 50
336.9920431300965
 51
0.0000000000024393
  0
ARC
  5
218
330
2
100
AcDbEntity
  8
0
100
AcDbCircle
 10
0.8324451165187714
 20
3.659734273002933
 30
0.0
 40
0.1713366745894194
100
AcDbArc
 50
314.2879713357513
 51
336.9920431300926
  0
ARC
  5
219
330
2
100
AcDbEntity
  8
0
100
AcDbCircle
 10
0.8298208820904884
 20
3.662424555634548
 30
0.0
 40
0.1750948958405649
100
AcDbArc
 50
292.0008925954741
 51
314.2879713357525
  0
ARC
  5
21A
330
2
100
AcDbEntity
  8
0
100
AcDbCircle
 10
0.8281250000000302
 20
3.666621822840725
 30
0.0
 40
0.1796218228407254
100
AcDbArc
 50
284.8383959934621
 51
292.0008925954698
  0
ARC
  5
21B
330
2
100
AcDbEntity
  8
0
100
AcDbCircle
 10
0.8281249999999938
 20
1.995274298837504
 30
0.0
 40
0.1627257011624951
100
AcDbArc
 50
70.0673029536342
 51
73.57952268568459
  0
ARC
  5
21C
330
2
100
AcDbEntity
  8
0
100
AcDbCircle
 10
0.8348094778046598
 20
2.013707091687124
 30
0.0
 40
0.1431183021570671
100
AcDbArc
 50
48.79812301596872
 51
70.06730295364524
  0
ARC
  5
21D
330
2
100
AcDbEntity
  8
0
100
AcDbCircle
 10
0.8451031620619665
 20
2.02546469529263
 30
0.0
 40
0.1274913645769353
100
AcDbArc
 50
25.31981738580601
 51
48.79812301596798
  0
ARC
  5
21E
330
2
100
AcDbEntity
  8
0
100
AcDbCircle
 10
0.8610299622835731
 20
2.033000000000001
 30
0.0
 40
0.1098719496510104
100
AcDbArc
 50
359.9999999999963
 51
25.31981738580055
  0
ARC
  5
21F
330
2
100
AcDbEntity
  8
0
100
AcDbCircle
 10
0.8610299622835802
 20
2.032999999999989
 30
0.0
 40
0.1098719496510032
100
AcDbArc
 50
334.6801826141987
 51
0.000000000002779
  0
ARC
  5
220
330
2
100
AcDbEntity
  8
0
100
AcDbCircle
 10
0.8451031620619585
 20
2.040535304707358
 30
0.0
 40
0.1274913645769408
100
AcDbArc
 50
311.2018769840348
 51
334.680182614197
  0
ARC
  5
221
330
2
100
AcDbEntity
  8
0
100
AcDbCircle
 10
0.8348094778046615
 20
2.052292908312861
 30
0.0
 40
0.1431183021570633
100
AcDbArc
 50
289.9326970463546
 51
311.2018769840317
  0
ARC
  5
222
330
2
100
AcDbEntity
  8
0
100
AcDbCircle
 10
0.8281249999999938
 20
2.070725701162484
 30
0.0
 40
0.1627257011624951
100
AcDbArc
 50
286.4204773143154
 51
289.9326970463658
  0
ARC
  5
223
330
2
100
AcDbEntity
  8
0
100
AcDbCircle
 10
0.8281250000000258
 20
2.024378177159255
 30
0.0
 40
0.1796218228407343
100
AcDbArc
 50
67.99910740453075
 51
75.16160400653801
  0
ARC
  5
224
330
2
100
AcDbEntity
  8
0
100
AcDbCircle
 10
0.8298208820904875
 20
2.028575444365444
 30
0.0
 40
0.1750948958405608
100
AcDbArc
 50
45.71202866424707
 51
67.99910740452603
  0
ARC
  5
225
330
2
100
AcDbEntity
  8
0
100
AcDbCircle
 10
0.8324451165187696
 20
2.031265726997059
 30
0.0
 40
0.1713366745894169
100
AcDbArc
 50
23.00795686990644
 51
45.71202866424806
  0
ARC
  5
226
330
2
100
AcDbEntity
  8
0
100
AcDbCircle
 10
0.8365292306491563
 20
2.032999999999998
 30
0.0
 40
0.1668995932200094
100
AcDbArc
 50
359.9999999999988
 51
23.00795686990384
  0
ARC
  5
227
330
2
100
AcDbEntity
  8
0
100
AcDbCircle
 10
0.8365292306491625
 20
2.032999999999987
 30
0.0
 40
0.1668995932200028
100
AcDbArc
 50
336.9920431300965
 51
0.0000000000024393
  0
ARC
  5
228
330
2
100
AcDbEntity
  8
0
100
AcDbCircle
 10
0.8324451165187687
 20
2.034734273002929
 30
0.0
 40
0.171336674589418
100
AcDbArc
 50
314.2879713357522
 51
336.9920431300936
  0
ARC
  5
229
330
2
100
AcDbEntity
  8
0
100
AcDbCircle
 10
0.8298208820904858
 20
2.037424555634548
 30
0.0
 40
0.1750948958405649
100
AcDbArc
 50
292.0008925954741
 51
314.2879713357525
  0
ARC
  5
22A
330
2
100
AcDbEntity
  8
0
100
AcDbCircle
 10
0.8281250000000275
 20
2.041621822840728
 30
0.0
 40
0.1796218228407287
100
AcDbArc
 50
284.8383959934619
 51
292.0008925954694
  0
ARC
  5
22B
330
2
100
AcDbEntity
  8
0
100
AcDbCircle
 10
-0.8281250000000178
 20
2.274378177159255
 30
0.0
 40
0.1796218228407343
100
AcDbArc
 50
104.838395993462
 51
112.0008925954693
  0
ARC
  5
22C
330
2
100
AcDbEntity
  8
0
100
AcDbCircle
 10
-0.82982088209048
 20
2.278575444365444
 30
0.0
 40
0.1750948958405606
100
AcDbArc
 50
112.0008925954738
 51
134.2879713357528
  0
ARC
  5
22D
330
2
100
AcDbEntity
  8
0
100
AcDbCircle
 10
-0.8324451165187616
 20
2.281265726997059
 30
0.0
 40
0.1713366745894169
100
AcDbArc
 50
134.2879713357519
 51
156.9920431300936
  0
ARC
  5
22E
330
2
100
AcDbEntity
  8
0
100
AcDbCircle
 10
-0.8365292306491483
 20
2.282999999999998
 30
0.0
 40
0.1668995932200094
100
AcDbArc
 50
156.9920431300962
 51
180.0000000000013
  0
ARC
  5
22F
330
2
100
AcDbEntity
  8
0
100
AcDbCircle
 10
-0.8365292306491545
 20
2.282999999999987
 30
0.0
 40
0.1668995932200028
100
AcDbArc
 50
179.9999999999976
 51
203.0079568699036
  0
ARC
  5
230
330
2
100
AcDbEntity
  8
0
100
AcDbCircle
 10
-0.8324451165187612
 20
2.284734273002929
 30
0.0
 40
0.1713366745894176
100
AcDbArc
 50
203.0079568699064
 51
225.712028664248
  0
ARC
  5
231
330
2
100
AcDbEntity
  8
0
100
AcDbCircle
 10
-0.8298208820904778
 20
2.287424555634548
 30
0.0
 40
0.1750948958405649
100
AcDbArc
 50
225.7120286642475
 51
247.9991074045259
  0
ARC
  5
232
330
2
100
AcDbEntity
  8
0
100
AcDbCircle
 10
-0.8281250000000195
 20
2.291621822840728
 30
0.0
 40
0.1796218228407287
100
AcDbArc
 50
247.9991074045306
 51
255.1616040065381
  0
ARC
  5
233
330
2
100
AcDbEntity
  8
0
100
AcDbCircle
 10
-0.8281249999999862
 20
2.245274298837504
 30
0.0
 40
0.162725701162495
100
AcDbArc
 50
106.4204773143153
 51
109.9326970463657
  0
ARC
  5
234
330
2
100
AcDbEntity
  8
0
100
AcDbCircle
 10
-0.8348094778046518
 20
2.263707091687124
 30
0.0
 40
0.1431183021570671
100
AcDbArc
 50
109.9326970463548
 51
131.2018769840313
  0
ARC
  5
235
330
2
100
AcDbEntity
  8
0
100
AcDbCircle
 10
-0.8451031620619585
 20
2.27546469529263
 30
0.0
 40
0.1274913645769353
100
AcDbArc
 50
131.201876984032
 51
154.680182614194
  0
ARC
  5
236
330
2
100
AcDbEntity
  8
0
100
AcDbCircle
 10
-0.8610299622835655
 20
2.283000000000001
 30
0.0
 40
0.10987194965101
100
AcDbArc
 50
154.6801826141993
 51
180.0000000000037
  0
ARC
  5
237
330
2
100
AcDbEntity
  8
0
100
AcDbCircle
 10
-0.8610299622835727
 20
2.282999999999989
 30
0.0
 40
0.1098719496510028
100
AcDbArc
 50
179.9999999999972
 51
205.3198173858014
  0
ARC
  5
238
330
2
100
AcDbEntity
  8
0
100
AcDbCircle
 10
-0.84510316206195
 20
2.290535304707358
 30
0.0
 40
0.1274913645769412
100
AcDbArc
 50
205.319817385803
 51
228.7981230159652
  0
ARC
  5
239
330
2
100
AcDbEntity
  8
0
100
AcDbCircle
 10
-0.8348094778046535
 20
2.302292908312861
 30
0.0
 40
0.1431183021570633
100
AcDbArc
 50
228.7981230159683
 51
250.0673029536455
  0
ARC
  5
23A
330
2
100
AcDbEntity
  8
0
100
AcDbCircle
 10
-0.8281249999999862
 20
2.320725701162484
 30
0.0
 40
0.1627257011624949
100
AcDbArc
 50
250.0673029536343
 51
253.5795226856847
  0
ENDSEC
  0
SECTION
  2
OBJECTS
  0
DICTIONARY
  5
9
330
0
100
AcDbDictionary
281
     1
  3
ACAD_COLOR
350
2FF
  3
ACAD_GROUP
350
23
  3
ACAD_LAYOUT
350
D
  3
ACAD_MATERIAL
350
2FE
  3
ACAD_MLINESTYLE
350
24
  3
ACAD_PLOTSETTINGS
350
25
  3
ACAD_PLOTSTYLENAME
350
8
  3
ACAD_TABLESTYLE
350
300
  3
ACDBHEADERROUNDTRIPXREC
350
31D
  3
AcDbVariableDictionary
350
120
  0
DICTIONARY
  5
2FF
102
{ACAD_REACTORS
330
9
102
}
330
9
100
AcDbDictionary
281
     1
  0
DICTIONARY
  5
23
102
{ACAD_REACTORS
330
9
102
}
330
9
100
AcDbDictionary
281
     1
  0
DICTIONARY
  5
D
102
{ACAD_REACTORS
330
9
102
}
330
9
100
AcDbDictionary
281
     1
  3
Layout1
350
13
  3
Model
350
C
  0
DICTIONARY
  5
2FE
102
{ACAD_REACTORS
330
9
102
}
330
9
100
AcDbDictionary
281
     1
  0
DICTIONARY
  5
24
102
{ACAD_REACTORS
330
9
102
}
330
9
100
AcDbDictionary
281
     1
  3
STANDARD
350
27
  0
DICTIONARY
  5
25
102
{ACAD_REACTORS
330
9
102
}
330
9
100
AcDbDictionary
281
     1
  0
ACDBDICTIONARYWDFLT
  5
8
102
{ACAD_REACTORS
330
9
102
}
330
9
100
AcDbDictionary
281
     1
  3
Normal
350
7
100
AcDbDictionaryWithDefault
340
7
  0
DICTIONARY
  5
300
102
{ACAD_REACTORS
330
9
102
}
330
9
100
AcDbDictionary
281
     1
  3
Standard
350
301
  0
DICTIONARY
  5
31D
102
{ACAD_REACTORS
330
9
102
}
330
9
100
AcDbDictionary
281
     1
  3
COLORDICT
350
31E
  3
MATERIALDICT
350
31F
  0
DICTIONARY
  5
120
102
{ACAD_REACTORS
330
9
102
}
330
9
100
AcDbDictionary
281
     1
  3
CTABLESTYLE
350
30B
  3
HIDETEXT
350
31C
  0
LAYOUT
  5
13
102
{ACAD_REACTORS
330
D
102
}
102
{ACAD_XDICTIONARY
360
320
102
}
330
D
100
AcDbPlotSettings
  1

  2
HP LaserJet 2100 Series PS
  4

  6

 40
0.0
 41
0.0
 42
0.0
 43
0.0
 44
0.0
 45
0.0
 46
0.0
 47
0.0
 48
0.0
 49
0.0
140
0.0
141
0.0
142
1.0
143
1.0
 70
   688
 72
     0
 73
     0
 74
     5
  7

 75
    16
147
1.0
148
0.0
149
0.0
100
AcDbLayout
  1
Layout1
 70
     0
 71
     1
 10
0.0
 20
0.0
 11
12.0
 21
9.0
 12
0.0
 22
0.0
 32
0.0
 14
1.000000000000000E+20
 24
1.000000000000000E+20
 34
1.000000000000000E+20
 15
-1.000000000000000E+20
 25
-1.000000000000000E+20
 35
-1.000000000000000E+20
146
0.0
 13
0.0
 23
0.0
 33
0.0
 16
1.0
 26
0.0
 36
0.0
 17
0.0
 27
1.0
 37
0.0
 76
     0
330
E
  0
LAYOUT
  5
C
102
{ACAD_REACTORS
330
D
102
}
102
{ACAD_XDICTIONARY
360
322
102
}
330
D
100
AcDbPlotSettings
  1

  2
HP LaserJet 2100 Series PS
  4
Letter
  6

 40
5.365749835968018
 41
5.408084392547607
 42
5.4080810546875
 43
5.365753173828125
 44
215.8999938964844
 45
279.3999938964844
 46
0.0
 47
0.0
 48
0.0
 49
0.0
140
0.0
141
0.0
142
1.0
143
1.0
 70
 11952
 72
     0
 73
     1
 74
     0
  7

 75
     0
147
1.0
148
-45.90593634834403
149
3.176557431435829
100
AcDbLayout
  1
Model
 70
     1
 71
     0
 10
0.0
 20
0.0
 11
12.0
 21
9.0
 12
0.0
 22
0.0
 32
0.0
 14
0.0
 24
0.0
 34
0.0
 15
0.0
 25
0.0
 35
0.0
146
0.0
 13
0.0
 23
0.0
 33
0.0
 16
1.0
 26
0.0
 36
0.0
 17
0.0
 27
1.0
 37
0.0
 76
     0
330
2
  0
MLINESTYLE
  5
27
102
{ACAD_REACTORS
330
24
102
}
330
24
100
AcDbMlineStyle
  2
STANDARD
 70
     0
  3

 62
   256
 51
90.0
 52
90.0
 71
     2
 49
0.5
 62
   256
  6
BYLAYER
 49
-0.5
 62
   256
  6
BYLAYER
  0
ACDBPLACEHOLDER
  5
7
102
{ACAD_REACTORS
330
8
102
}
330
8
  0
ACAD_PROXY_OBJECT
  5
301
102
{ACAD_REACTORS
330
300
102
}
330
300
100
AcDbProxyObject
 90
      499
 91
      581
 95
   983063
 70
     0
 93
     1841
310
4214DD185B99185C9928B81E85EB51B8AE3F2E07A17AD46E2B8FC02B5E8DC0F42B1CFD028000000C1008070000C3001FDFF8000000C1003FBFF000000182007F7FE00000030400FEFFC00000060801FDFF8000000C1003FBFF00000018200000000000000681FA0B0000001820100E000186003FBFF000000182007F7FE000
310
00030400FEFFC00000060801FDFF8000000C1003FBFF000000182007F7FE000000304000AD7A3703D0AC73F4160000003040201C00030C007F7FE00000030400FEFFC00000060801FDFF8000000C1003FBFF000000182007F7FE00000030400FEFFC000000608000
340
16
340
16
340
16
 94
        0
  0
XRECORD
  5
31E
102
{ACAD_REACTORS
330
31D
102
}
330
31D
100
AcDbXrecord
340
2FF
  0
XRECORD
  5
31F
102
{ACAD_REACTORS
330
31D
102
}
330
31D
100
AcDbXrecord
340
2FE
  0
DICTIONARYVAR
  5
30B
102
{ACAD_REACTORS
330
120
102
}
330
120
100
DictionaryVariables
280
     0
  1
STANDARD
  0
DICTIONARYVAR
  5
31C
102
{ACAD_REACTORS
330
120
102
}
330
120
100
DictionaryVariables
280
     0
  1
0
  0
DICTIONARY
  5
320
330
13
100
AcDbDictionary
280
     1
281
     1
  3
ACAD_XREC_ROUNDTRIP
360
321
  0
DICTIONARY
  5
322
330
C
100
AcDbDictionary
280
     1
281
     1
  3
ACAD_XREC_ROUNDTRIP
360
323
  0
XRECORD
  5
321
102
{ACAD_REACTORS
330
320
102
}
330
320
100
AcDbXrecord
102
SHADEPLOT
 70
     0
102
SHADEPLOTRESLEVEL
 70
     2
102
SHADEPLOTCUSTOMDPI
 70
   300
  0
XRECORD
  5
323
102
{ACAD_REACTORS
330
322
102
}
330
322
100
AcDbXrecord
102
SHADEPLOT
 70
     0
102
SHADEPLOTRESLEVEL
 70
     2
102
SHADEPLOTCUSTOMDPI
 70
   300
  0
ENDSEC
  0
EOF
