  0
SECTION
  2
HEADER
  9
$ACADVER
  1
AC1015
  9
$ACADMAINTVER
 70
     6
  9
$DWGCODEPAGE
  3
ANSI_1252
  9
$INSBASE
 10
0.0
 20
0.0
 30
0.0
  9
$EXTMIN
 10
-6.420995256032942
 20
-0.0258883476483184
 30
0.0
  9
$EXTMAX
 10
6.452245256032942
 20
10.55269439870172
 30
0.0
  9
$LIMMIN
 10
0.0
 20
0.0
  9
$LIMMAX
 10
16.0
 20
21.0
  9
$ORTHOMODE
 70
     1
  9
$REGENMODE
 70
     1
  9
$FILLMODE
 70
     1
  9
$QTEXTMODE
 70
     0
  9
$MIRRTEXT
 70
     0
  9
$LTSCALE
 40
0.5
  9
$ATTMODE
 70
     1
  9
$TEXTSIZE
 40
0.18
  9
$TRACEWID
 40
0.05
  9
$TEXTSTYLE
  7
STANDARD
  9
$CLAYER
  8
0
  9
$CELTYPE
  6
BYLAYER
  9
$CECOLOR
 62
   256
  9
$CELTSCALE
 40
1.0
  9
$DISPSILH
 70
     0
  9
$DIMSCALE
 40
2.0
  9
$DIMASZ
 40
0.125
  9
$DIMEXO
 40
0.062
  9
$DIMDLI
 40
0.375
  9
$DIMRND
 40
0.0
  9
$DIMDLE
 40
0.0
  9
$DIMEXE
 40
0.08
  9
$DIMTP
 40
0.0
  9
$DIMTM
 40
0.0
  9
$DIMTXT
 40
0.09
  9
$DIMCEN
 40
-0.06
  9
$DIMTSZ
 40
0.0
  9
$DIMTOL
 70
     0
  9
$DIMLIM
 70
     0
  9
$DIMTIH
 70
     1
  9
$DIMTOH
 70
     1
  9
$DIMSE1
 70
     0
  9
$DIMSE2
 70
     0
  9
$DIMTAD
 70
     0
  9
$DIMZIN
 70
     0
  9
$DIMBLK
  1

  9
$DIMASO
 70
     0
  9
$DIMSHO
 70
     1
  9
$DIMPOST
  1

  9
$DIMAPOST
  1

  9
$DIMALT
 70
     0
  9
$DIMALTD
 70
     2
  9
$DIMALTF
 40
25.4
  9
$DIMLFAC
 40
1.0
  9
$DIMTOFL
 70
     0
  9
$DIMTVP
 40
0.0
  9
$DIMTIX
 70
     0
  9
$DIMSOXD
 70
     0
  9
$DIMSAH
 70
     0
  9
$DIMBLK1
  1

  9
$DIMBLK2
  1

  9
$DIMSTYLE
  2
STANDARD
  9
$DIMCLRD
 70
     0
  9
$DIMCLRE
 70
     0
  9
$DIMCLRT
 70
     0
  9
$DIMTFAC
 40
1.0
  9
$DIMGAP
 40
0.09
  9
$DIMJUST
 70
     0
  9
$DIMSD1
 70
     0
  9
$DIMSD2
 70
     0
  9
$DIMTOLJ
 70
     1
  9
$DIMTZIN
 70
     0
  9
$DIMALTZ
 70
     0
  9
$DIMALTTZ
 70
     0
  9
$DIMUPT
 70
     0
  9
$DIMDEC
 70
     5
  9
$DIMTDEC
 70
     5
  9
$DIMALTU
 70
     5
  9
$DIMALTTD
 70
     2
  9
$DIMTXSTY
  7
STANDARD
  9
$DIMAUNIT
 70
     0
  9
$DIMADEC
 70
     0
  9
$DIMALTRND
 40
0.0
  9
$DIMAZIN
 70
     0
  9
$DIMDSEP
 70
    46
  9
$DIMATFIT
 70
     3
  9
$DIMFRAC
 70
     2
  9
$DIMLDRBLK
  1

  9
$DIMLUNIT
 70
     5
  9
$DIMLWD
 70
    -2
  9
$DIMLWE
 70
    -2
  9
$DIMTMOVE
 70
     2
  9
$LUNITS
 70
     5
  9
$LUPREC
 70
     5
  9
$SKETCHINC
 40
0.1
  9
$FILLETRAD
 40
0.0
  9
$AUNITS
 70
     0
  9
$AUPREC
 70
     0
  9
$MENU
  1
acad
  9
$ELEVATION
 40
0.0
  9
$PELEVATION
 40
0.0
  9
$THICKNESS
 40
0.0
  9
$LIMCHECK
 70
     0
  9
$CHAMFERA
 40
0.0
  9
$CHAMFERB
 40
0.0
  9
$CHAMFERC
 40
0.0
  9
$CHAMFERD
 40
0.0
  9
$SKPOLY
 70
     0
  9
$TDCREATE
 40
2450710.881116319
  9
$TDUCREATE
 40
2450711.214449653
  9
$TDUPDATE
 40
2454175.660259306
  9
$TDUUPDATE
 40
2454175.993592639
  9
$TDINDWG
 40
0.2433088194
  9
$TDUSRTIMER
 40
0.2433088194
  9
$USRTIMER
 70
     1
  9
$ANGBASE
 50
0.0
  9
$ANGDIR
 70
     0
  9
$PDMODE
 70
     0
  9
$PDSIZE
 40
0.0
  9
$PLINEWID
 40
0.0
  9
$SPLFRAME
 70
     0
  9
$SPLINETYPE
 70
     6
  9
$SPLINESEGS
 70
     8
  9
$HANDSEED
  5
315
  9
$SURFTAB1
 70
     6
  9
$SURFTAB2
 70
     6
  9
$SURFTYPE
 70
     6
  9
$SURFU
 70
     6
  9
$SURFV
 70
     6
  9
$UCSBASE
  2

  9
$UCSNAME
  2

  9
$UCSORG
 10
0.0
 20
0.0
 30
0.0
  9
$UCSXDIR
 10
1.0
 20
0.0
 30
0.0
  9
$UCSYDIR
 10
0.0
 20
1.0
 30
0.0
  9
$UCSORTHOREF
  2

  9
$UCSORTHOVIEW
 70
     0
  9
$UCSORGTOP
 10
0.0
 20
0.0
 30
0.0
  9
$UCSORGBOTTOM
 10
0.0
 20
0.0
 30
0.0
  9
$UCSORGLEFT
 10
0.0
 20
0.0
 30
0.0
  9
$UCSORGRIGHT
 10
0.0
 20
0.0
 30
0.0
  9
$UCSORGFRONT
 10
0.0
 20
0.0
 30
0.0
  9
$UCSORGBACK
 10
0.0
 20
0.0
 30
0.0
  9
$PUCSBASE
  2

  9
$PUCSNAME
  2

  9
$PUCSORG
 10
0.0
 20
0.0
 30
0.0
  9
$PUCSXDIR
 10
1.0
 20
0.0
 30
0.0
  9
$PUCSYDIR
 10
0.0
 20
1.0
 30
0.0
  9
$PUCSORTHOREF
  2

  9
$PUCSORTHOVIEW
 70
     0
  9
$PUCSORGTOP
 10
0.0
 20
0.0
 30
0.0
  9
$PUCSORGBOTTOM
 10
0.0
 20
0.0
 30
0.0
  9
$PUCSORGLEFT
 10
0.0
 20
0.0
 30
0.0
  9
$PUCSORGRIGHT
 10
0.0
 20
0.0
 30
0.0
  9
$PUCSORGFRONT
 10
0.0
 20
0.0
 30
0.0
  9
$PUCSORGBACK
 10
0.0
 20
0.0
 30
0.0
  9
$USERI1
 70
     0
  9
$USERI2
 70
     0
  9
$USERI3
 70
     0
  9
$USERI4
 70
     0
  9
$USERI5
 70
     0
  9
$USERR1
 40
0.0
  9
$USERR2
 40
0.0
  9
$USERR3
 40
0.0
  9
$USERR4
 40
0.0
  9
$USERR5
 40
0.0
  9
$WORLDVIEW
 70
     1
  9
$SHADEDGE
 70
     3
  9
$SHADEDIF
 70
    70
  9
$TILEMODE
 70
     1
  9
$MAXACTVP
 70
    16
  9
$PINSBASE
 10
0.0
 20
0.0
 30
0.0
  9
$PLIMCHECK
 70
     0
  9
$PEXTMIN
 10
1.000000000000000E+20
 20
1.000000000000000E+20
 30
1.000000000000000E+20
  9
$PEXTMAX
 10
-1.000000000000000E+20
 20
-1.000000000000000E+20
 30
-1.000000000000000E+20
  9
$PLIMMIN
 10
0.0
 20
0.0
  9
$PLIMMAX
 10
12.0
 20
9.0
  9
$UNITMODE
 70
     0
  9
$VISRETAIN
 70
     0
  9
$PLINEGEN
 70
     0
  9
$PSLTSCALE
 70
     0
  9
$TREEDEPTH
 70
  3020
  9
$CMLSTYLE
  2
STANDARD
  9
$CMLJUST
 70
     0
  9
$CMLSCALE
 40
1.0
  9
$PROXYGRAPHICS
 70
     1
  9
$MEASUREMENT
 70
     0
  9
$CELWEIGHT
370
    -1
  9
$ENDCAPS
280
     0
  9
$JOINSTYLE
280
     0
  9
$LWDISPLAY
290
     0
  9
$INSUNITS
 70
     0
  9
$HYPERLINKBASE
  1

  9
$STYLESHEET
  1

  9
$XEDIT
290
     1
  9
$CEPSNTYPE
380
     0
  9
$PSTYLEMODE
290
     1
  9
$FINGERPRINTGUID
  2
{A56850F9-C481-11D5-BE3F-00508B5FCD51}
  9
$VERSIONGUID
  2
{ECABF6EE-8510-42DB-BB26-98C2BFB115E4}
  9
$EXTNAMES
290
     1
  9
$PSVPSCALE
 40
0.0
  9
$OLESTARTUP
290
     0
  0
ENDSEC
  0
SECTION
  2
CLASSES
  0
CLASS
  1
DICTIONARYVAR
  2
AcDbDictionaryVar
  3
AutoCAD 2000
 90
        0
280
     0
281
     0
  0
CLASS
  1
LWPOLYLINE
  2
AcDbPolyline
  3
AutoCAD 2000
 90
        0
280
     0
281
     1
  0
CLASS
  1
ACDBDICTIONARYWDFLT
  2
AcDbDictionaryWithDefault
  3
AutoCAD 2000
 90
        0
280
     0
281
     0
  0
CLASS
  1
ACDBPLACEHOLDER
  2
AcDbPlaceHolder
  3
ObjectDBX Classes
 90
        0
280
     0
281
     0
  0
CLASS
  1
LAYOUT
  2
AcDbLayout
  3
ObjectDBX Classes
 90
        0
280
     0
281
     0
  0
CLASS
  1
LONG_TRANSACTION
  2
AcDbLongTransaction
  3
ObjectDBX Classes
 90
   -65536
280
     1
281
     0
  0
CLASS
  1
LWPOLYLINE
  2
AcDbPolyline
  3
AutoCAD 2000
 90
        0
280
     0
281
     1
  0
CLASS
  1
HATCH
  2
AcDbHatch
  3
AutoCAD 2000
 90
        0
280
     0
281
     1
  0
CLASS
  1
XRECORD
  2
AcDbXrecord
  3
AutoCAD 2000
 90
        0
280
     0
281
     0
  0
CLASS
  1
LONG_TRANSACTION
  2
AcDbLongTransaction
  3
ObjectDBX Classes
 90
   -65536
280
     1
281
     0
  0
CLASS
  1
LWPOLYLINE
  2
AcDbPolyline
  3
AutoCAD 2000
 90
        0
280
     0
281
     1
  0
CLASS
  1
HATCH
  2
AcDbHatch
  3
AutoCAD 2000
 90
        0
280
     0
281
     1
  0
CLASS
  1
XRECORD
  2
AcDbXrecord
  3
AutoCAD 2000
 90
        0
280
     0
281
     0
  0
CLASS
  1
LONG_TRANSACTION
  2
AcDbLongTransaction
  3
ObjectDBX Classes
 90
   -65536
280
     1
281
     0
  0
CLASS
  1
LWPOLYLINE
  2
AcDbPolyline
  3
AutoCAD 2000
 90
        0
280
     0
281
     1
  0
CLASS
  1
HATCH
  2
AcDbHatch
  3
AutoCAD 2000
 90
        0
280
     0
281
     1
  0
CLASS
  1
XRECORD
  2
AcDbXrecord
  3
AutoCAD 2000
 90
        0
280
     0
281
     0
  0
CLASS
  1
LONG_TRANSACTION
  2
AcDbLongTransaction
  3
ObjectDBX Classes
 90
   -65536
280
     1
281
     0
  0
CLASS
  1
LWPOLYLINE
  2
AcDbPolyline
  3
AutoCAD 2000
 90
        0
280
     0
281
     1
  0
CLASS
  1
HATCH
  2
AcDbHatch
  3
AutoCAD 2000
 90
        0
280
     0
281
     1
  0
CLASS
  1
XRECORD
  2
AcDbXrecord
  3
AutoCAD 2000
 90
        0
280
     0
281
     0
  0
CLASS
  1
LONG_TRANSACTION
  2
AcDbLongTransaction
  3
ObjectDBX Classes
 90
   -65536
280
     1
281
     0
  0
CLASS
  1
LWPOLYLINE
  2
AcDbPolyline
  3
AutoCAD 2000
 90
        0
280
     0
281
     1
  0
CLASS
  1
HATCH
  2
AcDbHatch
  3
AutoCAD 2000
 90
        0
280
     0
281
     1
  0
CLASS
  1
XRECORD
  2
AcDbXrecord
  3
AutoCAD 2000
 90
        0
280
     0
281
     0
  0
CLASS
  1
LONG_TRANSACTION
  2
AcDbLongTransaction
  3
ObjectDBX Classes
 90
   -65536
280
     1
281
     0
  0
CLASS
  1
LWPOLYLINE
  2
AcDbPolyline
  3
AutoCAD 2000
 90
        0
280
     0
281
     1
  0
CLASS
  1
HATCH
  2
AcDbHatch
  3
AutoCAD 2000
 90
        0
280
     0
281
     1
  0
CLASS
  1
XRECORD
  2
AcDbXrecord
  3
AutoCAD 2000
 90
        0
280
     0
281
     0
  0
CLASS
  1
LONG_TRANSACTION
  2
AcDbLongTransaction
  3
ObjectDBX Classes
 90
   -65536
280
     1
281
     0
  0
CLASS
  1
LWPOLYLINE
  2
AcDbPolyline
  3
AutoCAD 2000
 90
        0
280
     0
281
     1
  0
CLASS
  1
HATCH
  2
AcDbHatch
  3
AutoCAD 2000
 90
        0
280
     0
281
     1
  0
CLASS
  1
XRECORD
  2
AcDbXrecord
  3
AutoCAD 2000
 90
        0
280
     0
281
     0
  0
CLASS
  1
LONG_TRANSACTION
  2
AcDbLongTransaction
  3
ObjectDBX Classes
 90
   -65536
280
     1
281
     0
  0
CLASS
  1
LWPOLYLINE
  2
AcDbPolyline
  3
AutoCAD 2000
 90
        0
280
     0
281
     1
  0
CLASS
  1
HATCH
  2
AcDbHatch
  3
AutoCAD 2000
 90
        0
280
     0
281
     1
  0
CLASS
  1
XRECORD
  2
AcDbXrecord
  3
AutoCAD 2000
 90
        0
280
     0
281
     0
  0
CLASS
  1
LONG_TRANSACTION
  2
AcDbLongTransaction
  3
ObjectDBX Classes
 90
   -65536
280
     1
281
     0
  0
CLASS
  1
LWPOLYLINE
  2
AcDbPolyline
  3
AutoCAD 2000
 90
        0
280
     0
281
     1
  0
CLASS
  1
HATCH
  2
AcDbHatch
  3
AutoCAD 2000
 90
        0
280
     0
281
     1
  0
CLASS
  1
XRECORD
  2
AcDbXrecord
  3
AutoCAD 2000
 90
        0
280
     0
281
     0
  0
CLASS
  1
LONG_TRANSACTION
  2
AcDbLongTransaction
  3
ObjectDBX Classes
 90
   -65536
280
     1
281
     0
  0
CLASS
  1
LWPOLYLINE
  2
AcDbPolyline
  3
AutoCAD 2000
 90
        0
280
     0
281
     1
  0
CLASS
  1
HATCH
  2
AcDbHatch
  3
AutoCAD 2000
 90
        0
280
     0
281
     1
  0
CLASS
  1
XRECORD
  2
AcDbXrecord
  3
AutoCAD 2000
 90
        0
280
     0
281
     0
  0
CLASS
  1
LONG_TRANSACTION
  2
AcDbLongTransaction
  3
ObjectDBX Classes
 90
   -65536
280
     1
281
     0
  0
CLASS
  1
LWPOLYLINE
  2
AcDbPolyline
  3
AutoCAD 2000
 90
        0
280
     0
281
     1
  0
CLASS
  1
HATCH
  2
AcDbHatch
  3
AutoCAD 2000
 90
        0
280
     0
281
     1
  0
CLASS
  1
XRECORD
  2
AcDbXrecord
  3
AutoCAD 2000
 90
        0
280
     0
281
     0
  0
CLASS
  1
LONG_TRANSACTION
  2
AcDbLongTransaction
  3
ObjectDBX Classes
 90
   -65536
280
     1
281
     0
  0
CLASS
  1
LWPOLYLINE
  2
AcDbPolyline
  3
AutoCAD 2000
 90
        0
280
     0
281
     1
  0
CLASS
  1
HATCH
  2
AcDbHatch
  3
AutoCAD 2000
 90
        0
280
     0
281
     1
  0
CLASS
  1
XRECORD
  2
AcDbXrecord
  3
AutoCAD 2000
 90
        0
280
     0
281
     0
  0
CLASS
  1
LONG_TRANSACTION
  2
AcDbLongTransaction
  3
ObjectDBX Classes
 90
   -65536
280
     1
281
     0
  0
CLASS
  1
LWPOLYLINE
  2
AcDbPolyline
  3
AutoCAD 2000
 90
        0
280
     0
281
     1
  0
CLASS
  1
HATCH
  2
AcDbHatch
  3
AutoCAD 2000
 90
        0
280
     0
281
     1
  0
CLASS
  1
XRECORD
  2
AcDbXrecord
  3
AutoCAD 2000
 90
        0
280
     0
281
     0
  0
CLASS
  1
LONG_TRANSACTION
  2
AcDbLongTransaction
  3
ObjectDBX Classes
 90
   -65536
280
     1
281
     0
  0
CLASS
  1
LWPOLYLINE
  2
AcDbPolyline
  3
AutoCAD 2000
 90
        0
280
     0
281
     1
  0
CLASS
  1
HATCH
  2
AcDbHatch
  3
AutoCAD 2000
 90
        0
280
     0
281
     1
  0
CLASS
  1
XRECORD
  2
AcDbXrecord
  3
AutoCAD 2000
 90
        0
280
     0
281
     0
  0
CLASS
  1
LONG_TRANSACTION
  2
AcDbLongTransaction
  3
ObjectDBX Classes
 90
   -65536
280
     1
281
     0
  0
CLASS
  1
LWPOLYLINE
  2
AcDbPolyline
  3
AutoCAD 2000
 90
        0
280
     0
281
     1
  0
CLASS
  1
HATCH
  2
AcDbHatch
  3
AutoCAD 2000
 90
        0
280
     0
281
     1
  0
CLASS
  1
XRECORD
  2
AcDbXrecord
  3
AutoCAD 2000
 90
        0
280
     0
281
     0
  0
CLASS
  1
LONG_TRANSACTION
  2
AcDbLongTransaction
  3
ObjectDBX Classes
 90
   -65536
280
     1
281
     0
  0
CLASS
  1
LWPOLYLINE
  2
AcDbPolyline
  3
AutoCAD 2000
 90
        0
280
     0
281
     1
  0
CLASS
  1
HATCH
  2
AcDbHatch
  3
AutoCAD 2000
 90
        0
280
     0
281
     1
  0
CLASS
  1
XRECORD
  2
AcDbXrecord
  3
AutoCAD 2000
 90
        0
280
     0
281
     0
  0
CLASS
  1
LONG_TRANSACTION
  2
AcDbLongTransaction
  3
ObjectDBX Classes
 90
   -65536
280
     1
281
     0
  0
CLASS
  1
LWPOLYLINE
  2
AcDbPolyline
  3
AutoCAD 2000
 90
        0
280
     0
281
     1
  0
CLASS
  1
HATCH
  2
AcDbHatch
  3
AutoCAD 2000
 90
        0
280
     0
281
     1
  0
CLASS
  1
XRECORD
  2
AcDbXrecord
  3
AutoCAD 2000
 90
        0
280
     0
281
     0
  0
CLASS
  1
LONG_TRANSACTION
  2
AcDbLongTransaction
  3
ObjectDBX Classes
 90
   -65536
280
     1
281
     0
  0
CLASS
  1
LWPOLYLINE
  2
AcDbPolyline
  3
AutoCAD 2000
 90
        0
280
     0
281
     1
  0
CLASS
  1
HATCH
  2
AcDbHatch
  3
AutoCAD 2000
 90
        0
280
     0
281
     1
  0
CLASS
  1
XRECORD
  2
AcDbXrecord
  3
AutoCAD 2000
 90
        0
280
     0
281
     0
  0
CLASS
  1
LONG_TRANSACTION
  2
AcDbLongTransaction
  3
ObjectDBX Classes
 90
   -65536
280
     1
281
     0
  0
CLASS
  1
LWPOLYLINE
  2
AcDbPolyline
  3
AutoCAD 2000
 90
        0
280
     0
281
     1
  0
CLASS
  1
HATCH
  2
AcDbHatch
  3
AutoCAD 2000
 90
        0
280
     0
281
     1
  0
CLASS
  1
XRECORD
  2
AcDbXrecord
  3
AutoCAD 2000
 90
        0
280
     0
281
     0
  0
CLASS
  1
TABLESTYLE
  2
AcDbTableStyle
  3
ObjectDBX Classes
 90
     2047
280
     1
281
     0
  0
ENDSEC
  0
SECTION
  2
TABLES
  0
TABLE
  2
VPORT
  5
1D
330
0
100
AcDbSymbolTable
 70
     2
  0
VPORT
  5
305
330
1D
100
AcDbSymbolTableRecord
100
AcDbViewportTableRecord
  2
*Active
 70
     0
 10
0.0
 20
0.0
 11
1.0
 21
1.0
 12
4.789298362214034
 22
10.6382504577444
 13
0.0
 23
0.0
 14
0.03125
 24
0.03125
 15
0.25
 25
0.25
 16
0.0
 26
0.0
 36
1.0
 17
0.0
 27
0.0
 37
0.0
 40
21.68274176505124
 41
1.814583333333333
 42
50.0
 43
0.0
 44
0.0
 50
0.0
 51
0.0
 71
     0
 72
   100
 73
     1
 74
     0
 75
     0
 76
     0
 77
     0
 78
     0
281
     0
 65
     1
110
0.0
120
0.0
130
0.0
111
1.0
121
0.0
131
0.0
112
0.0
122
1.0
132
0.0
 79
     0
146
0.0
  0
ENDTAB
  0
TABLE
  2
LTYPE
  5
18
330
0
100
AcDbSymbolTable
 70
     2
  0
LTYPE
  5
19
330
18
100
AcDbSymbolTableRecord
100
AcDbLinetypeTableRecord
  2
BYBLOCK
 70
     0
  3

 72
    65
 73
     0
 40
0.0
  0
LTYPE
  5
1A
330
18
100
AcDbSymbolTableRecord
100
AcDbLinetypeTableRecord
  2
BYLAYER
 70
     0
  3

 72
    65
 73
     0
 40
0.0
  0
LTYPE
  5
A
330
18
100
AcDbSymbolTableRecord
100
AcDbLinetypeTableRecord
  2
CONTINUOUS
 70
     0
  3
Solid line
 72
    65
 73
     0
 40
0.0
  0
LTYPE
  5
2F8
330
18
100
AcDbSymbolTableRecord
100
AcDbLinetypeTableRecord
  2
HIDDEN
 70
     0
  3
Hidden __ __ __ __ __ __ __ __ __ __ __ __ __ _
 72
    65
 73
     2
 40
0.375
 49
0.25
 74
     0
 49
-0.125
 74
     0
  0
ENDTAB
  0
TABLE
  2
LAYER
  5
14
330
0
100
AcDbSymbolTable
 70
     2
  0
LAYER
  5
6
330
14
100
AcDbSymbolTableRecord
100
AcDbLayerTableRecord
  2
0
 70
     0
 62
     7
  6
CONTINUOUS
370
    -3
390
7
  0
ENDTAB
  0
TABLE
  2
STYLE
  5
15
330
0
100
AcDbSymbolTable
 70
     2
  0
STYLE
  5
16
330
15
100
AcDbSymbolTableRecord
100
AcDbTextStyleTableRecord
  2
STANDARD
 70
     0
 40
0.0
 41
1.0
 50
0.0
 71
     0
 42
0.18
  3
TXT
  4

  0
ENDTAB
  0
TABLE
  2
VIEW
  5
1B
330
0
100
AcDbSymbolTable
 70
     0
  0
ENDTAB
  0
TABLE
  2
UCS
  5
1C
330
0
100
AcDbSymbolTable
 70
     0
  0
ENDTAB
  0
TABLE
  2
APPID
  5
1F
330
0
100
AcDbSymbolTable
 70
     1
  0
APPID
  5
20
330
1F
100
AcDbSymbolTableRecord
100
AcDbRegAppTableRecord
  2
ACAD
 70
     0
  0
ENDTAB
  0
TABLE
  2
DIMSTYLE
  5
21
330
0
100
AcDbSymbolTable
 70
     1
100
AcDbDimStyleTable
  0
DIMSTYLE
105
28
330
21
100
AcDbSymbolTableRecord
100
AcDbDimStyleTableRecord
  2
STANDARD
 70
     0
  3

  4

340
16
  0
ENDTAB
  0
TABLE
  2
BLOCK_RECORD
  5
1
330
0
100
AcDbSymbolTable
 70
     0
  0
BLOCK_RECORD
  5
2
330
1
100
AcDbSymbolTableRecord
100
AcDbBlockTableRecord
  2
*MODEL_SPACE
340
C
  0
BLOCK_RECORD
  5
E
330
1
100
AcDbSymbolTableRecord
100
AcDbBlockTableRecord
  2
*PAPER_SPACE
340
13
  0
ENDTAB
  0
ENDSEC
  0
SECTION
  2
BLOCKS
  0
BLOCK
  5
5
330
2
100
AcDbEntity
  8
0
100
AcDbBlockBegin
  2
*MODEL_SPACE
 70
     0
 10
0.0
 20
0.0
 30
0.0
  3
*MODEL_SPACE
  1

  4

  0
ENDBLK
  5
B
330
2
100
AcDbEntity
  8
0
100
AcDbBlockEnd
  0
BLOCK
  5
11
330
E
100
AcDbEntity
 67
     1
  8
0
100
AcDbBlockBegin
  2
*PAPER_SPACE
 70
     0
 10
0.0
 20
0.0
 30
0.0
  3
*PAPER_SPACE
  1

  4

  0
ENDBLK
  5
12
330
E
100
AcDbEntity
 67
     1
  8
0
100
AcDbBlockEnd
  0
ENDSEC
  0
SECTION
  2
ENTITIES
  0
LINE
  5
12C
330
2
100
AcDbEntity
  8
0
100
AcDbLine
 10
0.015625
 20
10.2143060510534
 30
0.0
 11
-0.671875
 21
10.2143060510534
 31
0.0
  0
LINE
  5
12D
330
2
100
AcDbEntity
  8
0
100
AcDbLine
 10
0.0156250000000018
 20
8.464306051053402
 30
0.0
 11
-0.6718749999999982
 21
8.464306051053402
 31
0.0
  0
LINE
  5
12E
330
2
100
AcDbEntity
  8
0
100
AcDbLine
 10
-1.003428823869164
 20
9.700026920174203
 30
0.0
 11
-0.8470751912572281
 21
9.856380552786135
 31
0.0
  0
LINE
  5
12F
330
2
100
AcDbEntity
  8
0
100
AcDbLine
 10
-0.828125
 20
10.4018060510534
 30
0.0
 11
-0.8281249999999982
 21
8.659389022459777
 31
0.0
  0
LINE
  5
130
330
2
100
AcDbEntity
  8
0
100
AcDbLine
 10
-0.7656249999999982
 20
8.5968885510534
 30
0.0
 11
-0.765625
 21
10.4018060510534
 31
0.0
  0
LINE
  5
131
330
2
100
AcDbEntity
  8
0
100
AcDbLine
 10
-1.828125
 20
10.4643060510534
 30
0.0
 11
-0.890625
 21
10.4643060510534
 31
0.0
  0
LINE
  5
132
330
2
100
AcDbEntity
  8
0
100
AcDbLine
 10
-0.890625
 20
10.5268060510534
 30
0.0
 11
-1.828125
 21
10.5268060510534
 31
0.0
  0
LINE
  5
133
330
2
100
AcDbEntity
  8
0
100
AcDbLine
 10
-1.828125
 20
10.5268060510534
 30
0.0
 11
-1.828125
 21
10.4643060510534
 31
0.0
  0
ARC
  5
136
330
2
100
AcDbEntity
  8
0
100
AcDbCircle
 10
-0.890625
 20
10.4018060510534
 30
0.0
 40
0.125
100
AcDbArc
 50
0.0
 51
90.00000000000003
  0
ARC
  5
137
330
2
100
AcDbEntity
  8
0
100
AcDbCircle
 10
-0.890625
 20
10.4018060510534
 30
0.0
 40
0.0625
100
AcDbArc
 50
0.0
 51
90.00000000000003
  0
ARC
  5
138
330
2
100
AcDbEntity
  8
0
100
AcDbCircle
 10
-0.7656247961904921
 20
10.21430608048609
 30
0.0
 40
0.0937497961904958
100
AcDbArc
 50
269.9998754405332
 51
359.9999820120257
  0
ARC
  5
139
330
2
100
AcDbEntity
  8
0
100
AcDbCircle
 10
-0.8928249999999975
 20
9.902130361528904
 30
0.0
 40
0.0647
100
AcDbArc
 50
314.9999999999999
 51
0.0000000000001158
  0
LINE
  5
13A
330
2
100
AcDbEntity
  8
0
100
AcDbLine
 10
-0.9709019119345816
 20
9.667500008239621
 30
0.0
 11
-1.003428823869164
 21
9.700026920174203
 31
0.0
  0
LINE
  5
13B
330
2
100
AcDbEntity
  8
0
100
AcDbLine
 10
-0.9709019119345816
 20
9.667500008239621
 30
0.0
 11
-0.8281249999999991
 21
9.589306051053406
 31
0.0
  0
LINE
  5
13C
330
2
100
AcDbEntity
  8
0
100
AcDbLine
 10
-0.8281249999999982
 20
8.659389022459777
 30
0.0
 11
-0.6993339999999986
 21
8.530597051053402
 31
0.0
  0
ARC
  5
13D
330
2
100
AcDbEntity
  8
0
100
AcDbCircle
 10
-0.7656249756018045
 20
8.464305539686098
 30
0.0
 40
0.0937499756032012
100
AcDbArc
 50
0.0003125247576568
 51
45.00023153210226
  0
LINE
  5
13E
330
2
100
AcDbEntity
  8
0
100
AcDbLine
 10
0.921875
 20
10.5268060510534
 30
0.0
 11
1.859375
 21
10.52680605105341
 31
0.0
  0
LINE
  5
13F
330
2
100
AcDbEntity
  8
0
100
AcDbLine
 10
1.859375
 20
10.46430605105341
 30
0.0
 11
0.921875
 21
10.4643060510534
 31
0.0
  0
LINE
  5
140
330
2
100
AcDbEntity
  8
0
100
AcDbLine
 10
1.034678823869164
 20
9.700026920174206
 30
0.0
 11
0.878325191257229
 21
9.856380552786138
 31
0.0
  0
LINE
  5
141
330
2
100
AcDbEntity
  8
0
100
AcDbLine
 10
0.796875
 20
8.596888551053404
 30
0.0
 11
0.796875
 21
10.4018060510534
 31
0.0
  0
LINE
  5
142
330
2
100
AcDbEntity
  8
0
100
AcDbLine
 10
0.859375
 20
10.4018060510534
 30
0.0
 11
0.859375
 21
8.659158761450186
 31
0.0
  0
ARC
  5
143
330
2
100
AcDbEntity
  8
0
100
AcDbCircle
 10
0.7968747961904921
 20
10.2143060804861
 30
0.0
 40
0.0937497961904967
100
AcDbArc
 50
180.0000179879748
 51
270.0001245594668
  0
ARC
  5
144
330
2
100
AcDbEntity
  8
0
100
AcDbCircle
 10
0.921875
 20
10.4018060510534
 30
0.0
 40
0.125
100
AcDbArc
 50
90.00000000000003
 51
180.0
  0
LINE
  5
145
330
2
100
AcDbEntity
  8
0
100
AcDbLine
 10
0.015625
 20
10.2143060510534
 30
0.0
 11
0.703125
 21
10.21430605105341
 31
0.0
  0
ARC
  5
148
330
2
100
AcDbEntity
  8
0
100
AcDbCircle
 10
0.921875
 20
10.4018060510534
 30
0.0
 40
0.0625
100
AcDbArc
 50
90.00000000000003
 51
180.0
  0
ARC
  5
149
330
2
100
AcDbEntity
  8
0
100
AcDbCircle
 10
0.9240749999999984
 20
9.902130361528908
 30
0.0
 40
0.0647
100
AcDbArc
 50
179.9999999999999
 51
225.0000000000001
  0
LINE
  5
14A
330
2
100
AcDbEntity
  8
0
100
AcDbLine
 10
0.8631660000000014
 20
8.663180051053402
 30
0.0
 11
0.7305840000000003
 21
8.530597051053405
 31
0.0
  0
LINE
  5
14B
330
2
100
AcDbEntity
  8
0
100
AcDbLine
 10
0.0156250000000018
 20
8.464306051053402
 30
0.0
 11
0.703125
 21
8.464306051053402
 31
0.0
  0
ARC
  5
14C
330
2
100
AcDbEntity
  8
0
100
AcDbCircle
 10
0.7968749756018081
 20
8.464305539686098
 30
0.0
 40
0.0937499756032038
100
AcDbArc
 50
134.9997684678985
 51
179.9996874752428
  0
LINE
  5
14D
330
2
100
AcDbEntity
  8
0
100
AcDbLine
 10
1.002151911934583
 20
9.667500008239625
 30
0.0
 11
1.034678823869164
 21
9.700026920174206
 31
0.0
  0
LINE
  5
14E
330
2
100
AcDbEntity
  8
0
100
AcDbLine
 10
1.002151911934583
 20
9.667500008239625
 30
0.0
 11
0.859375
 21
9.589306051053409
 31
0.0
  0
LINE
  5
14F
330
2
100
AcDbEntity
  8
0
100
AcDbLine
 10
1.859375
 20
10.52680605105341
 30
0.0
 11
1.859375
 21
10.46430605105341
 31
0.0
  0
LINE
  5
150
330
2
100
AcDbEntity
  8
0
100
AcDbLine
 10
-0.703125
 20
0.0625
 30
0.0
 11
0.703125
 21
0.0625
 31
0.0
  0
LINE
  5
151
330
2
100
AcDbEntity
  8
0
100
AcDbLine
 10
0.703125
 20
0.0
 30
0.0
 11
-0.703125
 21
0.0
 31
0.0
  0
LINE
  5
155
330
2
100
AcDbEntity
  8
0
100
AcDbLine
 10
-0.7656249999999947
 20
4.8125
 30
0.0
 11
-0.765625
 21
0.125
 31
0.0
  0
LINE
  5
156
330
2
100
AcDbEntity
  8
0
100
AcDbLine
 10
-0.828125
 20
0.125
 30
0.0
 11
-0.8281249999999947
 21
4.8125
 31
0.0
  0
LINE
  5
157
330
2
100
AcDbEntity
  8
0
100
AcDbLine
 10
-1.453124999999998
 20
3.59375
 30
0.0
 11
-1.453124999999998
 21
4.15625
 31
0.0
  0
LINE
  5
158
330
2
100
AcDbEntity
  8
0
100
AcDbLine
 10
-0.828125
 20
0.3125
 30
0.0
 11
-1.828124999999998
 21
1.3125
 31
0.0
  0
ARC
  5
159
330
2
100
AcDbEntity
  8
0
100
AcDbCircle
 10
-0.703125
 20
0.125
 30
0.0
 40
0.125
100
AcDbArc
 50
180.0
 51
270.0
  0
ARC
  5
15A
330
2
100
AcDbEntity
  8
0
100
AcDbCircle
 10
-0.703125
 20
0.125
 30
0.0
 40
0.0625
100
AcDbArc
 50
180.0
 51
270.0
  0
LINE
  5
15D
330
2
100
AcDbEntity
  8
0
100
AcDbLine
 10
-1.453124999999998
 20
1.96875
 30
0.0
 11
-1.453124999999998
 21
2.53125
 31
0.0
  0
LINE
  5
15E
330
2
100
AcDbEntity
  8
0
100
AcDbLine
 10
-1.828124999999998
 20
1.71875
 30
0.0
 11
-1.828124999999998
 21
1.3125
 31
0.0
  0
CIRCLE
  5
15F
330
2
100
AcDbEntity
  8
0
100
AcDbCircle
 10
-1.578124999999998
 20
1.40625
 30
0.0
 40
0.078125
  0
ARC
  5
160
330
2
100
AcDbEntity
  8
0
100
AcDbCircle
 10
-1.578124999999998
 20
1.96875
 30
0.0
 40
0.125
100
AcDbArc
 50
270.0
 51
0.0
  0
ARC
  5
161
330
2
100
AcDbEntity
  8
0
100
AcDbCircle
 10
-1.703124999999998
 20
1.71875
 30
0.0
 40
0.125
100
AcDbArc
 50
90.0
 51
180.0
  0
LINE
  5
162
330
2
100
AcDbEntity
  8
0
100
AcDbLine
 10
-1.703124999999998
 20
1.84375
 30
0.0
 11
-1.578124999999998
 21
1.84375
 31
0.0
  0
ARC
  5
163
330
2
100
AcDbEntity
  8
0
100
AcDbCircle
 10
-0.8281249999999982
 20
1.407145916537131
 30
0.0
 40
0.1875
100
AcDbArc
 50
90.0
 51
270.0
  0
ARC
  5
164
330
2
100
AcDbEntity
  8
0
100
AcDbCircle
 10
-0.8807618390020018
 20
2.06622353456806
 30
0.0
 40
0.0986370922929614
100
AcDbArc
 50
57.74817661148467
 51
86.14191405494718
  0
ARC
  5
165
330
2
100
AcDbEntity
  8
0
100
AcDbCircle
 10
-0.8801138787568377
 20
2.066346089879936
 30
0.0
 40
0.0519900307039585
100
AcDbArc
 50
359.6185877246035
 51
83.38525270417924
  0
LINE
  5
166
330
2
100
AcDbEntity
  8
0
100
AcDbLine
 10
-1.828124999999998
 20
3.34375
 30
0.0
 11
-1.828124999999998
 21
2.78125
 31
0.0
  0
ARC
  5
167
330
2
100
AcDbEntity
  8
0
100
AcDbCircle
 10
-1.578124999999998
 20
2.53125
 30
0.0
 40
0.125
100
AcDbArc
 50
0.0
 51
90.0
  0
ARC
  5
168
330
2
100
AcDbEntity
  8
0
100
AcDbCircle
 10
-1.703124999999998
 20
2.78125
 30
0.0
 40
0.125
100
AcDbArc
 50
180.0
 51
270.0
  0
LINE
  5
169
330
2
100
AcDbEntity
  8
0
100
AcDbLine
 10
-1.703124999999998
 20
2.65625
 30
0.0
 11
-1.578124999999998
 21
2.65625
 31
0.0
  0
ARC
  5
16A
330
2
100
AcDbEntity
  8
0
100
AcDbCircle
 10
-1.578124999999998
 20
3.59375
 30
0.0
 40
0.125
100
AcDbArc
 50
270.0
 51
0.0
  0
ARC
  5
16B
330
2
100
AcDbEntity
  8
0
100
AcDbCircle
 10
-1.703124999999998
 20
3.34375
 30
0.0
 40
0.125
100
AcDbArc
 50
90.0
 51
180.0
  0
LINE
  5
16C
330
2
100
AcDbEntity
  8
0
100
AcDbLine
 10
-1.703124999999998
 20
3.46875
 30
0.0
 11
-1.578124999999998
 21
3.46875
 31
0.0
  0
ARC
  5
16D
330
2
100
AcDbEntity
  8
0
100
AcDbCircle
 10
-0.8807618390020018
 20
2.499776465431928
 30
0.0
 40
0.0986370922929614
100
AcDbArc
 50
273.858085945053
 51
302.2518233885159
  0
ARC
  5
16E
330
2
100
AcDbEntity
  8
0
100
AcDbCircle
 10
-0.8801138787568377
 20
2.499653910120049
 30
0.0
 40
0.0519900307039585
100
AcDbArc
 50
276.614747295821
 51
0.38141227539666
  0
ARC
  5
16F
330
2
100
AcDbEntity
  8
0
100
AcDbCircle
 10
-0.880761839002
 20
3.69122353456806
 30
0.0
 40
0.0986370922929614
100
AcDbArc
 50
57.74817661148467
 51
86.14191405494718
  0
ARC
  5
170
330
2
100
AcDbEntity
  8
0
100
AcDbCircle
 10
-0.8801138787568359
 20
3.691346089879936
 30
0.0
 40
0.0519900307039585
100
AcDbArc
 50
359.6185877246035
 51
83.38525270417924
  0
LINE
  5
171
330
2
100
AcDbEntity
  8
0
100
AcDbLine
 10
-1.828124999999998
 20
4.8125
 30
0.0
 11
-0.8281249999999947
 21
4.8125
 31
0.0
  0
LINE
  5
172
330
2
100
AcDbEntity
  8
0
100
AcDbLine
 10
-1.828124999999998
 20
4.8125
 30
0.0
 11
-1.828124999999998
 21
4.40625
 31
0.0
  0
CIRCLE
  5
173
330
2
100
AcDbEntity
  8
0
100
AcDbCircle
 10
-1.578124999999998
 20
4.5
 30
0.0
 40
0.078125
  0
ARC
  5
174
330
2
100
AcDbEntity
  8
0
100
AcDbCircle
 10
-1.578124999999998
 20
4.15625
 30
0.0
 40
0.125
100
AcDbArc
 50
0.0
 51
90.0
  0
ARC
  5
175
330
2
100
AcDbEntity
  8
0
100
AcDbCircle
 10
-1.703124999999998
 20
4.40625
 30
0.0
 40
0.125
100
AcDbArc
 50
180.0
 51
270.0
  0
LINE
  5
176
330
2
100
AcDbEntity
  8
0
100
AcDbLine
 10
-1.703124999999998
 20
4.28125
 30
0.0
 11
-1.578124999999998
 21
4.28125
 31
0.0
  0
ARC
  5
177
330
2
100
AcDbEntity
  8
0
100
AcDbCircle
 10
-0.880761839002
 20
4.124776465431928
 30
0.0
 40
0.0986370922929614
100
AcDbArc
 50
273.858085945053
 51
302.2518233885159
  0
ARC
  5
178
330
2
100
AcDbEntity
  8
0
100
AcDbCircle
 10
-0.8801138787568359
 20
4.124653910120049
 30
0.0
 40
0.0519900307039585
100
AcDbArc
 50
276.614747295821
 51
0.38141227539666
  0
LINE
  5
179
330
2
100
AcDbEntity
  8
0
100
AcDbLine
 10
-0.8281249999999947
 20
4.8125
 30
0.0
 11
-0.7656249999999947
 21
4.8125
 31
0.0
  0
LINE
  5
17B
330
2
100
AcDbEntity
  8
0
100
AcDbLine
 10
0.765625
 20
0.125
 30
0.0
 11
0.7656250000000053
 21
4.8125
 31
0.0
  0
LINE
  5
17C
330
2
100
AcDbEntity
  8
0
100
AcDbLine
 10
0.8281250000000053
 20
4.8125
 30
0.0
 11
0.828125
 21
0.125
 31
0.0
  0
LINE
  5
17D
330
2
100
AcDbEntity
  8
0
100
AcDbLine
 10
1.453125000000004
 20
3.4375
 30
0.0
 11
1.453125000000004
 21
4.0
 31
0.0
  0
LINE
  5
17E
330
2
100
AcDbEntity
  8
0
100
AcDbLine
 10
0.828125
 20
0.3125
 30
0.0
 11
1.828125000000002
 21
1.3125
 31
0.0
  0
ARC
  5
17F
330
2
100
AcDbEntity
  8
0
100
AcDbCircle
 10
0.703125
 20
0.125
 30
0.0
 40
0.125
100
AcDbArc
 50
270.0
 51
0.0
  0
ARC
  5
180
330
2
100
AcDbEntity
  8
0
100
AcDbCircle
 10
0.703125
 20
0.125
 30
0.0
 40
0.0625
100
AcDbArc
 50
270.0
 51
0.0
  0
ARC
  5
181
330
2
100
AcDbEntity
  8
0
100
AcDbCircle
 10
1.703125000000002
 20
2.625
 30
0.0
 40
0.125
100
AcDbArc
 50
270.0
 51
0.0
  0
ARC
  5
182
330
2
100
AcDbEntity
  8
0
100
AcDbCircle
 10
1.703125000000002
 20
1.5625
 30
0.0
 40
0.125
100
AcDbArc
 50
0.0
 51
90.0
  0
ARC
  5
183
330
2
100
AcDbEntity
  8
0
100
AcDbCircle
 10
1.703125000000002
 20
3.1875
 30
0.0
 40
0.125
100
AcDbArc
 50
0.0
 51
90.0
  0
LINE
  5
184
330
2
100
AcDbEntity
  8
0
100
AcDbLine
 10
1.453125000000002
 20
1.8125
 30
0.0
 11
1.453125000000002
 21
2.375
 31
0.0
  0
ARC
  5
185
330
2
100
AcDbEntity
  8
0
100
AcDbCircle
 10
0.8801138787568457
 20
2.249653910120049
 30
0.0
 40
0.0519900307039585
100
AcDbArc
 50
179.6185877246033
 51
263.385252704179
  0
ARC
  5
186
330
2
100
AcDbEntity
  8
0
100
AcDbCircle
 10
0.8807618390020098
 20
2.249776465431928
 30
0.0
 40
0.0986370922929614
100
AcDbArc
 50
237.7481766114841
 51
266.141914054947
  0
ARC
  5
187
330
2
100
AcDbEntity
  8
0
100
AcDbCircle
 10
0.8801138787568457
 20
1.816346089879936
 30
0.0
 40
0.0519900307039585
100
AcDbArc
 50
96.61474729582074
 51
180.3814122753964
  0
ARC
  5
188
330
2
100
AcDbEntity
  8
0
100
AcDbCircle
 10
0.8807618390020098
 20
1.81622353456806
 30
0.0
 40
0.0986370922929614
100
AcDbArc
 50
93.85808594505281
 51
122.2518233885153
  0
ARC
  5
189
330
2
100
AcDbEntity
  8
0
100
AcDbCircle
 10
0.8281250000000018
 20
1.407145916537131
 30
0.0
 40
0.1875
100
AcDbArc
 50
270.0
 51
90.0
  0
CIRCLE
  5
18A
330
2
100
AcDbEntity
  8
0
100
AcDbCircle
 10
1.578125000000002
 20
1.40625
 30
0.0
 40
0.078125
  0
ARC
  5
18D
330
2
100
AcDbEntity
  8
0
100
AcDbCircle
 10
1.578125000000002
 20
1.8125
 30
0.0
 40
0.125
100
AcDbArc
 50
180.0
 51
270.0
  0
LINE
  5
18E
330
2
100
AcDbEntity
  8
0
100
AcDbLine
 10
1.703125000000002
 20
1.6875
 30
0.0
 11
1.578125000000002
 21
1.6875
 31
0.0
  0
ARC
  5
18F
330
2
100
AcDbEntity
  8
0
100
AcDbCircle
 10
0.8801138787568483
 20
3.441346089879936
 30
0.0
 40
0.0519900307039585
100
AcDbArc
 50
96.61474729582074
 51
180.3814122753964
  0
ARC
  5
190
330
2
100
AcDbEntity
  8
0
100
AcDbCircle
 10
0.8807618390020124
 20
3.44122353456806
 30
0.0
 40
0.0986370922929614
100
AcDbArc
 50
93.85808594505281
 51
122.2518233885153
  0
ARC
  5
191
330
2
100
AcDbEntity
  8
0
100
AcDbCircle
 10
0.8801138787568483
 20
3.874653910120049
 30
0.0
 40
0.0519900307039585
100
AcDbArc
 50
179.6185877246033
 51
263.385252704179
  0
ARC
  5
192
330
2
100
AcDbEntity
  8
0
100
AcDbCircle
 10
0.8807618390020124
 20
3.874776465431928
 30
0.0
 40
0.0986370922929614
100
AcDbArc
 50
237.7481766114841
 51
266.141914054947
  0
ARC
  5
193
330
2
100
AcDbEntity
  8
0
100
AcDbCircle
 10
1.578125000000002
 20
2.375
 30
0.0
 40
0.125
100
AcDbArc
 50
90.0
 51
180.0
  0
LINE
  5
194
330
2
100
AcDbEntity
  8
0
100
AcDbLine
 10
1.703125000000002
 20
2.5
 30
0.0
 11
1.578125000000002
 21
2.5
 31
0.0
  0
ARC
  5
197
330
2
100
AcDbEntity
  8
0
100
AcDbCircle
 10
1.578125000000004
 20
3.4375
 30
0.0
 40
0.125
100
AcDbArc
 50
180.0
 51
270.0
  0
LINE
  5
198
330
2
100
AcDbEntity
  8
0
100
AcDbLine
 10
1.703125000000002
 20
3.3125
 30
0.0
 11
1.578125000000002
 21
3.3125
 31
0.0
  0
LINE
  5
199
330
2
100
AcDbEntity
  8
0
100
AcDbLine
 10
1.828125000000002
 20
1.5625
 30
0.0
 11
1.828125000000002
 21
1.3125
 31
0.0
  0
LINE
  5
19A
330
2
100
AcDbEntity
  8
0
100
AcDbLine
 10
1.828125000000002
 20
3.1875
 30
0.0
 11
1.828125000000002
 21
2.625
 31
0.0
  0
ARC
  5
19B
330
2
100
AcDbEntity
  8
0
100
AcDbCircle
 10
1.703125000000004
 20
4.25
 30
0.0
 40
0.125
100
AcDbArc
 50
270.0
 51
0.0
  0
LINE
  5
19C
330
2
100
AcDbEntity
  8
0
100
AcDbLine
 10
1.828125000000005
 20
4.8125
 30
0.0
 11
0.8281250000000053
 21
4.8125
 31
0.0
  0
LINE
  5
19D
330
2
100
AcDbEntity
  8
0
100
AcDbLine
 10
0.7656250000000053
 20
4.8125
 30
0.0
 11
0.8281250000000053
 21
4.8125
 31
0.0
  0
ARC
  5
19E
330
2
100
AcDbEntity
  8
0
100
AcDbCircle
 10
1.578125000000004
 20
4.0
 30
0.0
 40
0.125
100
AcDbArc
 50
90.0
 51
180.0
  0
LINE
  5
19F
330
2
100
AcDbEntity
  8
0
100
AcDbLine
 10
1.703125000000004
 20
4.125
 30
0.0
 11
1.578125000000004
 21
4.125
 31
0.0
  0
CIRCLE
  5
1A0
330
2
100
AcDbEntity
  8
0
100
AcDbCircle
 10
1.578125000000004
 20
4.5
 30
0.0
 40
0.078125
  0
LINE
  5
1A1
330
2
100
AcDbEntity
  8
0
100
AcDbLine
 10
1.828125000000005
 20
4.8125
 30
0.0
 11
1.828125000000004
 21
4.25
 31
0.0
  0
LINE
  5
1A3
330
2
100
AcDbEntity
  8
0
100
AcDbLine
 10
6.45224525603294
 20
0.3125
 30
0.0
 11
6.452245256032942
 21
4.8125
 31
0.0
  0
LINE
  5
1A4
330
2
100
AcDbEntity
  8
0
100
AcDbLine
 10
6.389745256032942
 20
4.8125
 30
0.0
 11
6.38974525603294
 21
0.3125
 31
0.0
  0
LINE
  5
1A5
330
2
100
AcDbEntity
  8
0
100
AcDbLine
 10
5.26474525603294
 20
3.4375
 30
0.0
 11
5.26474525603294
 21
4.0
 31
0.0
  0
LINE
  5
1A6
330
2
100
AcDbEntity
  8
0
100
AcDbLine
 10
4.58861925603294
 20
0.261374
 30
0.0
 11
5.63974525603294
 21
1.3125
 31
0.0
  0
LINE
  5
1A7
330
2
100
AcDbEntity
  8
0
  6
HIDDEN
100
AcDbLine
 10
6.13216225603294
 20
0.0625
 30
0.0
 11
4.522328256032941
 21
0.0625
 31
0.0
  0
LINE
  5
1A8
330
2
100
AcDbEntity
  8
0
100
AcDbLine
 10
6.13216225603294
 20
0.0
 30
0.0
 11
4.389745256032938
 21
0.0
 31
0.0
  0
LINE
  5
1AA
330
2
100
AcDbEntity
  8
0
100
AcDbLine
 10
4.389745256032938
 20
0.0
 30
0.0
 11
4.389745256032938
 21
0.0625
 31
0.0
  0
LINE
  5
1AB
330
2
100
AcDbEntity
  8
0
100
AcDbLine
 10
4.389745256032938
 20
0.0625
 30
0.0
 11
4.522328256032941
 21
0.0625
 31
0.0
  0
LINE
  5
1AC
330
2
100
AcDbEntity
  8
0
100
AcDbLine
 10
6.33861925603294
 20
0.261374
 30
0.0
 11
6.38974525603294
 21
0.3125
 31
0.0
  0
LINE
  5
1AE
330
2
100
AcDbEntity
  8
0
100
AcDbLine
 10
6.13216225603294
 20
0.0625
 30
0.0
 11
6.13216225603294
 21
0.0
 31
0.0
  0
LINE
  5
1B0
330
2
100
AcDbEntity
  8
0
100
AcDbLine
 10
6.38974525603294
 20
0.3125
 30
0.0
 11
6.45224525603294
 21
0.3125
 31
0.0
  0
LINE
  5
1B1
330
2
100
AcDbEntity
  8
0
100
AcDbLine
 10
5.26474525603294
 20
1.8125
 30
0.0
 11
5.26474525603294
 21
2.375
 31
0.0
  0
LINE
  5
1B2
330
2
100
AcDbEntity
  8
0
100
AcDbLine
 10
5.63974525603294
 20
1.5625
 30
0.0
 11
5.63974525603294
 21
1.3125
 31
0.0
  0
ARC
  5
1B7
330
2
100
AcDbEntity
  8
0
100
AcDbCircle
 10
5.51474525603294
 20
1.5625
 30
0.0
 40
0.125
100
AcDbArc
 50
0.0
 51
90.0
  0
LINE
  5
1B8
330
2
100
AcDbEntity
  8
0
100
AcDbLine
 10
5.51474525603294
 20
1.816000000000003
 30
0.0
 11
5.51474525603294
 21
2.25
 31
0.0
  0
ARC
  5
1B9
330
2
100
AcDbEntity
  8
0
100
AcDbCircle
 10
5.38974525603294
 20
1.8125
 30
0.0
 40
0.125
100
AcDbArc
 50
180.0
 51
270.0
  0
LINE
  5
1BA
330
2
100
AcDbEntity
  8
0
100
AcDbLine
 10
5.51474525603294
 20
1.6875
 30
0.0
 11
5.38974525603294
 21
1.6875
 31
0.0
  0
LINE
  5
1BE
330
2
100
AcDbEntity
  8
0
100
AcDbLine
 10
5.63974525603294
 20
3.1875
 30
0.0
 11
5.63974525603294
 21
2.625
 31
0.0
  0
ARC
  5
1BF
330
2
100
AcDbEntity
  8
0
100
AcDbCircle
 10
5.51474525603294
 20
2.625
 30
0.0
 40
0.125
100
AcDbArc
 50
270.0
 51
0.0
  0
ARC
  5
1C0
330
2
100
AcDbEntity
  8
0
100
AcDbCircle
 10
5.38974525603294
 20
2.375
 30
0.0
 40
0.125
100
AcDbArc
 50
90.0
 51
180.0
  0
LINE
  5
1C1
330
2
100
AcDbEntity
  8
0
100
AcDbLine
 10
5.51474525603294
 20
2.5
 30
0.0
 11
5.38974525603294
 21
2.5
 31
0.0
  0
ARC
  5
1C6
330
2
100
AcDbEntity
  8
0
100
AcDbCircle
 10
5.51474525603294
 20
3.1875
 30
0.0
 40
0.125
100
AcDbArc
 50
0.0
 51
90.0
  0
LINE
  5
1C7
330
2
100
AcDbEntity
  8
0
100
AcDbLine
 10
5.51474525603294
 20
3.441000000000003
 30
0.0
 11
5.51474525603294
 21
3.875
 31
0.0
  0
ARC
  5
1C8
330
2
100
AcDbEntity
  8
0
100
AcDbCircle
 10
5.38974525603294
 20
3.4375
 30
0.0
 40
0.125
100
AcDbArc
 50
180.0
 51
270.0
  0
LINE
  5
1C9
330
2
100
AcDbEntity
  8
0
100
AcDbLine
 10
5.51474525603294
 20
3.3125
 30
0.0
 11
5.38974525603294
 21
3.3125
 31
0.0
  0
ARC
  5
1CD
330
2
100
AcDbEntity
  8
0
100
AcDbCircle
 10
6.389745256032938
 20
1.438345916537127
 30
0.0
 40
0.1875
100
AcDbArc
 50
90.03055799999997
 51
270.0
  0
LINE
  5
1CE
330
2
100
AcDbEntity
  8
0
100
AcDbLine
 10
5.639745256032942
 20
4.8125
 30
0.0
 11
6.389745256032942
 21
4.8125
 31
0.0
  0
LINE
  5
1CF
330
2
100
AcDbEntity
  8
0
100
AcDbLine
 10
5.639745256032942
 20
4.8125
 30
0.0
 11
5.63974525603294
 21
4.25
 31
0.0
  0
ARC
  5
1D0
330
2
100
AcDbEntity
  8
0
100
AcDbCircle
 10
5.51474525603294
 20
4.25
 30
0.0
 40
0.125
100
AcDbArc
 50
270.0
 51
0.0
  0
ARC
  5
1D1
330
2
100
AcDbEntity
  8
0
100
AcDbCircle
 10
5.38974525603294
 20
4.0
 30
0.0
 40
0.125
100
AcDbArc
 50
90.0
 51
180.0
  0
LINE
  5
1D2
330
2
100
AcDbEntity
  8
0
100
AcDbLine
 10
5.51474525603294
 20
4.125
 30
0.0
 11
5.38974525603294
 21
4.125
 31
0.0
  0
POINT
  5
1D3
330
2
100
AcDbEntity
  8
0
100
AcDbPoint
 10
5.639745256032942
 20
4.8125
 30
0.0
  0
LINE
  5
1D4
330
2
100
AcDbEntity
  8
0
100
AcDbLine
 10
6.452245256032942
 20
4.8125
 30
0.0
 11
6.389745256032942
 21
4.8125
 31
0.0
  0
LINE
  5
1D5
330
2
100
AcDbEntity
  8
0
100
AcDbLine
 10
1.115681000000002
 20
3.904187
 30
0.0
 11
1.078875000000002
 21
3.940994
 31
0.0
  0
LINE
  5
1D6
330
2
100
AcDbEntity
  8
0
100
AcDbLine
 10
1.228819000000001
 20
3.904187
 30
0.0
 11
1.266375000000002
 21
3.941744
 31
0.0
  0
LINE
  5
1D7
330
2
100
AcDbEntity
  8
0
100
AcDbLine
 10
1.171875000000002
 20
3.6875
 30
0.0
 11
1.172625000000002
 21
3.6875
 31
0.0
  0
LINE
  5
1D8
330
2
100
AcDbEntity
  8
0
100
AcDbLine
 10
1.078875000000002
 20
4.5625
 30
0.0
 11
1.078875000000002
 21
3.7805
 31
0.0
  0
LINE
  5
1D9
330
2
100
AcDbEntity
  8
0
100
AcDbLine
 10
1.266375000000002
 20
3.78125
 30
0.0
 11
1.266375000000002
 21
4.5625
 31
0.0
  0
LINE
  5
1DA
330
2
100
AcDbEntity
  8
0
100
AcDbLine
 10
1.172625000000002
 20
3.6875
 30
0.0
 11
1.266375000000002
 21
3.78125
 31
0.0
  0
LINE
  5
1DB
330
2
100
AcDbEntity
  8
0
100
AcDbLine
 10
1.171875000000002
 20
3.6875
 30
0.0
 11
1.078875000000002
 21
3.7805
 31
0.0
  0
ARC
  5
1DC
330
2
100
AcDbEntity
  8
0
100
AcDbCircle
 10
1.171462000000002
 20
4.005476999999999
 30
0.0
 40
0.114071
100
AcDbArc
 50
54.808812
 51
127.538262
  0
ARC
  5
1DD
330
2
100
AcDbEntity
  8
0
100
AcDbCircle
 10
1.171462000000002
 20
4.158677000000001
 30
0.0
 40
0.114071
100
AcDbArc
 50
232.461738
 51
305.191188
  0
LINE
  5
1DE
330
2
100
AcDbEntity
  8
0
100
AcDbLine
 10
1.122753000000001
 20
3.897116000000001
 30
0.0
 11
1.078875000000002
 21
3.940994
 31
0.0
  0
LINE
  5
1DF
330
2
100
AcDbEntity
  8
0
100
AcDbLine
 10
1.221747000000002
 20
3.897116000000001
 30
0.0
 11
1.266375000000002
 21
3.941744
 31
0.0
  0
LINE
  5
1E0
330
2
100
AcDbEntity
  8
0
100
AcDbLine
 10
1.171875000000002
 20
3.847994
 30
0.0
 11
1.172625000000002
 21
3.847994
 31
0.0
  0
LINE
  5
1E1
330
2
100
AcDbEntity
  8
0
100
AcDbLine
 10
1.171875000000002
 20
3.6875
 30
0.0
 11
1.172625000000002
 21
3.6875
 31
0.0
  0
LINE
  5
1E2
330
2
100
AcDbEntity
  8
0
100
AcDbLine
 10
1.078875000000002
 20
4.4375
 30
0.0
 11
1.078875000000002
 21
3.7805
 31
0.0
  0
LINE
  5
1E3
330
2
100
AcDbEntity
  8
0
100
AcDbLine
 10
1.266375000000002
 20
3.78125
 30
0.0
 11
1.266375000000002
 21
4.4375
 31
0.0
  0
LINE
  5
1E4
330
2
100
AcDbEntity
  8
0
100
AcDbLine
 10
1.172625000000002
 20
3.6875
 30
0.0
 11
1.266375000000002
 21
3.78125
 31
0.0
  0
LINE
  5
1E5
330
2
100
AcDbEntity
  8
0
100
AcDbLine
 10
1.171875000000002
 20
3.6875
 30
0.0
 11
1.078875000000002
 21
3.7805
 31
0.0
  0
POINT
  5
1E6
330
2
100
AcDbEntity
  8
0
100
AcDbPoint
 10
1.172625000000002
 20
3.6875
 30
0.0
  0
ARC
  5
1E7
330
2
100
AcDbEntity
  8
0
100
AcDbCircle
 10
1.172250000000002
 20
3.946614
 30
0.0
 40
0.07
100
AcDbArc
 50
225.0
 51
314.9999999999999
  0
LINE
  5
1E8
330
2
100
AcDbEntity
  8
0
100
AcDbLine
 10
-1.228068999999998
 20
3.904187
 30
0.0
 11
-1.264874999999998
 21
3.940994
 31
0.0
  0
LINE
  5
1E9
330
2
100
AcDbEntity
  8
0
100
AcDbLine
 10
-1.114930999999998
 20
3.904187
 30
0.0
 11
-1.077374999999998
 21
3.941744
 31
0.0
  0
LINE
  5
1EA
330
2
100
AcDbEntity
  8
0
100
AcDbLine
 10
-1.171874999999998
 20
3.6875
 30
0.0
 11
-1.171124999999998
 21
3.6875
 31
0.0
  0
LINE
  5
1EB
330
2
100
AcDbEntity
  8
0
100
AcDbLine
 10
-1.264874999999998
 20
4.5625
 30
0.0
 11
-1.264874999999998
 21
3.7805
 31
0.0
  0
LINE
  5
1EC
330
2
100
AcDbEntity
  8
0
100
AcDbLine
 10
-1.077374999999998
 20
3.78125
 30
0.0
 11
-1.077374999999998
 21
4.5625
 31
0.0
  0
LINE
  5
1ED
330
2
100
AcDbEntity
  8
0
100
AcDbLine
 10
-1.171124999999998
 20
3.6875
 30
0.0
 11
-1.077374999999998
 21
3.78125
 31
0.0
  0
LINE
  5
1EE
330
2
100
AcDbEntity
  8
0
100
AcDbLine
 10
-1.171874999999998
 20
3.6875
 30
0.0
 11
-1.264874999999998
 21
3.7805
 31
0.0
  0
ARC
  5
1EF
330
2
100
AcDbEntity
  8
0
100
AcDbCircle
 10
-1.172287999999998
 20
4.005476999999999
 30
0.0
 40
0.114071
100
AcDbArc
 50
54.808812
 51
127.538262
  0
ARC
  5
1F0
330
2
100
AcDbEntity
  8
0
100
AcDbCircle
 10
-1.172287999999998
 20
4.158677000000001
 30
0.0
 40
0.114071
100
AcDbArc
 50
232.461738
 51
305.191188
  0
LINE
  5
1F1
330
2
100
AcDbEntity
  8
0
100
AcDbLine
 10
-1.220996999999998
 20
3.897116000000001
 30
0.0
 11
-1.264874999999998
 21
3.940994
 31
0.0
  0
LINE
  5
1F2
330
2
100
AcDbEntity
  8
0
100
AcDbLine
 10
-1.122002999999998
 20
3.897116000000001
 30
0.0
 11
-1.077374999999998
 21
3.941744
 31
0.0
  0
LINE
  5
1F3
330
2
100
AcDbEntity
  8
0
100
AcDbLine
 10
-1.171874999999998
 20
3.847994
 30
0.0
 11
-1.171124999999998
 21
3.847994
 31
0.0
  0
LINE
  5
1F4
330
2
100
AcDbEntity
  8
0
100
AcDbLine
 10
-1.171874999999998
 20
3.6875
 30
0.0
 11
-1.171124999999998
 21
3.6875
 31
0.0
  0
LINE
  5
1F5
330
2
100
AcDbEntity
  8
0
100
AcDbLine
 10
-1.264874999999998
 20
4.4375
 30
0.0
 11
-1.264874999999998
 21
3.7805
 31
0.0
  0
LINE
  5
1F6
330
2
100
AcDbEntity
  8
0
100
AcDbLine
 10
-1.077374999999998
 20
3.78125
 30
0.0
 11
-1.077374999999998
 21
4.4375
 31
0.0
  0
LINE
  5
1F7
330
2
100
AcDbEntity
  8
0
100
AcDbLine
 10
-1.171124999999998
 20
3.6875
 30
0.0
 11
-1.077374999999998
 21
3.78125
 31
0.0
  0
LINE
  5
1F8
330
2
100
AcDbEntity
  8
0
100
AcDbLine
 10
-1.171874999999998
 20
3.6875
 30
0.0
 11
-1.264874999999998
 21
3.7805
 31
0.0
  0
POINT
  5
1F9
330
2
100
AcDbEntity
  8
0
100
AcDbPoint
 10
-1.171124999999998
 20
3.6875
 30
0.0
  0
ARC
  5
1FA
330
2
100
AcDbEntity
  8
0
100
AcDbCircle
 10
-1.171499999999998
 20
3.946614
 30
0.0
 40
0.07
100
AcDbArc
 50
225.0
 51
315.0
  0
ARC
  5
1FB
330
2
100
AcDbEntity
  8
0
100
AcDbCircle
 10
-0.828125000000016
 20
3.899378177159257
 30
0.0
 40
0.1796218228407326
100
AcDbArc
 50
104.8383959934621
 51
112.0008925954695
  0
ARC
  5
1FC
330
2
100
AcDbEntity
  8
0
100
AcDbCircle
 10
-0.8298208820904782
 20
3.903575444365444
 30
0.0
 40
0.1750948958405606
100
AcDbArc
 50
112.0008925954738
 51
134.2879713357528
  0
ARC
  5
1FD
330
2
100
AcDbEntity
  8
0
100
AcDbCircle
 10
-0.8324451165187599
 20
3.906265726997059
 30
0.0
 40
0.1713366745894169
100
AcDbArc
 50
134.2879713357519
 51
156.9920431300936
  0
ARC
  5
1FE
330
2
100
AcDbEntity
  8
0
100
AcDbCircle
 10
-0.8365292306491465
 20
3.908000000000001
 30
0.0
 40
0.1668995932200081
100
AcDbArc
 50
156.9920431300973
 51
180.0000000000024
  0
ARC
  5
1FF
330
2
100
AcDbEntity
  8
0
100
AcDbCircle
 10
-0.8365292306491527
 20
3.907999999999987
 30
0.0
 40
0.1668995932200028
100
AcDbArc
 50
179.9999999999976
 51
203.0079568699036
  0
ARC
  5
200
330
2
100
AcDbEntity
  8
0
100
AcDbCircle
 10
-0.8324451165187594
 20
3.909734273002933
 30
0.0
 40
0.171336674589419
100
AcDbArc
 50
203.0079568699075
 51
225.7120286642488
  0
ARC
  5
201
330
2
100
AcDbEntity
  8
0
100
AcDbCircle
 10
-0.829820882090476
 20
3.912424555634548
 30
0.0
 40
0.1750948958405649
100
AcDbArc
 50
225.7120286642475
 51
247.9991074045259
  0
ARC
  5
202
330
2
100
AcDbEntity
  8
0
100
AcDbCircle
 10
-0.8281250000000178
 20
3.916621822840725
 30
0.0
 40
0.1796218228407254
100
AcDbArc
 50
247.9991074045302
 51
255.1616040065378
  0
ARC
  5
203
330
2
100
AcDbEntity
  8
0
100
AcDbCircle
 10
-0.8281249999999845
 20
3.870274298837508
 30
0.0
 40
0.1627257011624916
100
AcDbArc
 50
106.4204773143156
 51
109.9326970463661
  0
ARC
  5
204
330
2
100
AcDbEntity
  8
0
100
AcDbCircle
 10
-0.83480947780465
 20
3.888707091687124
 30
0.0
 40
0.1431183021570671
100
AcDbArc
 50
109.9326970463548
 51
131.2018769840313
  0
ARC
  5
205
330
2
100
AcDbEntity
  8
0
100
AcDbCircle
 10
-0.8451031620619567
 20
3.90046469529263
 30
0.0
 40
0.1274913645769353
100
AcDbArc
 50
131.201876984032
 51
154.680182614194
  0
ARC
  5
206
330
2
100
AcDbEntity
  8
0
100
AcDbCircle
 10
-0.8610299622835638
 20
3.908000000000001
 30
0.0
 40
0.10987194965101
100
AcDbArc
 50
154.6801826141993
 51
180.0000000000037
  0
ARC
  5
207
330
2
100
AcDbEntity
  8
0
100
AcDbCircle
 10
-0.8610299622835709
 20
3.907999999999987
 30
0.0
 40
0.1098719496510028
100
AcDbArc
 50
179.9999999999963
 51
205.3198173858006
  0
ARC
  5
208
330
2
100
AcDbEntity
  8
0
100
AcDbCircle
 10
-0.8451031620619482
 20
3.915535304707362
 30
0.0
 40
0.1274913645769427
100
AcDbArc
 50
205.3198173858044
 51
228.7981230159662
  0
ARC
  5
209
330
2
100
AcDbEntity
  8
0
100
AcDbCircle
 10
-0.8348094778046518
 20
3.927292908312861
 30
0.0
 40
0.1431183021570633
100
AcDbArc
 50
228.7981230159683
 51
250.0673029536455
  0
ARC
  5
20A
330
2
100
AcDbEntity
  8
0
100
AcDbCircle
 10
-0.8281249999999845
 20
3.94572570116248
 30
0.0
 40
0.1627257011624916
100
AcDbArc
 50
250.0673029536339
 51
253.5795226856844
  0
ARC
  5
20B
330
2
100
AcDbEntity
  8
0
100
AcDbCircle
 10
0.8281249999999965
 20
3.620274298837508
 30
0.0
 40
0.1627257011624917
100
AcDbArc
 50
70.06730295363376
 51
73.57952268568424
  0
ARC
  5
20C
330
2
100
AcDbEntity
  8
0
100
AcDbCircle
 10
0.8348094778046624
 20
3.638707091687124
 30
0.0
 40
0.1431183021570671
100
AcDbArc
 50
48.79812301596872
 51
70.06730295364524
  0
ARC
  5
20D
330
2
100
AcDbEntity
  8
0
100
AcDbCircle
 10
0.8451031620619691
 20
3.65046469529263
 30
0.0
 40
0.1274913645769353
100
AcDbArc
 50
25.31981738580601
 51
48.79812301596798
  0
ARC
  5
20E
330
2
100
AcDbEntity
  8
0
100
AcDbCircle
 10
0.8610299622835758
 20
3.658000000000001
 30
0.0
 40
0.1098719496510104
100
AcDbArc
 50
359.9999999999963
 51
25.31981738580055
  0
ARC
  5
20F
330
2
100
AcDbEntity
  8
0
100
AcDbCircle
 10
0.8610299622835829
 20
3.657999999999987
 30
0.0
 40
0.1098719496510032
100
AcDbArc
 50
334.6801826141995
 51
0.0000000000037053
  0
ARC
  5
210
330
2
100
AcDbEntity
  8
0
100
AcDbCircle
 10
0.8451031620619611
 20
3.665535304707362
 30
0.0
 40
0.1274913645769423
100
AcDbArc
 50
311.2018769840337
 51
334.6801826141955
  0
ARC
  5
211
330
2
100
AcDbEntity
  8
0
100
AcDbCircle
 10
0.8348094778046642
 20
3.677292908312861
 30
0.0
 40
0.1431183021570633
100
AcDbArc
 50
289.9326970463546
 51
311.2018769840317
  0
ARC
  5
212
330
2
100
AcDbEntity
  8
0
100
AcDbCircle
 10
0.8281249999999965
 20
3.69572570116248
 30
0.0
 40
0.1627257011624917
100
AcDbArc
 50
286.4204773143158
 51
289.9326970463663
  0
ARC
  5
213
330
2
100
AcDbEntity
  8
0
100
AcDbCircle
 10
0.8281250000000284
 20
3.649378177159257
 30
0.0
 40
0.1796218228407326
100
AcDbArc
 50
67.99910740453053
 51
75.16160400653787
  0
ARC
  5
214
330
2
100
AcDbEntity
  8
0
100
AcDbCircle
 10
0.8298208820904911
 20
3.653575444365444
 30
0.0
 40
0.1750948958405604
100
AcDbArc
 50
45.71202866424729
 51
67.99910740452631
  0
ARC
  5
215
330
2
100
AcDbEntity
  8
0
100
AcDbCircle
 10
0.8324451165187723
 20
3.656265726997059
 30
0.0
 40
0.1713366745894169
100
AcDbArc
 50
23.00795686990644
 51
45.71202866424806
  0
ARC
  5
216
330
2
100
AcDbEntity
  8
0
100
AcDbCircle
 10
0.836529230649159
 20
3.658000000000001
 30
0.0
 40
0.1668995932200081
100
AcDbArc
 50
359.9999999999976
 51
23.00795686990271
  0
ARC
  5
217
330
2
100
AcDbEntity
  8
0
100
AcDbCircle
 10
0.8365292306491652
 20
3.657999999999987
 30
0.0
 40
0.1668995932200028
100
AcDbArc
 50
336.9920431300965
 51
0.0000000000024393
  0
ARC
  5
218
330
2
100
AcDbEntity
  8
0
100
AcDbCircle
 10
0.8324451165187714
 20
3.659734273002933
 30
0.0
 40
0.1713366745894194
100
AcDbArc
 50
314.2879713357513
 51
336.9920431300926
  0
ARC
  5
219
330
2
100
AcDbEntity
  8
0
100
AcDbCircle
 10
0.8298208820904884
 20
3.662424555634548
 30
0.0
 40
0.1750948958405649
100
AcDbArc
 50
292.0008925954741
 51
314.2879713357525
  0
ARC
  5
21A
330
2
100
AcDbEntity
  8
0
100
AcDbCircle
 10
0.8281250000000302
 20
3.666621822840725
 30
0.0
 40
0.1796218228407254
100
AcDbArc
 50
284.8383959934621
 51
292.0008925954698
  0
ARC
  5
21B
330
2
100
AcDbEntity
  8
0
100
AcDbCircle
 10
0.8281249999999938
 20
1.995274298837504
 30
0.0
 40
0.1627257011624951
100
AcDbArc
 50
70.0673029536342
 51
73.57952268568459
  0
ARC
  5
21C
330
2
100
AcDbEntity
  8
0
100
AcDbCircle
 10
0.8348094778046598
 20
2.013707091687124
 30
0.0
 40
0.1431183021570671
100
AcDbArc
 50
48.79812301596872
 51
70.06730295364524
  0
ARC
  5
21D
330
2
100
AcDbEntity
  8
0
100
AcDbCircle
 10
0.8451031620619665
 20
2.02546469529263
 30
0.0
 40
0.1274913645769353
100
AcDbArc
 50
25.31981738580601
 51
48.79812301596798
  0
ARC
  5
21E
330
2
100
AcDbEntity
  8
0
100
AcDbCircle
 10
0.8610299622835731
 20
2.033000000000001
 30
0.0
 40
0.1098719496510104
100
AcDbArc
 50
359.9999999999963
 51
25.31981738580055
  0
ARC
  5
21F
330
2
100
AcDbEntity
  8
0
100
AcDbCircle
 10
0.8610299622835802
 20
2.032999999999989
 30
0.0
 40
0.1098719496510032
100
AcDbArc
 50
334.6801826141987
 51
0.000000000002779
  0
ARC
  5
220
330
2
100
AcDbEntity
  8
0
100
AcDbCircle
 10
0.8451031620619585
 20
2.040535304707358
 30
0.0
 40
0.1274913645769408
100
AcDbArc
 50
311.2018769840348
 51
334.680182614197
  0
ARC
  5
221
330
2
100
AcDbEntity
  8
0
100
AcDbCircle
 10
0.8348094778046615
 20
2.052292908312861
 30
0.0
 40
0.1431183021570633
100
AcDbArc
 50
289.9326970463546
 51
311.2018769840317
  0
ARC
  5
222
330
2
100
AcDbEntity
  8
0
100
AcDbCircle
 10
0.8281249999999938
 20
2.070725701162484
 30
0.0
 40
0.1627257011624951
100
AcDbArc
 50
286.4204773143154
 51
289.9326970463658
  0
ARC
  5
223
330
2
100
AcDbEntity
  8
0
100
AcDbCircle
 10
0.8281250000000258
 20
2.024378177159255
 30
0.0
 40
0.1796218228407343
100
AcDbArc
 50
67.99910740453075
 51
75.16160400653801
  0
ARC
  5
224
330
2
100
AcDbEntity
  8
0
100
AcDbCircle
 10
0.8298208820904875
 20
2.028575444365444
 30
0.0
 40
0.1750948958405608
100
AcDbArc
 50
45.71202866424707
 51
67.99910740452603
  0
ARC
  5
225
330
2
100
AcDbEntity
  8
0
100
AcDbCircle
 10
0.8324451165187696
 20
2.031265726997059
 30
0.0
 40
0.1713366745894169
100
AcDbArc
 50
23.00795686990644
 51
45.71202866424806
  0
ARC
  5
226
330
2
100
AcDbEntity
  8
0
100
AcDbCircle
 10
0.8365292306491563
 20
2.032999999999998
 30
0.0
 40
0.1668995932200094
100
AcDbArc
 50
359.9999999999988
 51
23.00795686990384
  0
ARC
  5
227
330
2
100
AcDbEntity
  8
0
100
AcDbCircle
 10
0.8365292306491625
 20
2.032999999999987
 30
0.0
 40
0.1668995932200028
100
AcDbArc
 50
336.9920431300965
 51
0.0000000000024393
  0
ARC
  5
228
330
2
100
AcDbEntity
  8
0
100
AcDbCircle
 10
0.8324451165187687
 20
2.034734273002929
 30
0.0
 40
0.171336674589418
100
AcDbArc
 50
314.2879713357522
 51
336.9920431300936
  0
ARC
  5
229
330
2
100
AcDbEntity
  8
0
100
AcDbCircle
 10
0.8298208820904858
 20
2.037424555634548
 30
0.0
 40
0.1750948958405649
100
AcDbArc
 50
292.0008925954741
 51
314.2879713357525
  0
ARC
  5
22A
330
2
100
AcDbEntity
  8
0
100
AcDbCircle
 10
0.8281250000000275
 20
2.041621822840728
 30
0.0
 40
0.1796218228407287
100
AcDbArc
 50
284.8383959934619
 51
292.0008925954694
  0
ARC
  5
22B
330
2
100
AcDbEntity
  8
0
100
AcDbCircle
 10
-0.8281250000000178
 20
2.274378177159255
 30
0.0
 40
0.1796218228407343
100
AcDbArc
 50
104.838395993462
 51
112.0008925954693
  0
ARC
  5
22C
330
2
100
AcDbEntity
  8
0
100
AcDbCircle
 10
-0.82982088209048
 20
2.278575444365444
 30
0.0
 40
0.1750948958405606
100
AcDbArc
 50
112.0008925954738
 51
134.2879713357528
  0
ARC
  5
22D
330
2
100
AcDbEntity
  8
0
100
AcDbCircle
 10
-0.8324451165187616
 20
2.281265726997059
 30
0.0
 40
0.1713366745894169
100
AcDbArc
 50
134.2879713357519
 51
156.9920431300936
  0
ARC
  5
22E
330
2
100
AcDbEntity
  8
0
100
AcDbCircle
 10
-0.8365292306491483
 20
2.282999999999998
 30
0.0
 40
0.1668995932200094
100
AcDbArc
 50
156.9920431300962
 51
180.0000000000013
  0
ARC
  5
22F
330
2
100
AcDbEntity
  8
0
100
AcDbCircle
 10
-0.8365292306491545
 20
2.282999999999987
 30
0.0
 40
0.1668995932200028
100
AcDbArc
 50
179.9999999999976
 51
203.0079568699036
  0
ARC
  5
230
330
2
100
AcDbEntity
  8
0
100
AcDbCircle
 10
-0.8324451165187612
 20
2.284734273002929
 30
0.0
 40
0.1713366745894176
100
AcDbArc
 50
203.0079568699064
 51
225.712028664248
  0
ARC
  5
231
330
2
100
AcDbEntity
  8
0
100
AcDbCircle
 10
-0.8298208820904778
 20
2.287424555634548
 30
0.0
 40
0.1750948958405649
100
AcDbArc
 50
225.7120286642475
 51
247.9991074045259
  0
ARC
  5
232
330
2
100
AcDbEntity
  8
0
100
AcDbCircle
 10
-0.8281250000000195
 20
2.291621822840728
 30
0.0
 40
0.1796218228407287
100
AcDbArc
 50
247.9991074045306
 51
255.1616040065381
  0
ARC
  5
233
330
2
100
AcDbEntity
  8
0
100
AcDbCircle
 10
-0.8281249999999862
 20
2.245274298837504
 30
0.0
 40
0.162725701162495
100
AcDbArc
 50
106.4204773143153
 51
109.9326970463657
  0
ARC
  5
234
330
2
100
AcDbEntity
  8
0
100
AcDbCircle
 10
-0.8348094778046518
 20
2.263707091687124
 30
0.0
 40
0.1431183021570671
100
AcDbArc
 50
109.9326970463548
 51
131.2018769840313
  0
ARC
  5
235
330
2
100
AcDbEntity
  8
0
100
AcDbCircle
 10
-0.8451031620619585
 20
2.27546469529263
 30
0.0
 40
0.1274913645769353
100
AcDbArc
 50
131.201876984032
 51
154.680182614194
  0
ARC
  5
236
330
2
100
AcDbEntity
  8
0
100
AcDbCircle
 10
-0.8610299622835655
 20
2.283000000000001
 30
0.0
 40
0.10987194965101
100
AcDbArc
 50
154.6801826141993
 51
180.0000000000037
  0
ARC
  5
237
330
2
100
AcDbEntity
  8
0
100
AcDbCircle
 10
-0.8610299622835727
 20
2.282999999999989
 30
0.0
 40
0.1098719496510028
100
AcDbArc
 50
179.9999999999972
 51
205.3198173858014
  0
ARC
  5
238
330
2
100
AcDbEntity
  8
0
100
AcDbCircle
 10
-0.84510316206195
 20
2.290535304707358
 30
0.0
 40
0.1274913645769412
100
AcDbArc
 50
205.319817385803
 51
228.7981230159652
  0
ARC
  5
239
330
2
100
AcDbEntity
  8
0
100
AcDbCircle
 10
-0.8348094778046535
 20
2.302292908312861
 30
0.0
 40
0.1431183021570633
100
AcDbArc
 50
228.7981230159683
 51
250.0673029536455
  0
ARC
  5
23A
330
2
100
AcDbEntity
  8
0
100
AcDbCircle
 10
-0.8281249999999862
 20
2.320725701162484
 30
0.0
 40
0.1627257011624949
100
AcDbArc
 50
250.0673029536343
 51
253.5795226856847
  0
LINE
  5
23B
330
2
100
AcDbEntity
  8
0
100
AcDbLine
 10
-1.195625
 20
10.0893060510534
 30
0.0
 11
-1.265625
 21
10.1093060510534
 31
0.0
  0
LINE
  5
23C
330
2
100
AcDbEntity
  8
0
100
AcDbLine
 10
-1.265625
 20
10.1093060510534
 30
0.0
 11
-1.265625
 21
10.4643060510534
 31
0.0
  0
LINE
  5
23D
330
2
100
AcDbEntity
  8
0
100
AcDbLine
 10
-1.148125
 20
10.0893060510534
 30
0.0
 11
-1.195625
 21
10.0893060510534
 31
0.0
  0
LINE
  5
23E
330
2
100
AcDbEntity
  8
0
100
AcDbLine
 10
-1.148125
 20
10.0893060510534
 30
0.0
 11
-1.078125
 21
10.1093060510534
 31
0.0
  0
LINE
  5
23F
330
2
100
AcDbEntity
  8
0
100
AcDbLine
 10
-1.078125
 20
10.4643060510534
 30
0.0
 11
-1.078125
 21
10.1093060510534
 31
0.0
  0
LINE
  5
240
330
2
100
AcDbEntity
  8
0
100
AcDbLine
 10
1.179375
 20
10.0893060510534
 30
0.0
 11
1.109375
 21
10.1093060510534
 31
0.0
  0
LINE
  5
241
330
2
100
AcDbEntity
  8
0
100
AcDbLine
 10
1.109375
 20
10.1093060510534
 30
0.0
 11
1.109375
 21
10.4643060510534
 31
0.0
  0
LINE
  5
242
330
2
100
AcDbEntity
  8
0
100
AcDbLine
 10
1.226875
 20
10.0893060510534
 30
0.0
 11
1.179375
 21
10.0893060510534
 31
0.0
  0
LINE
  5
243
330
2
100
AcDbEntity
  8
0
100
AcDbLine
 10
1.226875
 20
10.0893060510534
 30
0.0
 11
1.296875
 21
10.1093060510534
 31
0.0
  0
LINE
  5
244
330
2
100
AcDbEntity
  8
0
100
AcDbLine
 10
1.296875
 20
10.4643060510534
 30
0.0
 11
1.296875
 21
10.1093060510534
 31
0.0
  0
LINE
  5
245
330
2
100
AcDbEntity
  8
0
100
AcDbLine
 10
4.459828256032941
 20
0.0
 30
0.0
 11
4.58861925603294
 21
0.1287909999999997
 31
0.0
  0
ARC
  5
246
330
2
100
AcDbEntity
  8
0
100
AcDbCircle
 10
4.522327855082409
 20
0.1950824999999998
 30
0.0
 40
0.0937502683315312
100
AcDbArc
 50
314.999957195713
 51
45.00004280428698
  0
ARC
  5
247
330
2
100
AcDbEntity
  8
0
100
AcDbCircle
 10
6.341276506032939
 20
4.539637800805547
 30
0.0
 40
0.04921875
100
AcDbArc
 50
320.0000000000001
 51
359.9999999999999
  0
ARC
  5
248
330
2
100
AcDbEntity
  8
0
100
AcDbCircle
 10
6.341276506032939
 20
4.562499999999996
 30
0.0
 40
0.04921875
100
AcDbArc
 50
320.0000000000002
 51
0.0
  0
LINE
  5
249
330
2
100
AcDbEntity
  8
0
100
AcDbLine
 10
6.068033984708551
 20
4.160291461458868
 30
0.0
 11
6.378980255967701
 21
4.530862797335736
 31
0.0
  0
LINE
  5
24A
330
2
100
AcDbEntity
  8
0
100
AcDbLine
 10
6.378980255967701
 20
4.508000598141287
 30
0.0
 11
6.080412645998127
 21
4.152181576327781
 31
0.0
  0
LINE
  5
24B
330
2
100
AcDbEntity
  8
0
100
AcDbLine
 10
6.390495256032938
 20
4.449634070962489
 30
0.0
 11
6.110822384480885
 21
4.116332921539193
 31
0.0
  0
LINE
  5
24C
330
2
100
AcDbEntity
  8
0
100
AcDbLine
 10
6.390307701189405
 20
3.87856478157822
 30
0.0
 11
6.397486968034821
 21
3.919280427116821
 31
0.0
  0
LINE
  5
24D
330
2
100
AcDbEntity
  8
0
100
AcDbLine
 10
6.138696480008735
 20
4.039749473488712
 30
0.0
 11
6.317042345578122
 21
4.00830228549102
 31
0.0
  0
LINE
  5
24E
330
2
100
AcDbEntity
  8
0
100
AcDbLine
 10
6.138726653378562
 20
3.991965157812125
 30
0.0
 11
6.311179404944939
 21
3.961557084813556
 31
0.0
  0
LINE
  5
24F
330
2
100
AcDbEntity
  8
0
100
AcDbLine
 10
6.317042345578122
 20
4.00830228549102
 30
0.0
 11
6.311179404944939
 21
3.961557084813556
 31
0.0
  0
LINE
  5
250
330
2
100
AcDbEntity
  8
0
100
AcDbLine
 10
6.317042345578122
 20
4.00830228549102
 30
0.0
 11
6.397486968034821
 21
3.919280427116821
 31
0.0
  0
LINE
  5
251
330
2
100
AcDbEntity
  8
0
100
AcDbLine
 10
6.155504995779205
 20
3.919966833685379
 30
0.0
 11
6.390307701189405
 21
3.87856478157822
 31
0.0
  0
ARC
  5
252
330
2
100
AcDbEntity
  8
0
100
AcDbCircle
 10
6.181145234512838
 20
4.065379853466091
 30
0.0
 40
0.14765625
100
AcDbArc
 50
140.0000000000001
 51
260.0
  0
ARC
  5
253
330
2
100
AcDbEntity
  8
0
100
AcDbCircle
 10
6.155820145867651
 20
4.088907170999264
 30
0.0
 40
0.0984375
100
AcDbArc
 50
140.0000000000001
 51
260.0
  0
ARC
  5
254
330
2
100
AcDbEntity
  8
0
100
AcDbCircle
 10
6.146867169418519
 20
4.086087755792164
 30
0.0
 40
0.047053125
100
AcDbArc
 50
139.9999999999999
 51
260.0
  0
LINE
  5
255
330
2
100
AcDbEntity
  8
0
100
AcDbLine
 10
6.311048138719041
 20
3.960510499753994
 30
0.0
 11
6.390307701189405
 21
3.87856478157822
 31
0.0
  0
LINE
  5
256
330
2
100
AcDbEntity
  8
0
100
AcDbLine
 10
6.13216225603294
 20
0.1875
 30
0.0
 11
6.20603625603294
 21
0.261374
 31
0.0
  0
ARC
  5
257
330
2
100
AcDbEntity
  8
0
100
AcDbCircle
 10
6.27232775603294
 20
0.1950825990494689
 30
0.0
 40
0.0937502683315312
100
AcDbArc
 50
44.99995719571302
 51
135.000042804287
  0
LINE
  5
258
330
2
100
AcDbEntity
  8
0
100
AcDbLine
 10
6.211919267541161
 20
0.2666162084152006
 30
0.0
 11
6.138045267541161
 21
0.1927422084152006
 31
0.0
  0
ARC
  5
259
330
2
100
AcDbEntity
  8
0
100
AcDbCircle
 10
6.204336668491692
 20
0.1264507084152005
 30
0.0
 40
0.0937502683315312
100
AcDbArc
 50
134.999957195713
 51
225.000042804287
  0
ARC
  5
25A
330
2
100
AcDbEntity
  8
0
100
AcDbCircle
 10
5.514745256032938
 20
1.958279608820524
 30
0.0
 40
0.0502796088205226
100
AcDbArc
 50
270.0000000000021
 51
303.510822955672
  0
ARC
  5
25B
330
2
100
AcDbEntity
  8
0
100
AcDbCircle
 10
5.491098168089735
 20
1.993991802725841
 30
0.0
 40
0.0931112041880143
100
AcDbArc
 50
303.5108229556677
 51
327.9718933333891
  0
ARC
  5
25C
330
2
100
AcDbEntity
  8
0
100
AcDbCircle
 10
5.453445735895715
 20
2.017545344093326
 30
0.0
 40
0.1375237582811432
100
AcDbArc
 50
327.9718933333909
 51
345.4734521832015
  0
ARC
  5
25D
330
2
100
AcDbEntity
  8
0
100
AcDbCircle
 10
5.393801037580252
 20
2.033000000000001
 30
0.0
 40
0.1991381756389037
100
AcDbArc
 50
345.4734521832028
 51
0.0
  0
ARC
  5
25E
330
2
100
AcDbEntity
  8
0
100
AcDbCircle
 10
5.393801037580257
 20
2.033
 30
0.0
 40
0.1991381756388986
100
AcDbArc
 50
0.0000000000005111
 51
14.52654781679753
  0
ARC
  5
25F
330
2
100
AcDbEntity
  8
0
100
AcDbCircle
 10
5.453445735895711
 20
2.048454655906681
 30
0.0
 40
0.1375237582811449
100
AcDbArc
 50
14.52654781679526
 51
32.02810666660704
  0
ARC
  5
260
330
2
100
AcDbEntity
  8
0
100
AcDbCircle
 10
5.491098168089735
 20
2.072008197274169
 30
0.0
 40
0.0931112041880107
100
AcDbArc
 50
32.02810666660812
 51
56.48917704432962
  0
ARC
  5
261
330
2
100
AcDbEntity
  8
0
100
AcDbCircle
 10
5.514745256032942
 20
2.107720391179477
 30
0.0
 40
0.0502796088205245
100
AcDbArc
 50
56.48917704433185
 51
90.00000000000202
  0
ARC
  5
262
330
2
100
AcDbEntity
  8
0
100
AcDbCircle
 10
5.514745256032942
 20
1.935425526379181
 30
0.0
 40
0.0734255263791788
100
AcDbArc
 50
269.9999999999986
 51
302.6079210151937
  0
ARC
  5
263
330
2
100
AcDbEntity
  8
0
100
AcDbCircle
 10
5.484874661065426
 20
1.982118650683646
 30
0.0
 40
0.1288556653022006
100
AcDbArc
 50
302.607921015195
 51
327.0773280975507
  0
ARC
  5
264
330
2
100
AcDbEntity
  8
0
100
AcDbCircle
 10
5.437411270770474
 20
2.012850743226791
 30
0.0
 40
0.1853997625217287
100
AcDbArc
 50
327.0773280975489
 51
344.9866289980013
  0
ARC
  5
265
330
2
100
AcDbEntity
  8
0
100
AcDbCircle
 10
5.36228335495348
 20
2.033000000000001
 30
0.0
 40
0.2631827702002577
100
AcDbArc
 50
344.9866289980028
 51
0.0
  0
ARC
  5
266
330
2
100
AcDbEntity
  8
0
100
AcDbCircle
 10
5.362283354953492
 20
2.033000000000001
 30
0.0
 40
0.2631827702002454
100
AcDbArc
 50
0.0
 51
15.0133710019975
  0
ARC
  5
267
330
2
100
AcDbEntity
  8
0
100
AcDbCircle
 10
5.437411270770475
 20
2.053149256773214
 30
0.0
 40
0.185399762521726
100
AcDbArc
 50
15.01337100199781
 51
32.92267190245094
  0
ARC
  5
268
330
2
100
AcDbEntity
  8
0
100
AcDbCircle
 10
5.484874661065419
 20
2.083881349316354
 30
0.0
 40
0.1288556653022087
100
AcDbArc
 50
32.92267190244886
 51
57.39207898480363
  0
ARC
  5
269
330
2
100
AcDbEntity
  8
0
100
AcDbCircle
 10
5.514745256032944
 20
2.130574473620822
 30
0.0
 40
0.0734255263791784
100
AcDbArc
 50
57.39207898480824
 51
90.00000000000277
  0
ARC
  5
26A
330
2
100
AcDbEntity
  8
0
100
AcDbCircle
 10
5.514745256032926
 20
2.265409098411222
 30
0.0
 40
0.4494090984112251
100
AcDbArc
 50
270.0000000000018
 51
284.304479506531
  0
ARC
  5
26B
330
2
100
AcDbEntity
  8
0
100
AcDbCircle
 10
5.547595427149055
 20
2.151080709490305
 30
0.0
 40
0.3304548456263359
100
AcDbArc
 50
295.3310792578685
 51
304.7482755454342
  0
ARC
  5
26C
330
2
100
AcDbEntity
  8
0
100
AcDbCircle
 10
5.59778563384662
 20
2.078727175836907
 30
0.0
 40
0.2423975308791909
100
AcDbArc
 50
304.7482755454339
 51
309.5636078296212
  0
ARC
  5
26D
330
2
100
AcDbEntity
  8
0
100
AcDbCircle
 10
5.514745256032883
 20
1.800590901588787
 30
0.0
 40
0.4494090984112286
100
AcDbArc
 50
75.69552049346351
 51
89.99999999999277
  0
ARC
  5
26E
330
2
100
AcDbEntity
  8
0
100
AcDbCircle
 10
5.597785633846623
 20
1.987272824163092
 30
0.0
 40
0.2423975308791928
100
AcDbArc
 50
50.4363921703803
 51
55.25172445456695
  0
ARC
  5
26F
330
2
100
AcDbEntity
  8
0
100
AcDbCircle
 10
5.547595427149059
 20
1.914919290509694
 30
0.0
 40
0.3304548456263375
100
AcDbArc
 50
55.25172445456644
 51
64.6689207421323
  0
ARC
  5
270
330
2
100
AcDbEntity
  8
0
100
AcDbCircle
 10
5.674364565438442
 20
2.033000000000001
 30
0.0
 40
0.1532050010699967
100
AcDbArc
 50
336.9842081995523
 51
0.0
  0
ARC
  5
271
330
2
100
AcDbEntity
  8
0
100
AcDbCircle
 10
5.67436456543844
 20
2.033
 30
0.0
 40
0.153205001069999
100
AcDbArc
 50
0.0000000000006643
 51
23.01579180044802
  0
ARC
  5
272
330
2
100
AcDbEntity
  8
0
100
AcDbCircle
 10
5.514745256032938
 20
3.583279608820526
 30
0.0
 40
0.0502796088205244
100
AcDbArc
 50
270.0000000000021
 51
303.5108229556709
  0
ARC
  5
273
330
2
100
AcDbEntity
  8
0
100
AcDbCircle
 10
5.491098168089739
 20
3.618991802725837
 30
0.0
 40
0.0931112041880094
100
AcDbArc
 50
303.510822955667
 51
327.9718933333889
  0
ARC
  5
274
330
2
100
AcDbEntity
  8
0
100
AcDbCircle
 10
5.453445735895702
 20
3.642545344093328
 30
0.0
 40
0.1375237582811557
100
AcDbArc
 50
327.9718933333924
 51
345.4734521832028
  0
ARC
  5
275
330
2
100
AcDbEntity
  8
0
100
AcDbCircle
 10
5.393801037580259
 20
3.658000000000001
 30
0.0
 40
0.1991381756388964
100
AcDbArc
 50
345.4734521832028
 51
0.0
  0
ARC
  5
276
330
2
100
AcDbEntity
  8
0
100
AcDbCircle
 10
5.393801037580257
 20
3.658000000000001
 30
0.0
 40
0.1991381756388986
100
AcDbArc
 50
0.0
 51
14.52654781679704
  0
ARC
  5
277
330
2
100
AcDbEntity
  8
0
100
AcDbCircle
 10
5.453445735895711
 20
3.673454655906681
 30
0.0
 40
0.1375237582811449
100
AcDbArc
 50
14.52654781679526
 51
32.02810666660704
  0
ARC
  5
278
330
2
100
AcDbEntity
  8
0
100
AcDbCircle
 10
5.491098168089739
 20
3.697008197274165
 30
0.0
 40
0.0931112041880095
100
AcDbArc
 50
32.02810666661113
 51
56.48917704433205
  0
ARC
  5
279
330
2
100
AcDbEntity
  8
0
100
AcDbCircle
 10
5.514745256032938
 20
3.732720391179477
 30
0.0
 40
0.050279608820525
100
AcDbArc
 50
56.48917704432736
 51
89.99999999999798
  0
ARC
  5
27A
330
2
100
AcDbEntity
  8
0
100
AcDbCircle
 10
5.514745256032938
 20
3.560425526379181
 30
0.0
 40
0.0734255263791788
100
AcDbArc
 50
270.0000000000014
 51
302.6079210151967
  0
ARC
  5
27B
330
2
100
AcDbEntity
  8
0
100
AcDbCircle
 10
5.484874661065433
 20
3.607118650683646
 30
0.0
 40
0.1288556653021952
100
AcDbArc
 50
302.6079210151927
 51
327.0773280975483
  0
ARC
  5
27C
330
2
100
AcDbEntity
  8
0
100
AcDbCircle
 10
5.437411270770468
 20
3.637850743226789
 30
0.0
 40
0.1853997625217331
100
AcDbArc
 50
327.0773280975498
 51
344.9866289980022
  0
ARC
  5
27D
330
2
100
AcDbEntity
  8
0
100
AcDbCircle
 10
5.36228335495348
 20
3.658000000000001
 30
0.0
 40
0.2631827702002577
100
AcDbArc
 50
344.9866289980028
 51
0.0
  0
ARC
  5
27E
330
2
100
AcDbEntity
  8
0
100
AcDbCircle
 10
5.362283354953499
 20
3.658000000000001
 30
0.0
 40
0.2631827702002383
100
AcDbArc
 50
0.0
 51
15.01337100199753
  0
ARC
  5
27F
330
2
100
AcDbEntity
  8
0
100
AcDbCircle
 10
5.437411270770463
 20
3.678149256773214
 30
0.0
 40
0.1853997625217375
100
AcDbArc
 50
15.01337100199629
 51
32.92267190244931
  0
ARC
  5
280
330
2
100
AcDbEntity
  8
0
100
AcDbCircle
 10
5.484874661065422
 20
3.708881349316357
 30
0.0
 40
0.1288556653022047
100
AcDbArc
 50
32.92267190244906
 51
57.39207898480412
  0
ARC
  5
281
330
2
100
AcDbEntity
  8
0
100
AcDbCircle
 10
5.514745256032944
 20
3.755574473620822
 30
0.0
 40
0.0734255263791784
100
AcDbArc
 50
57.39207898480824
 51
90.00000000000277
  0
ARC
  5
282
330
2
100
AcDbEntity
  8
0
100
AcDbCircle
 10
5.514745256032926
 20
3.890409098411226
 30
0.0
 40
0.4494090984112269
100
AcDbArc
 50
270.0000000000018
 51
284.304479506531
  0
ARC
  5
283
330
2
100
AcDbEntity
  8
0
100
AcDbCircle
 10
5.547595427149055
 20
3.776080709490305
 30
0.0
 40
0.3304548456263359
100
AcDbArc
 50
295.3310792578685
 51
304.7482755454342
  0
ARC
  5
284
330
2
100
AcDbEntity
  8
0
100
AcDbCircle
 10
5.597785633846621
 20
3.70372717583691
 30
0.0
 40
0.2423975308791928
100
AcDbArc
 50
304.748275545433
 51
309.5636078296197
  0
ARC
  5
285
330
2
100
AcDbEntity
  8
0
100
AcDbCircle
 10
5.514745256032898
 20
3.425590901588777
 30
0.0
 40
0.4494090984112337
100
AcDbArc
 50
75.69552049346554
 51
89.99999999999457
  0
ARC
  5
286
330
2
100
AcDbEntity
  8
0
100
AcDbCircle
 10
5.597785633846613
 20
3.6122728241631
 30
0.0
 40
0.242397530879193
100
AcDbArc
 50
50.43639217037762
 51
55.25172445456392
  0
ARC
  5
287
330
2
100
AcDbEntity
  8
0
100
AcDbCircle
 10
5.547595427149059
 20
3.539919290509694
 30
0.0
 40
0.3304548456263375
100
AcDbArc
 50
55.25172445456644
 51
64.6689207421323
  0
ARC
  5
288
330
2
100
AcDbEntity
  8
0
100
AcDbCircle
 10
5.674364565438442
 20
3.658000000000005
 30
0.0
 40
0.1532050010699974
100
AcDbArc
 50
336.9842081995517
 51
359.9999999999987
  0
ARC
  5
289
330
2
100
AcDbEntity
  8
0
100
AcDbCircle
 10
5.67436456543844
 20
3.658000000000001
 30
0.0
 40
0.153205001069999
100
AcDbArc
 50
0.0
 51
23.01579180044802
  0
LINE
  5
28E
330
2
100
AcDbEntity
  8
0
100
AcDbLine
 10
-6.42099525603294
 20
0.3125
 30
0.0
 11
-6.420995256032942
 21
4.8125
 31
0.0
  0
LINE
  5
28F
330
2
100
AcDbEntity
  8
0
100
AcDbLine
 10
-6.358495256032942
 20
4.8125
 30
0.0
 11
-6.35849525603294
 21
0.3125
 31
0.0
  0
LINE
  5
290
330
2
100
AcDbEntity
  8
0
100
AcDbLine
 10
-5.23349525603294
 20
3.626749999999998
 30
0.0
 11
-5.23349525603294
 21
4.189249999999998
 31
0.0
  0
LINE
  5
291
330
2
100
AcDbEntity
  8
0
100
AcDbLine
 10
-6.359057701189405
 20
3.87856478157822
 30
0.0
 11
-6.366236968034821
 21
3.919280427116821
 31
0.0
  0
LINE
  5
292
330
2
100
AcDbEntity
  8
0
100
AcDbLine
 10
-6.124254995779205
 20
3.919966833685379
 30
0.0
 11
-6.359057701189405
 21
3.87856478157822
 31
0.0
  0
ARC
  5
293
330
2
100
AcDbEntity
  8
0
100
AcDbCircle
 10
-6.149895234512838
 20
4.065379853466091
 30
0.0
 40
0.14765625
100
AcDbArc
 50
280.0
 51
39.99999999999991
  0
LINE
  5
294
330
2
100
AcDbEntity
  8
0
100
AcDbLine
 10
-6.279798138719041
 20
3.960510499753994
 30
0.0
 11
-6.359057701189405
 21
3.87856478157822
 31
0.0
  0
LINE
  5
295
330
2
100
AcDbEntity
  8
0
100
AcDbLine
 10
-4.55736925603294
 20
0.261374
 30
0.0
 11
-5.60849525603294
 21
1.3125
 31
0.0
  0
LINE
  5
296
330
2
100
AcDbEntity
  8
0
  6
HIDDEN
100
AcDbLine
 10
-6.10091225603294
 20
0.0625
 30
0.0
 11
-4.491078256032941
 21
0.0625
 31
0.0
  0
LINE
  5
297
330
2
100
AcDbEntity
  8
0
100
AcDbLine
 10
-6.10091225603294
 20
0.0
 30
0.0
 11
-4.358495256032938
 21
0.0
 31
0.0
  0
ARC
  5
298
330
2
100
AcDbEntity
  8
0
100
AcDbCircle
 10
-4.491077855082409
 20
0.1950824999999998
 30
0.0
 40
0.0937502683315312
100
AcDbArc
 50
134.999957195713
 51
225.000042804287
  0
LINE
  5
299
330
2
100
AcDbEntity
  8
0
100
AcDbLine
 10
-4.358495256032938
 20
0.0625
 30
0.0
 11
-4.491078256032941
 21
0.0625
 31
0.0
  0
LINE
  5
29A
330
2
100
AcDbEntity
  8
0
100
AcDbLine
 10
-4.358495256032938
 20
0.0
 30
0.0
 11
-4.358495256032938
 21
0.0625
 31
0.0
  0
LINE
  5
29B
330
2
100
AcDbEntity
  8
0
100
AcDbLine
 10
-4.428578256032941
 20
0.0
 30
0.0
 11
-4.55736925603294
 21
0.1287909999999997
 31
0.0
  0
LINE
  5
29C
330
2
100
AcDbEntity
  8
0
100
AcDbLine
 10
-6.30736925603294
 20
0.261374
 30
0.0
 11
-6.35849525603294
 21
0.3125
 31
0.0
  0
LINE
  5
29D
330
2
100
AcDbEntity
  8
0
100
AcDbLine
 10
-6.10091225603294
 20
0.1875
 30
0.0
 11
-6.17478625603294
 21
0.261374
 31
0.0
  0
LINE
  5
29E
330
2
100
AcDbEntity
  8
0
100
AcDbLine
 10
-6.180669267541161
 20
0.2666162084152006
 30
0.0
 11
-6.106795267541161
 21
0.1927422084152006
 31
0.0
  0
LINE
  5
29F
330
2
100
AcDbEntity
  8
0
100
AcDbLine
 10
-6.10091225603294
 20
0.0625
 30
0.0
 11
-6.10091225603294
 21
0.0
 31
0.0
  0
ARC
  5
2A0
330
2
100
AcDbEntity
  8
0
100
AcDbCircle
 10
-6.173086668491692
 20
0.1264507084152005
 30
0.0
 40
0.0937502683315312
100
AcDbArc
 50
314.999957195713
 51
45.00004280428698
  0
ARC
  5
2A1
330
2
100
AcDbEntity
  8
0
100
AcDbCircle
 10
-6.24107775603294
 20
0.1950825990494689
 30
0.0
 40
0.0937502683315312
100
AcDbArc
 50
44.99995719571303
 51
135.000042804287
  0
LINE
  5
2A2
330
2
100
AcDbEntity
  8
0
100
AcDbLine
 10
-6.35849525603294
 20
0.3125
 30
0.0
 11
-6.42099525603294
 21
0.3125
 31
0.0
  0
LINE
  5
2A3
330
2
100
AcDbEntity
  8
0
100
AcDbLine
 10
-5.23349525603294
 20
2.001749999999998
 30
0.0
 11
-5.23349525603294
 21
2.564249999999998
 31
0.0
  0
LINE
  5
2A4
330
2
100
AcDbEntity
  8
0
100
AcDbLine
 10
-5.60849525603294
 20
1.751749999999998
 30
0.0
 11
-5.60849525603294
 21
1.3125
 31
0.0
  0
ARC
  5
2A5
330
2
100
AcDbEntity
  8
0
100
AcDbCircle
 10
-5.35849525603294
 20
2.001749999999998
 30
0.0
 40
0.125
100
AcDbArc
 50
270.0
 51
0.000000000000007
  0
LINE
  5
2A6
330
2
100
AcDbEntity
  8
0
100
AcDbLine
 10
-5.48349525603294
 20
2.00525
 30
0.0
 11
-5.48349525603294
 21
2.439249999999998
 31
0.0
  0
ARC
  5
2A7
330
2
100
AcDbEntity
  8
0
100
AcDbCircle
 10
-5.483495256032942
 20
2.124675526379178
 30
0.0
 40
0.0734255263791788
100
AcDbArc
 50
237.3920789848064
 51
270.0000000000014
  0
LINE
  5
2A8
330
2
100
AcDbEntity
  8
0
100
AcDbLine
 10
-5.48349525603294
 20
1.876749999999998
 30
0.0
 11
-5.35849525603294
 21
1.876749999999998
 31
0.0
  0
ARC
  5
2A9
330
2
100
AcDbEntity
  8
0
100
AcDbCircle
 10
-5.48349525603294
 20
1.751749999999998
 30
0.0
 40
0.125
100
AcDbArc
 50
90.0
 51
180.0
  0
ARC
  5
2AA
330
2
100
AcDbEntity
  8
0
100
AcDbCircle
 10
-5.483495256032926
 20
2.45465909841122
 30
0.0
 40
0.4494090984112251
100
AcDbArc
 50
255.695520493469
 51
269.9999999999982
  0
ARC
  5
2AB
330
2
100
AcDbEntity
  8
0
100
AcDbCircle
 10
-5.422195735895715
 20
2.206795344093324
 30
0.0
 40
0.1375237582811432
100
AcDbArc
 50
194.5265478167985
 51
212.0281066666091
  0
ARC
  5
2AC
330
2
100
AcDbEntity
  8
0
100
AcDbCircle
 10
-5.362551037580252
 20
2.222249999999999
 30
0.0
 40
0.1991381756389037
100
AcDbArc
 50
180.0
 51
194.5265478167972
  0
ARC
  5
2AD
330
2
100
AcDbEntity
  8
0
100
AcDbCircle
 10
-5.362551037580257
 20
2.222249999999997
 30
0.0
 40
0.1991381756388986
100
AcDbArc
 50
165.4734521832025
 51
179.9999999999995
  0
ARC
  5
2AE
330
2
100
AcDbEntity
  8
0
100
AcDbCircle
 10
-5.422195735895711
 20
2.237704655906679
 30
0.0
 40
0.1375237582811449
100
AcDbArc
 50
147.971893333393
 51
165.4734521832047
  0
ARC
  5
2AF
330
2
100
AcDbEntity
  8
0
100
AcDbCircle
 10
-5.406161270770474
 20
2.202100743226788
 30
0.0
 40
0.1853997625217287
100
AcDbArc
 50
195.0133710019988
 51
212.9226719024511
  0
ARC
  5
2B0
330
2
100
AcDbEntity
  8
0
100
AcDbCircle
 10
-5.33103335495348
 20
2.222249999999999
 30
0.0
 40
0.2631827702002577
100
AcDbArc
 50
180.0
 51
195.0133710019972
  0
ARC
  5
2B1
330
2
100
AcDbEntity
  8
0
100
AcDbCircle
 10
-5.331033354953492
 20
2.222249999999999
 30
0.0
 40
0.2631827702002454
100
AcDbArc
 50
164.9866289980025
 51
180.0
  0
ARC
  5
2B2
330
2
100
AcDbEntity
  8
0
100
AcDbCircle
 10
-5.406161270770475
 20
2.242399256773211
 30
0.0
 40
0.185399762521726
100
AcDbArc
 50
147.0773280975491
 51
164.9866289980022
  0
ARC
  5
2B3
330
2
100
AcDbEntity
  8
0
100
AcDbCircle
 10
-5.483495256032938
 20
2.147529608820522
 30
0.0
 40
0.0502796088205226
100
AcDbArc
 50
236.489177044328
 51
269.999999999998
  0
ARC
  5
2B4
330
2
100
AcDbEntity
  8
0
100
AcDbCircle
 10
-5.483495256032942
 20
2.296970391179475
 30
0.0
 40
0.0502796088205245
100
AcDbArc
 50
89.999999999998
 51
123.5108229556682
  0
ARC
  5
2B5
330
2
100
AcDbEntity
  8
0
100
AcDbCircle
 10
-5.483495256032944
 20
2.31982447362082
 30
0.0
 40
0.0734255263791784
100
AcDbArc
 50
89.99999999999724
 51
122.6079210151918
  0
ARC
  5
2B6
330
2
100
AcDbEntity
  8
0
100
AcDbCircle
 10
-5.459848168089735
 20
2.183241802725839
 30
0.0
 40
0.0931112041880143
100
AcDbArc
 50
212.0281066666109
 51
236.4891770443323
  0
ARC
  5
2B7
330
2
100
AcDbEntity
  8
0
100
AcDbCircle
 10
-5.459848168089735
 20
2.261258197274167
 30
0.0
 40
0.0931112041880107
100
AcDbArc
 50
123.5108229556704
 51
147.9718933333919
  0
ARC
  5
2B8
330
2
100
AcDbEntity
  8
0
100
AcDbCircle
 10
-5.453624661065426
 20
2.171368650683643
 30
0.0
 40
0.1288556653022006
100
AcDbArc
 50
212.9226719024493
 51
237.392078984805
  0
ARC
  5
2B9
330
2
100
AcDbEntity
  8
0
100
AcDbCircle
 10
-5.453624661065419
 20
2.273131349316351
 30
0.0
 40
0.1288556653022087
100
AcDbArc
 50
122.6079210151964
 51
147.0773280975511
  0
ARC
  5
2BA
330
2
100
AcDbEntity
  8
0
100
AcDbCircle
 10
-5.483495256032883
 20
1.989840901588785
 30
0.0
 40
0.4494090984112286
100
AcDbArc
 50
90.00000000000723
 51
104.3044795065365
  0
LINE
  5
2BB
330
2
100
AcDbEntity
  8
0
100
AcDbLine
 10
-5.60849525603294
 20
3.376749999999998
 30
0.0
 11
-5.60849525603294
 21
2.814249999999998
 31
0.0
  0
ARC
  5
2BC
330
2
100
AcDbEntity
  8
0
100
AcDbCircle
 10
-5.35849525603294
 20
2.564249999999998
 30
0.0
 40
0.125
100
AcDbArc
 50
0.000000000000007
 51
90.0
  0
LINE
  5
2BD
330
2
100
AcDbEntity
  8
0
100
AcDbLine
 10
-5.48349525603294
 20
2.689249999999998
 30
0.0
 11
-5.35849525603294
 21
2.689249999999998
 31
0.0
  0
ARC
  5
2BE
330
2
100
AcDbEntity
  8
0
100
AcDbCircle
 10
-5.48349525603294
 20
2.814249999999998
 30
0.0
 40
0.125
100
AcDbArc
 50
180.0
 51
270.0
  0
ARC
  5
2BF
330
2
100
AcDbEntity
  8
0
100
AcDbCircle
 10
-5.35849525603294
 20
3.626749999999998
 30
0.0
 40
0.125
100
AcDbArc
 50
270.0
 51
0.000000000000007
  0
LINE
  5
2C0
330
2
100
AcDbEntity
  8
0
100
AcDbLine
 10
-5.48349525603294
 20
3.63025
 30
0.0
 11
-5.48349525603294
 21
4.064249999999998
 31
0.0
  0
ARC
  5
2C1
330
2
100
AcDbEntity
  8
0
100
AcDbCircle
 10
-5.453624661065433
 20
3.796368650683643
 30
0.0
 40
0.1288556653021952
100
AcDbArc
 50
212.9226719024517
 51
237.3920789848073
  0
LINE
  5
2C2
330
2
100
AcDbEntity
  8
0
100
AcDbLine
 10
-5.48349525603294
 20
3.501749999999998
 30
0.0
 11
-5.35849525603294
 21
3.501749999999998
 31
0.0
  0
ARC
  5
2C3
330
2
100
AcDbEntity
  8
0
100
AcDbCircle
 10
-5.483495256032938
 20
3.749675526379178
 30
0.0
 40
0.0734255263791788
100
AcDbArc
 50
237.3920789848033
 51
269.9999999999986
  0
ARC
  5
2C4
330
2
100
AcDbEntity
  8
0
100
AcDbCircle
 10
-5.48349525603294
 20
3.376749999999998
 30
0.0
 40
0.125
100
AcDbArc
 50
90.0
 51
180.0
  0
ARC
  5
2C5
330
2
100
AcDbEntity
  8
0
100
AcDbCircle
 10
-5.483495256032926
 20
4.079659098411224
 30
0.0
 40
0.4494090984112269
100
AcDbArc
 50
255.6955204934691
 51
269.9999999999982
  0
ARC
  5
2C6
330
2
100
AcDbEntity
  8
0
100
AcDbCircle
 10
-5.422195735895702
 20
3.831795344093326
 30
0.0
 40
0.1375237582811557
100
AcDbArc
 50
194.5265478167973
 51
212.0281066666076
  0
ARC
  5
2C7
330
2
100
AcDbEntity
  8
0
100
AcDbCircle
 10
-5.362551037580259
 20
3.847249999999999
 30
0.0
 40
0.1991381756388964
100
AcDbArc
 50
180.0
 51
194.5265478167972
  0
ARC
  5
2C8
330
2
100
AcDbEntity
  8
0
100
AcDbCircle
 10
-5.362551037580257
 20
3.847249999999999
 30
0.0
 40
0.1991381756388986
100
AcDbArc
 50
165.4734521832029
 51
180.0
  0
ARC
  5
2C9
330
2
100
AcDbEntity
  8
0
100
AcDbCircle
 10
-5.422195735895711
 20
3.862704655906679
 30
0.0
 40
0.1375237582811449
100
AcDbArc
 50
147.971893333393
 51
165.4734521832047
  0
ARC
  5
2CA
330
2
100
AcDbEntity
  8
0
100
AcDbCircle
 10
-5.406161270770468
 20
3.827100743226787
 30
0.0
 40
0.1853997625217331
100
AcDbArc
 50
195.0133710019977
 51
212.9226719024503
  0
ARC
  5
2CB
330
2
100
AcDbEntity
  8
0
100
AcDbCircle
 10
-5.33103335495348
 20
3.847249999999999
 30
0.0
 40
0.2631827702002577
100
AcDbArc
 50
180.0
 51
195.0133710019972
  0
ARC
  5
2CC
330
2
100
AcDbEntity
  8
0
100
AcDbCircle
 10
-5.331033354953499
 20
3.847249999999999
 30
0.0
 40
0.2631827702002383
100
AcDbArc
 50
164.9866289980025
 51
180.0
  0
ARC
  5
2CD
330
2
100
AcDbEntity
  8
0
100
AcDbCircle
 10
-5.406161270770463
 20
3.867399256773211
 30
0.0
 40
0.1853997625217375
100
AcDbArc
 50
147.0773280975507
 51
164.9866289980037
  0
ARC
  5
2CE
330
2
100
AcDbEntity
  8
0
100
AcDbCircle
 10
-5.483495256032938
 20
3.772529608820523
 30
0.0
 40
0.0502796088205244
100
AcDbArc
 50
236.4891770443291
 51
269.999999999998
  0
ARC
  5
2CF
330
2
100
AcDbEntity
  8
0
100
AcDbCircle
 10
-5.483495256032938
 20
3.921970391179475
 30
0.0
 40
0.050279608820525
100
AcDbArc
 50
90.00000000000202
 51
123.5108229556726
  0
ARC
  5
2D0
330
2
100
AcDbEntity
  8
0
100
AcDbCircle
 10
-5.483495256032944
 20
3.94482447362082
 30
0.0
 40
0.0734255263791784
100
AcDbArc
 50
89.99999999999724
 51
122.6079210151918
  0
ARC
  5
2D1
330
2
100
AcDbEntity
  8
0
100
AcDbCircle
 10
-5.459848168089739
 20
3.808241802725835
 30
0.0
 40
0.0931112041880094
100
AcDbArc
 50
212.0281066666111
 51
236.4891770443329
  0
ARC
  5
2D2
330
2
100
AcDbEntity
  8
0
100
AcDbCircle
 10
-5.459848168089739
 20
3.886258197274163
 30
0.0
 40
0.0931112041880095
100
AcDbArc
 50
123.510822955668
 51
147.9718933333889
  0
ARC
  5
2D3
330
2
100
AcDbEntity
  8
0
100
AcDbCircle
 10
-5.453624661065422
 20
3.898131349316355
 30
0.0
 40
0.1288556653022047
100
AcDbArc
 50
122.6079210151959
 51
147.077328097551
  0
ARC
  5
2D4
330
2
100
AcDbEntity
  8
0
100
AcDbCircle
 10
-5.483495256032898
 20
3.614840901588774
 30
0.0
 40
0.4494090984112337
100
AcDbArc
 50
90.00000000000543
 51
104.3044795065345
  0
ARC
  5
2D5
330
2
100
AcDbEntity
  8
0
100
AcDbCircle
 10
-6.358495256032938
 20
1.438345916537127
 30
0.0
 40
0.1875
100
AcDbArc
 50
270.0
 51
89.96944200000003
  0
ARC
  5
2D6
330
2
100
AcDbEntity
  8
0
100
AcDbCircle
 10
-5.516345427149055
 20
2.340330709490303
 30
0.0
 40
0.3304548456263359
100
AcDbArc
 50
235.2517244545659
 51
244.6689207421315
  0
ARC
  5
2D7
330
2
100
AcDbEntity
  8
0
100
AcDbCircle
 10
-5.643114565438442
 20
2.222249999999999
 30
0.0
 40
0.1532050010699967
100
AcDbArc
 50
180.0
 51
203.0157918004477
  0
ARC
  5
2D8
330
2
100
AcDbEntity
  8
0
100
AcDbCircle
 10
-5.64311456543844
 20
2.222249999999997
 30
0.0
 40
0.153205001069999
100
AcDbArc
 50
156.984208199552
 51
179.9999999999994
  0
ARC
  5
2D9
330
2
100
AcDbEntity
  8
0
100
AcDbCircle
 10
-5.516345427149059
 20
2.104169290509692
 30
0.0
 40
0.3304548456263375
100
AcDbArc
 50
115.3310792578677
 51
124.7482755454336
  0
ARC
  5
2DA
330
2
100
AcDbEntity
  8
0
100
AcDbCircle
 10
-5.56653563384662
 20
2.267977175836904
 30
0.0
 40
0.2423975308791909
100
AcDbArc
 50
230.4363921703789
 51
235.2517244545662
  0
ARC
  5
2DB
330
2
100
AcDbEntity
  8
0
100
AcDbCircle
 10
-5.566535633846623
 20
2.17652282416309
 30
0.0
 40
0.2423975308791928
100
AcDbArc
 50
124.7482755454331
 51
129.5636078296197
  0
ARC
  5
2DC
330
2
100
AcDbEntity
  8
0
100
AcDbCircle
 10
-5.566535633846621
 20
3.892977175836908
 30
0.0
 40
0.2423975308791928
100
AcDbArc
 50
230.4363921703803
 51
235.251724454567
  0
ARC
  5
2DD
330
2
100
AcDbEntity
  8
0
100
AcDbCircle
 10
-5.516345427149055
 20
3.965330709490303
 30
0.0
 40
0.3304548456263359
100
AcDbArc
 50
235.2517244545659
 51
244.6689207421315
  0
ARC
  5
2DE
330
2
100
AcDbEntity
  8
0
100
AcDbCircle
 10
-5.643114565438442
 20
3.847250000000003
 30
0.0
 40
0.1532050010699974
100
AcDbArc
 50
180.0000000000013
 51
203.0157918004483
  0
ARC
  5
2DF
330
2
100
AcDbEntity
  8
0
100
AcDbCircle
 10
-5.64311456543844
 20
3.847249999999999
 30
0.0
 40
0.153205001069999
100
AcDbArc
 50
156.984208199552
 51
180.0
  0
ARC
  5
2E0
330
2
100
AcDbEntity
  8
0
100
AcDbCircle
 10
-5.516345427149059
 20
3.729169290509692
 30
0.0
 40
0.3304548456263375
100
AcDbArc
 50
115.3310792578677
 51
124.7482755454336
  0
ARC
  5
2E1
330
2
100
AcDbEntity
  8
0
100
AcDbCircle
 10
-5.566535633846613
 20
3.801522824163097
 30
0.0
 40
0.242397530879193
100
AcDbArc
 50
124.7482755454361
 51
129.5636078296224
  0
LINE
  5
2E2
330
2
100
AcDbEntity
  8
0
100
AcDbLine
 10
-5.608495256032942
 20
4.8125
 30
0.0
 11
-6.358495256032942
 21
4.8125
 31
0.0
  0
LINE
  5
2E3
330
2
100
AcDbEntity
  8
0
100
AcDbLine
 10
-5.608495256032942
 20
4.8125
 30
0.0
 11
-5.60849525603294
 21
4.439249999999998
 31
0.0
  0
ARC
  5
2E4
330
2
100
AcDbEntity
  8
0
100
AcDbCircle
 10
-5.35849525603294
 20
4.189249999999998
 30
0.0
 40
0.125
100
AcDbArc
 50
0.000000000000007
 51
90.0
  0
LINE
  5
2E5
330
2
100
AcDbEntity
  8
0
100
AcDbLine
 10
-5.48349525603294
 20
4.314249999999998
 30
0.0
 11
-5.35849525603294
 21
4.314249999999998
 31
0.0
  0
ARC
  5
2E6
330
2
100
AcDbEntity
  8
0
100
AcDbCircle
 10
-5.48349525603294
 20
4.439249999999998
 30
0.0
 40
0.125
100
AcDbArc
 50
180.0
 51
270.0
  0
POINT
  5
2E7
330
2
100
AcDbEntity
  8
0
100
AcDbPoint
 10
-5.608495256032942
 20
4.8125
 30
0.0
  0
LINE
  5
2E8
330
2
100
AcDbEntity
  8
0
100
AcDbLine
 10
-6.285792345578122
 20
4.00830228549102
 30
0.0
 11
-6.366236968034821
 21
3.919280427116821
 31
0.0
  0
LINE
  5
2E9
330
2
100
AcDbEntity
  8
0
100
AcDbLine
 10
-6.036783984708551
 20
4.160291461458868
 30
0.0
 11
-6.347730255967701
 21
4.530862797335736
 31
0.0
  0
LINE
  5
2EA
330
2
100
AcDbEntity
  8
0
100
AcDbLine
 10
-6.347730255967701
 20
4.508000598141287
 30
0.0
 11
-6.049162645998127
 21
4.152181576327781
 31
0.0
  0
LINE
  5
2EB
330
2
100
AcDbEntity
  8
0
100
AcDbLine
 10
-6.359245256032938
 20
4.449634070962489
 30
0.0
 11
-6.079572384480885
 21
4.116332921539193
 31
0.0
  0
LINE
  5
2EC
330
2
100
AcDbEntity
  8
0
100
AcDbLine
 10
-6.107446480008735
 20
4.039749473488712
 30
0.0
 11
-6.285792345578122
 21
4.00830228549102
 31
0.0
  0
LINE
  5
2ED
330
2
100
AcDbEntity
  8
0
100
AcDbLine
 10
-6.107476653378562
 20
3.991965157812125
 30
0.0
 11
-6.279929404944939
 21
3.961557084813556
 31
0.0
  0
ARC
  5
2EE
330
2
100
AcDbEntity
  8
0
100
AcDbCircle
 10
-6.115617169418519
 20
4.086087755792164
 30
0.0
 40
0.047053125
100
AcDbArc
 50
280.0
 51
40.00000000000006
  0
ARC
  5
2EF
330
2
100
AcDbEntity
  8
0
100
AcDbCircle
 10
-6.124570145867651
 20
4.088907170999264
 30
0.0
 40
0.0984375
100
AcDbArc
 50
280.0
 51
39.99999999999996
  0
LINE
  5
2F0
330
2
100
AcDbEntity
  8
0
100
AcDbLine
 10
-6.285792345578122
 20
4.00830228549102
 30
0.0
 11
-6.279929404944939
 21
3.961557084813556
 31
0.0
  0
ARC
  5
2F1
330
2
100
AcDbEntity
  8
0
100
AcDbCircle
 10
-6.310026506032939
 20
4.539637800805547
 30
0.0
 40
0.04921875
100
AcDbArc
 50
180.0000000000001
 51
220.0
  0
ARC
  5
2F2
330
2
100
AcDbEntity
  8
0
100
AcDbCircle
 10
-6.310026506032939
 20
4.562499999999996
 30
0.0
 40
0.04921875
100
AcDbArc
 50
180.0
 51
219.9999999999998
  0
LINE
  5
2F3
330
2
100
AcDbEntity
  8
0
100
AcDbLine
 10
-6.420995256032942
 20
4.8125
 30
0.0
 11
-6.358495256032942
 21
4.8125
 31
0.0
  0
ENDSEC
  0
SECTION
  2
OBJECTS
  0
DICTIONARY
  5
9
330
0
100
AcDbDictionary
281
     1
  3
ACAD_COLOR
350
2FF
  3
ACAD_GROUP
350
23
  3
ACAD_LAYOUT
350
D
  3
ACAD_MATERIAL
350
2FE
  3
ACAD_MLINESTYLE
350
24
  3
ACAD_PLOTSETTINGS
350
25
  3
ACAD_PLOTSTYLENAME
350
8
  3
ACAD_TABLESTYLE
350
300
  3
ACDBHEADERROUNDTRIPXREC
350
30E
  3
AcDbVariableDictionary
350
120
  0
DICTIONARY
  5
2FF
102
{ACAD_REACTORS
330
9
102
}
330
9
100
AcDbDictionary
281
     1
  0
DICTIONARY
  5
23
102
{ACAD_REACTORS
330
9
102
}
330
9
100
AcDbDictionary
281
     1
  0
DICTIONARY
  5
D
102
{ACAD_REACTORS
330
9
102
}
330
9
100
AcDbDictionary
281
     1
  3
Layout1
350
13
  3
Model
350
C
  0
DICTIONARY
  5
2FE
102
{ACAD_REACTORS
330
9
102
}
330
9
100
AcDbDictionary
281
     1
  0
DICTIONARY
  5
24
102
{ACAD_REACTORS
330
9
102
}
330
9
100
AcDbDictionary
281
     1
  3
STANDARD
350
27
  0
DICTIONARY
  5
25
102
{ACAD_REACTORS
330
9
102
}
330
9
100
AcDbDictionary
281
     1
  0
ACDBDICTIONARYWDFLT
  5
8
102
{ACAD_REACTORS
330
9
102
}
330
9
100
AcDbDictionary
281
     1
  3
Normal
350
7
100
AcDbDictionaryWithDefault
340
7
  0
DICTIONARY
  5
300
102
{ACAD_REACTORS
330
9
102
}
330
9
100
AcDbDictionary
281
     1
  3
Standard
350
301
  0
DICTIONARY
  5
30E
102
{ACAD_REACTORS
330
9
102
}
330
9
100
AcDbDictionary
281
     1
  3
COLORDICT
350
30F
  3
MATERIALDICT
350
310
  0
DICTIONARY
  5
120
102
{ACAD_REACTORS
330
9
102
}
330
9
100
AcDbDictionary
281
     1
  3
CTABLESTYLE
350
30B
  3
HIDETEXT
350
30D
  0
LAYOUT
  5
13
102
{ACAD_REACTORS
330
D
102
}
102
{ACAD_XDICTIONARY
360
311
102
}
330
D
100
AcDbPlotSettings
  1

  2
HP LaserJet 2100 Series PS
  4

  6

 40
0.0
 41
0.0
 42
0.0
 43
0.0
 44
0.0
 45
0.0
 46
0.0
 47
0.0
 48
0.0
 49
0.0
140
0.0
141
0.0
142
1.0
143
1.0
 70
   688
 72
     0
 73
     0
 74
     5
  7

 75
    16
147
1.0
148
0.0
149
0.0
100
AcDbLayout
  1
Layout1
 70
     0
 71
     1
 10
0.0
 20
0.0
 11
12.0
 21
9.0
 12
0.0
 22
0.0
 32
0.0
 14
1.000000000000000E+20
 24
1.000000000000000E+20
 34
1.000000000000000E+20
 15
-1.000000000000000E+20
 25
-1.000000000000000E+20
 35
-1.000000000000000E+20
146
0.0
 13
0.0
 23
0.0
 33
0.0
 16
1.0
 26
0.0
 36
0.0
 17
0.0
 27
1.0
 37
0.0
 76
     0
330
E
  0
LAYOUT
  5
C
102
{ACAD_REACTORS
330
D
102
}
102
{ACAD_XDICTIONARY
360
313
102
}
330
D
100
AcDbPlotSettings
  1

  2
HP LaserJet 2100 Series PS
  4
Letter
  6

 40
5.365749835968018
 41
5.408084392547607
 42
5.4080810546875
 43
5.365753173828125
 44
215.8999938964844
 45
279.3999938964844
 46
0.0
 47
0.0
 48
0.0
 49
0.0
140
0.0
141
0.0
142
1.0
143
1.0
 70
 11952
 72
     0
 73
     1
 74
     0
  7

 75
     0
147
1.0
148
-45.90593634834403
149
3.176557431435829
100
AcDbLayout
  1
Model
 70
     1
 71
     0
 10
0.0
 20
0.0
 11
12.0
 21
9.0
 12
0.0
 22
0.0
 32
0.0
 14
0.0
 24
0.0
 34
0.0
 15
0.0
 25
0.0
 35
0.0
146
0.0
 13
0.0
 23
0.0
 33
0.0
 16
1.0
 26
0.0
 36
0.0
 17
0.0
 27
1.0
 37
0.0
 76
     0
330
2
  0
MLINESTYLE
  5
27
102
{ACAD_REACTORS
330
24
102
}
330
24
100
AcDbMlineStyle
  2
STANDARD
 70
     0
  3

 62
   256
 51
90.0
 52
90.0
 71
     2
 49
0.5
 62
   256
  6
BYLAYER
 49
-0.5
 62
   256
  6
BYLAYER
  0
ACDBPLACEHOLDER
  5
7
102
{ACAD_REACTORS
330
8
102
}
330
8
  0
ACAD_PROXY_OBJECT
  5
301
102
{ACAD_REACTORS
330
300
102
}
330
300
100
AcDbProxyObject
 90
      499
 91
      581
 95
   983063
 70
     0
 93
     1841
310
4214DD185B99185C9928B81E85EB51B8AE3F2E07A17AD46E2B8FC02B5E8DC0F42B1CFD028000000C1008070000C3001FDFF8000000C1003FBFF000000182007F7FE00000030400FEFFC00000060801FDFF8000000C1003FBFF00000018200000000000000681FA0B0000001820100E000186003FBFF000000182007F7FE000
310
00030400FEFFC00000060801FDFF8000000C1003FBFF000000182007F7FE000000304000AD7A3703D0AC73F4160000003040201C00030C007F7FE00000030400FEFFC00000060801FDFF8000000C1003FBFF000000182007F7FE00000030400FEFFC000000608000
340
16
340
16
340
16
 94
        0
  0
XRECORD
  5
30F
102
{ACAD_REACTORS
330
30E
102
}
330
30E
100
AcDbXrecord
340
2FF
  0
XRECORD
  5
310
102
{ACAD_REACTORS
330
30E
102
}
330
30E
100
AcDbXrecord
340
2FE
  0
DICTIONARYVAR
  5
30B
102
{ACAD_REACTORS
330
120
102
}
330
120
100
DictionaryVariables
280
     0
  1
STANDARD
  0
DICTIONARYVAR
  5
30D
102
{ACAD_REACTORS
330
120
102
}
330
120
100
DictionaryVariables
280
     0
  1
0
  0
DICTIONARY
  5
311
330
13
100
AcDbDictionary
280
     1
281
     1
  3
ACAD_XREC_ROUNDTRIP
360
312
  0
DICTIONARY
  5
313
330
C
100
AcDbDictionary
280
     1
281
     1
  3
ACAD_XREC_ROUNDTRIP
360
314
  0
XRECORD
  5
312
102
{ACAD_REACTORS
330
311
102
}
330
311
100
AcDbXrecord
102
SHADEPLOT
 70
     0
102
SHADEPLOTRESLEVEL
 70
     2
102
SHADEPLOTCUSTOMDPI
 70
   300
  0
XRECORD
  5
314
102
{ACAD_REACTORS
330
313
102
}
330
313
100
AcDbXrecord
102
SHADEPLOT
 70
     0
102
SHADEPLOTRESLEVEL
 70
     2
102
SHADEPLOTCUSTOMDPI
 70
   300
  0
ENDSEC
  0
EOF
