  0
SECTION
  2
HEADER
  9
$ACADVER
  1
AC1015
  9
$ACADMAINTVER
 70
     6
  9
$DWGCODEPAGE
  3
ANSI_1252
  9
$INSBASE
 10
0.0
 20
0.0
 30
0.0
  9
$EXTMIN
 10
-10.28685662819058
 20
-0.0258883476483184
 30
0.0
  9
$EXTMAX
 10
10.6780370079944
 20
14.62921937138068
 30
0.0
  9
$LIMMIN
 10
0.0
 20
0.0
  9
$LIMMAX
 10
42.0
 20
32.0
  9
$ORTHOMODE
 70
     1
  9
$REGENMODE
 70
     1
  9
$FILLMODE
 70
     1
  9
$QTEXTMODE
 70
     0
  9
$MIRRTEXT
 70
     0
  9
$LTSCALE
 40
0.75
  9
$ATTMODE
 70
     1
  9
$TEXTSIZE
 40
0.27
  9
$TRACEWID
 40
0.05
  9
$TEXTSTYLE
  7
STANDARD
  9
$CLAYER
  8
0
  9
$CELTYPE
  6
BYLAYER
  9
$CECOLOR
 62
   256
  9
$CELTSCALE
 40
1.0
  9
$DISPSILH
 70
     0
  9
$DIMSCALE
 40
1.0
  9
$DIMASZ
 40
0.18
  9
$DIMEXO
 40
0.0625
  9
$DIMDLI
 40
0.38
  9
$DIMRND
 40
0.0
  9
$DIMDLE
 40
0.0
  9
$DIMEXE
 40
0.18
  9
$DIMTP
 40
0.0
  9
$DIMTM
 40
0.0
  9
$DIMTXT
 40
0.18
  9
$DIMCEN
 40
0.09
  9
$DIMTSZ
 40
0.0
  9
$DIMTOL
 70
     0
  9
$DIMLIM
 70
     0
  9
$DIMTIH
 70
     1
  9
$DIMTOH
 70
     1
  9
$DIMSE1
 70
     0
  9
$DIMSE2
 70
     0
  9
$DIMTAD
 70
     0
  9
$DIMZIN
 70
     0
  9
$DIMBLK
  1

  9
$DIMASO
 70
     0
  9
$DIMSHO
 70
     0
  9
$DIMPOST
  1

  9
$DIMAPOST
  1

  9
$DIMALT
 70
     0
  9
$DIMALTD
 70
     2
  9
$DIMALTF
 40
25.4
  9
$DIMLFAC
 40
1.0
  9
$DIMTOFL
 70
     0
  9
$DIMTVP
 40
0.0
  9
$DIMTIX
 70
     0
  9
$DIMSOXD
 70
     0
  9
$DIMSAH
 70
     0
  9
$DIMBLK1
  1

  9
$DIMBLK2
  1

  9
$DIMSTYLE
  2
STANDARD
  9
$DIMCLRD
 70
     0
  9
$DIMCLRE
 70
     0
  9
$DIMCLRT
 70
     0
  9
$DIMTFAC
 40
1.0
  9
$DIMGAP
 40
0.09
  9
$DIMJUST
 70
     0
  9
$DIMSD1
 70
     0
  9
$DIMSD2
 70
     0
  9
$DIMTOLJ
 70
     1
  9
$DIMTZIN
 70
     0
  9
$DIMALTZ
 70
     0
  9
$DIMALTTZ
 70
     0
  9
$DIMUPT
 70
     0
  9
$DIMDEC
 70
     5
  9
$DIMTDEC
 70
     5
  9
$DIMALTU
 70
     2
  9
$DIMALTTD
 70
     2
  9
$DIMTXSTY
  7
STANDARD
  9
$DIMAUNIT
 70
     0
  9
$DIMADEC
 70
     0
  9
$DIMALTRND
 40
0.0
  9
$DIMAZIN
 70
     0
  9
$DIMDSEP
 70
    46
  9
$DIMATFIT
 70
     3
  9
$DIMFRAC
 70
     2
  9
$DIMLDRBLK
  1

  9
$DIMLUNIT
 70
     5
  9
$DIMLWD
 70
    -2
  9
$DIMLWE
 70
    -2
  9
$DIMTMOVE
 70
     0
  9
$LUNITS
 70
     5
  9
$LUPREC
 70
     5
  9
$SKETCHINC
 40
0.1
  9
$FILLETRAD
 40
0.0
  9
$AUNITS
 70
     0
  9
$AUPREC
 70
     0
  9
$MENU
  1
ACAD
  9
$ELEVATION
 40
0.0
  9
$PELEVATION
 40
0.0
  9
$THICKNESS
 40
0.0
  9
$LIMCHECK
 70
     0
  9
$CHAMFERA
 40
0.0
  9
$CHAMFERB
 40
0.0
  9
$CHAMFERC
 40
0.0
  9
$CHAMFERD
 40
0.0
  9
$SKPOLY
 70
     0
  9
$TDCREATE
 40
2448910.912768634
  9
$TDUCREATE
 40
2448911.246101968
  9
$TDUPDATE
 40
2454175.698172303
  9
$TDUUPDATE
 40
2454176.031505636
  9
$TDINDWG
 40
0.2865516088
  9
$TDUSRTIMER
 40
0.2865516088
  9
$USRTIMER
 70
     1
  9
$ANGBASE
 50
0.0
  9
$ANGDIR
 70
     0
  9
$PDMODE
 70
     0
  9
$PDSIZE
 40
0.0
  9
$PLINEWID
 40
0.0
  9
$SPLFRAME
 70
     0
  9
$SPLINETYPE
 70
     6
  9
$SPLINESEGS
 70
     8
  9
$HANDSEED
  5
1F4
  9
$SURFTAB1
 70
     6
  9
$SURFTAB2
 70
     6
  9
$SURFTYPE
 70
     6
  9
$SURFU
 70
     6
  9
$SURFV
 70
     6
  9
$UCSBASE
  2

  9
$UCSNAME
  2

  9
$UCSORG
 10
0.0
 20
0.0
 30
0.0
  9
$UCSXDIR
 10
1.0
 20
0.0
 30
0.0
  9
$UCSYDIR
 10
0.0
 20
1.0
 30
0.0
  9
$UCSORTHOREF
  2

  9
$UCSORTHOVIEW
 70
     0
  9
$UCSORGTOP
 10
0.0
 20
0.0
 30
0.0
  9
$UCSORGBOTTOM
 10
0.0
 20
0.0
 30
0.0
  9
$UCSORGLEFT
 10
0.0
 20
0.0
 30
0.0
  9
$UCSORGRIGHT
 10
0.0
 20
0.0
 30
0.0
  9
$UCSORGFRONT
 10
0.0
 20
0.0
 30
0.0
  9
$UCSORGBACK
 10
0.0
 20
0.0
 30
0.0
  9
$PUCSBASE
  2

  9
$PUCSNAME
  2

  9
$PUCSORG
 10
0.0
 20
0.0
 30
0.0
  9
$PUCSXDIR
 10
1.0
 20
0.0
 30
0.0
  9
$PUCSYDIR
 10
0.0
 20
1.0
 30
0.0
  9
$PUCSORTHOREF
  2

  9
$PUCSORTHOVIEW
 70
     0
  9
$PUCSORGTOP
 10
0.0
 20
0.0
 30
0.0
  9
$PUCSORGBOTTOM
 10
0.0
 20
0.0
 30
0.0
  9
$PUCSORGLEFT
 10
0.0
 20
0.0
 30
0.0
  9
$PUCSORGRIGHT
 10
0.0
 20
0.0
 30
0.0
  9
$PUCSORGFRONT
 10
0.0
 20
0.0
 30
0.0
  9
$PUCSORGBACK
 10
0.0
 20
0.0
 30
0.0
  9
$USERI1
 70
     0
  9
$USERI2
 70
     0
  9
$USERI3
 70
     0
  9
$USERI4
 70
     0
  9
$USERI5
 70
     0
  9
$USERR1
 40
0.0
  9
$USERR2
 40
0.0
  9
$USERR3
 40
0.0
  9
$USERR4
 40
0.0
  9
$USERR5
 40
0.0
  9
$WORLDVIEW
 70
     1
  9
$SHADEDGE
 70
     3
  9
$SHADEDIF
 70
    70
  9
$TILEMODE
 70
     1
  9
$MAXACTVP
 70
    16
  9
$PINSBASE
 10
0.0
 20
0.0
 30
0.0
  9
$PLIMCHECK
 70
     0
  9
$PEXTMIN
 10
1.000000000000000E+20
 20
1.000000000000000E+20
 30
1.000000000000000E+20
  9
$PEXTMAX
 10
-1.000000000000000E+20
 20
-1.000000000000000E+20
 30
-1.000000000000000E+20
  9
$PLIMMIN
 10
0.0
 20
0.0
  9
$PLIMMAX
 10
12.0
 20
9.0
  9
$UNITMODE
 70
     0
  9
$VISRETAIN
 70
     0
  9
$PLINEGEN
 70
     0
  9
$PSLTSCALE
 70
     0
  9
$TREEDEPTH
 70
  3020
  9
$CMLSTYLE
  2
STANDARD
  9
$CMLJUST
 70
     0
  9
$CMLSCALE
 40
1.0
  9
$PROXYGRAPHICS
 70
     1
  9
$MEASUREMENT
 70
     0
  9
$CELWEIGHT
370
    -1
  9
$ENDCAPS
280
     0
  9
$JOINSTYLE
280
     0
  9
$LWDISPLAY
290
     0
  9
$INSUNITS
 70
     0
  9
$HYPERLINKBASE
  1

  9
$STYLESHEET
  1

  9
$XEDIT
290
     1
  9
$CEPSNTYPE
380
     0
  9
$PSTYLEMODE
290
     1
  9
$FINGERPRINTGUID
  2
{A5685102-C481-11D5-BE3F-00508B5FCD51}
  9
$VERSIONGUID
  2
{DC7F4FC7-A924-4ABC-9B3F-ED030A68BD92}
  9
$EXTNAMES
290
     1
  9
$PSVPSCALE
 40
0.0
  9
$OLESTARTUP
290
     0
  0
ENDSEC
  0
SECTION
  2
CLASSES
  0
CLASS
  1
DICTIONARYVAR
  2
AcDbDictionaryVar
  3
AutoCAD 2000
 90
        0
280
     0
281
     0
  0
CLASS
  1
LWPOLYLINE
  2
AcDbPolyline
  3
AutoCAD 2000
 90
        0
280
     0
281
     1
  0
CLASS
  1
ACDBDICTIONARYWDFLT
  2
AcDbDictionaryWithDefault
  3
AutoCAD 2000
 90
        0
280
     0
281
     0
  0
CLASS
  1
ACDBPLACEHOLDER
  2
AcDbPlaceHolder
  3
ObjectDBX Classes
 90
        0
280
     0
281
     0
  0
CLASS
  1
LAYOUT
  2
AcDbLayout
  3
ObjectDBX Classes
 90
        0
280
     0
281
     0
  0
CLASS
  1
LONG_TRANSACTION
  2
AcDbLongTransaction
  3
ObjectDBX Classes
 90
   -65536
280
     1
281
     0
  0
CLASS
  1
LWPOLYLINE
  2
AcDbPolyline
  3
AutoCAD 2000
 90
        0
280
     0
281
     1
  0
CLASS
  1
HATCH
  2
AcDbHatch
  3
AutoCAD 2000
 90
        0
280
     0
281
     1
  0
CLASS
  1
XRECORD
  2
AcDbXrecord
  3
AutoCAD 2000
 90
        0
280
     0
281
     0
  0
CLASS
  1
LONG_TRANSACTION
  2
AcDbLongTransaction
  3
ObjectDBX Classes
 90
   -65536
280
     1
281
     0
  0
CLASS
  1
LWPOLYLINE
  2
AcDbPolyline
  3
AutoCAD 2000
 90
        0
280
     0
281
     1
  0
CLASS
  1
HATCH
  2
AcDbHatch
  3
AutoCAD 2000
 90
        0
280
     0
281
     1
  0
CLASS
  1
XRECORD
  2
AcDbXrecord
  3
AutoCAD 2000
 90
        0
280
     0
281
     0
  0
CLASS
  1
LONG_TRANSACTION
  2
AcDbLongTransaction
  3
ObjectDBX Classes
 90
   -65536
280
     1
281
     0
  0
CLASS
  1
LWPOLYLINE
  2
AcDbPolyline
  3
AutoCAD 2000
 90
        0
280
     0
281
     1
  0
CLASS
  1
HATCH
  2
AcDbHatch
  3
AutoCAD 2000
 90
        0
280
     0
281
     1
  0
CLASS
  1
XRECORD
  2
AcDbXrecord
  3
AutoCAD 2000
 90
        0
280
     0
281
     0
  0
CLASS
  1
LONG_TRANSACTION
  2
AcDbLongTransaction
  3
ObjectDBX Classes
 90
   -65536
280
     1
281
     0
  0
CLASS
  1
LWPOLYLINE
  2
AcDbPolyline
  3
AutoCAD 2000
 90
        0
280
     0
281
     1
  0
CLASS
  1
HATCH
  2
AcDbHatch
  3
AutoCAD 2000
 90
        0
280
     0
281
     1
  0
CLASS
  1
XRECORD
  2
AcDbXrecord
  3
AutoCAD 2000
 90
        0
280
     0
281
     0
  0
CLASS
  1
LONG_TRANSACTION
  2
AcDbLongTransaction
  3
ObjectDBX Classes
 90
   -65536
280
     1
281
     0
  0
CLASS
  1
LWPOLYLINE
  2
AcDbPolyline
  3
AutoCAD 2000
 90
        0
280
     0
281
     1
  0
CLASS
  1
HATCH
  2
AcDbHatch
  3
AutoCAD 2000
 90
        0
280
     0
281
     1
  0
CLASS
  1
XRECORD
  2
AcDbXrecord
  3
AutoCAD 2000
 90
        0
280
     0
281
     0
  0
CLASS
  1
LONG_TRANSACTION
  2
AcDbLongTransaction
  3
ObjectDBX Classes
 90
   -65536
280
     1
281
     0
  0
CLASS
  1
LWPOLYLINE
  2
AcDbPolyline
  3
AutoCAD 2000
 90
        0
280
     0
281
     1
  0
CLASS
  1
HATCH
  2
AcDbHatch
  3
AutoCAD 2000
 90
        0
280
     0
281
     1
  0
CLASS
  1
XRECORD
  2
AcDbXrecord
  3
AutoCAD 2000
 90
        0
280
     0
281
     0
  0
CLASS
  1
LONG_TRANSACTION
  2
AcDbLongTransaction
  3
ObjectDBX Classes
 90
   -65536
280
     1
281
     0
  0
CLASS
  1
LWPOLYLINE
  2
AcDbPolyline
  3
AutoCAD 2000
 90
        0
280
     0
281
     1
  0
CLASS
  1
HATCH
  2
AcDbHatch
  3
AutoCAD 2000
 90
        0
280
     0
281
     1
  0
CLASS
  1
XRECORD
  2
AcDbXrecord
  3
AutoCAD 2000
 90
        0
280
     0
281
     0
  0
CLASS
  1
LONG_TRANSACTION
  2
AcDbLongTransaction
  3
ObjectDBX Classes
 90
   -65536
280
     1
281
     0
  0
CLASS
  1
LWPOLYLINE
  2
AcDbPolyline
  3
AutoCAD 2000
 90
        0
280
     0
281
     1
  0
CLASS
  1
HATCH
  2
AcDbHatch
  3
AutoCAD 2000
 90
        0
280
     0
281
     1
  0
CLASS
  1
XRECORD
  2
AcDbXrecord
  3
AutoCAD 2000
 90
        0
280
     0
281
     0
  0
CLASS
  1
LONG_TRANSACTION
  2
AcDbLongTransaction
  3
ObjectDBX Classes
 90
   -65536
280
     1
281
     0
  0
CLASS
  1
LWPOLYLINE
  2
AcDbPolyline
  3
AutoCAD 2000
 90
        0
280
     0
281
     1
  0
CLASS
  1
HATCH
  2
AcDbHatch
  3
AutoCAD 2000
 90
        0
280
     0
281
     1
  0
CLASS
  1
XRECORD
  2
AcDbXrecord
  3
AutoCAD 2000
 90
        0
280
     0
281
     0
  0
CLASS
  1
LONG_TRANSACTION
  2
AcDbLongTransaction
  3
ObjectDBX Classes
 90
   -65536
280
     1
281
     0
  0
CLASS
  1
LWPOLYLINE
  2
AcDbPolyline
  3
AutoCAD 2000
 90
        0
280
     0
281
     1
  0
CLASS
  1
HATCH
  2
AcDbHatch
  3
AutoCAD 2000
 90
        0
280
     0
281
     1
  0
CLASS
  1
XRECORD
  2
AcDbXrecord
  3
AutoCAD 2000
 90
        0
280
     0
281
     0
  0
CLASS
  1
LONG_TRANSACTION
  2
AcDbLongTransaction
  3
ObjectDBX Classes
 90
   -65536
280
     1
281
     0
  0
CLASS
  1
LWPOLYLINE
  2
AcDbPolyline
  3
AutoCAD 2000
 90
        0
280
     0
281
     1
  0
CLASS
  1
HATCH
  2
AcDbHatch
  3
AutoCAD 2000
 90
        0
280
     0
281
     1
  0
CLASS
  1
XRECORD
  2
AcDbXrecord
  3
AutoCAD 2000
 90
        0
280
     0
281
     0
  0
CLASS
  1
LONG_TRANSACTION
  2
AcDbLongTransaction
  3
ObjectDBX Classes
 90
   -65536
280
     1
281
     0
  0
CLASS
  1
LWPOLYLINE
  2
AcDbPolyline
  3
AutoCAD 2000
 90
        0
280
     0
281
     1
  0
CLASS
  1
HATCH
  2
AcDbHatch
  3
AutoCAD 2000
 90
        0
280
     0
281
     1
  0
CLASS
  1
XRECORD
  2
AcDbXrecord
  3
AutoCAD 2000
 90
        0
280
     0
281
     0
  0
CLASS
  1
LONG_TRANSACTION
  2
AcDbLongTransaction
  3
ObjectDBX Classes
 90
   -65536
280
     1
281
     0
  0
CLASS
  1
LWPOLYLINE
  2
AcDbPolyline
  3
AutoCAD 2000
 90
        0
280
     0
281
     1
  0
CLASS
  1
HATCH
  2
AcDbHatch
  3
AutoCAD 2000
 90
        0
280
     0
281
     1
  0
CLASS
  1
XRECORD
  2
AcDbXrecord
  3
AutoCAD 2000
 90
        0
280
     0
281
     0
  0
CLASS
  1
LONG_TRANSACTION
  2
AcDbLongTransaction
  3
ObjectDBX Classes
 90
   -65536
280
     1
281
     0
  0
CLASS
  1
LWPOLYLINE
  2
AcDbPolyline
  3
AutoCAD 2000
 90
        0
280
     0
281
     1
  0
CLASS
  1
HATCH
  2
AcDbHatch
  3
AutoCAD 2000
 90
        0
280
     0
281
     1
  0
CLASS
  1
XRECORD
  2
AcDbXrecord
  3
AutoCAD 2000
 90
        0
280
     0
281
     0
  0
CLASS
  1
TABLESTYLE
  2
AcDbTableStyle
  3
ObjectDBX Classes
 90
     2047
280
     1
281
     0
  0
ENDSEC
  0
SECTION
  2
TABLES
  0
TABLE
  2
VPORT
  5
1D
330
0
100
AcDbSymbolTable
 70
     3
  0
VPORT
  5
1E6
330
1D
100
AcDbSymbolTableRecord
100
AcDbViewportTableRecord
  2
*Active
 70
     0
 10
0.0
 20
0.0
 11
1.0
 21
1.0
 12
7.913668276819944
 22
9.04177149710751
 13
0.0
 23
0.0
 14
0.03125
 24
0.03125
 15
0.5
 25
0.5
 16
0.0
 26
0.0
 36
1.0
 17
0.0
 27
0.0
 37
0.0
 40
26.00233462062495
 41
1.814583333333333
 42
50.0
 43
0.0
 44
0.0
 50
0.0
 51
0.0
 71
     0
 72
   100
 73
     1
 74
     0
 75
     0
 76
     0
 77
     0
 78
     0
281
     0
 65
     1
110
0.0
120
0.0
130
0.0
111
1.0
121
0.0
131
0.0
112
0.0
122
1.0
132
0.0
 79
     0
146
0.0
  0
ENDTAB
  0
TABLE
  2
LTYPE
  5
18
330
0
100
AcDbSymbolTable
 70
     2
  0
LTYPE
  5
19
330
18
100
AcDbSymbolTableRecord
100
AcDbLinetypeTableRecord
  2
BYBLOCK
 70
     0
  3

 72
    65
 73
     0
 40
0.0
  0
LTYPE
  5
1A
330
18
100
AcDbSymbolTableRecord
100
AcDbLinetypeTableRecord
  2
BYLAYER
 70
     0
  3

 72
    65
 73
     0
 40
0.0
  0
LTYPE
  5
A
330
18
100
AcDbSymbolTableRecord
100
AcDbLinetypeTableRecord
  2
CONTINUOUS
 70
     0
  3
Solid line
 72
    65
 73
     0
 40
0.0
  0
LTYPE
  5
30
330
18
100
AcDbSymbolTableRecord
100
AcDbLinetypeTableRecord
  2
HIDDEN
 70
     0
  3
_ _ _ _ _ _ _ _ _ _ _ _ _ _ _ _ _ _ _ _ _ _ _
 72
    65
 73
     2
 40
0.375
 49
0.25
 74
     0
 49
-0.125
 74
     0
  0
ENDTAB
  0
TABLE
  2
LAYER
  5
14
330
0
100
AcDbSymbolTable
 70
     1
  0
LAYER
  5
6
330
14
100
AcDbSymbolTableRecord
100
AcDbLayerTableRecord
  2
0
 70
     0
 62
     7
  6
CONTINUOUS
370
    -3
390
7
  0
ENDTAB
  0
TABLE
  2
STYLE
  5
15
330
0
100
AcDbSymbolTable
 70
     1
  0
STYLE
  5
16
330
15
100
AcDbSymbolTableRecord
100
AcDbTextStyleTableRecord
  2
STANDARD
 70
     0
 40
0.0
 41
1.0
 50
0.0
 71
     0
 42
0.27
  3
txt
  4

  0
ENDTAB
  0
TABLE
  2
VIEW
  5
1B
330
0
100
AcDbSymbolTable
 70
     0
  0
ENDTAB
  0
TABLE
  2
UCS
  5
1C
330
0
100
AcDbSymbolTable
 70
     0
  0
ENDTAB
  0
TABLE
  2
APPID
  5
1F
330
0
100
AcDbSymbolTable
 70
     1
  0
APPID
  5
20
330
1F
100
AcDbSymbolTableRecord
100
AcDbRegAppTableRecord
  2
ACAD
 70
     0
  0
ENDTAB
  0
TABLE
  2
DIMSTYLE
  5
21
330
0
100
AcDbSymbolTable
 70
     1
100
AcDbDimStyleTable
  0
DIMSTYLE
105
22
330
21
100
AcDbSymbolTableRecord
100
AcDbDimStyleTableRecord
  2
STANDARD
 70
     0
  3

  4

271
     5
272
     5
276
     2
277
     5
340
16
  0
ENDTAB
  0
TABLE
  2
BLOCK_RECORD
  5
1
330
0
100
AcDbSymbolTable
 70
     0
  0
BLOCK_RECORD
  5
2
330
1
100
AcDbSymbolTableRecord
100
AcDbBlockTableRecord
  2
*MODEL_SPACE
340
C
  0
BLOCK_RECORD
  5
E
330
1
100
AcDbSymbolTableRecord
100
AcDbBlockTableRecord
  2
*PAPER_SPACE
340
13
  0
ENDTAB
  0
ENDSEC
  0
SECTION
  2
BLOCKS
  0
BLOCK
  5
5
330
2
100
AcDbEntity
  8
0
100
AcDbBlockBegin
  2
*MODEL_SPACE
 70
     0
 10
0.0
 20
0.0
 30
0.0
  3
*MODEL_SPACE
  1

  4

  0
ENDBLK
  5
B
330
2
100
AcDbEntity
  8
0
100
AcDbBlockEnd
  0
BLOCK
  5
11
330
E
100
AcDbEntity
 67
     1
  8
0
100
AcDbBlockBegin
  2
*PAPER_SPACE
 70
     0
 10
0.0
 20
0.0
 30
0.0
  3
*PAPER_SPACE
  1

  4

  0
ENDBLK
  5
12
330
E
100
AcDbEntity
 67
     1
  8
0
100
AcDbBlockEnd
  0
ENDSEC
  0
SECTION
  2
ENTITIES
  0
LINE
  5
5E
330
2
100
AcDbEntity
  8
0
100
AcDbLine
 10
-0.3322033442033572
 20
4.562500000000014
 30
0.0
 11
-0.3322033442033572
 21
5.187500000000014
 31
0.0
  0
LINE
  5
5F
330
2
100
AcDbEntity
  8
0
100
AcDbLine
 10
0.6052966557966428
 20
1.160000000000011
 30
0.0
 11
0.6052966557966428
 21
6.875000000000014
 31
0.0
  0
LINE
  5
60
330
2
100
AcDbEntity
  8
0
100
AcDbLine
 10
0.6677966557966357
 20
1.265609403139926
 30
0.0
 11
0.6677966557966428
 21
6.875000000000014
 31
0.0
  0
LINE
  5
A5
330
2
100
AcDbEntity
  8
0
100
AcDbLine
 10
-1.542097349739478
 20
0.7470996975063784
 30
0.0
 11
-0.3576561955471433
 21
2.468176240467251
 31
0.0
  0
LINE
  5
A6
330
2
100
AcDbEntity
  8
0
  6
HIDDEN
100
AcDbLine
 10
-1.564703344203352
 20
0.125
 30
0.0
 11
0.4352966557966482
 21
0.125
 31
0.0
  0
LINE
  5
A7
330
2
100
AcDbEntity
  8
0
100
AcDbLine
 10
-1.564703344203352
 20
0.0625
 30
0.0
 11
0.4352966557966482
 21
0.0625
 31
0.0
  0
LINE
  5
A8
330
2
100
AcDbEntity
  8
0
100
AcDbLine
 10
-1.564703344203352
 20
0.0625
 30
0.0
 11
-1.564703344203352
 21
0.6754026429625029
 31
0.0
  0
ARC
  5
A9
330
2
100
AcDbEntity
  8
0
100
AcDbCircle
 10
-1.439703344203352
 20
0.6754026429624958
 30
0.0
 40
0.125
100
AcDbArc
 50
144.9999999999999
 51
180.0
  0
ARC
  5
AA
330
2
100
AcDbEntity
  8
0
100
AcDbCircle
 10
0.6052966557966428
 20
2.625530000000012
 30
0.0
 40
0.156
100
AcDbArc
 50
90.0
 51
270.0
  0
ARC
  5
AB
330
2
100
AcDbEntity
  8
0
100
AcDbCircle
 10
-0.5197033442033572
 20
2.562500000000007
 30
0.0
 40
0.1875
100
AcDbArc
 50
329.7973413166035
 51
0.0
  0
LINE
  5
AC
330
2
100
AcDbEntity
  8
0
100
AcDbLine
 10
0.4579026502605252
 20
0.9033496975064068
 30
0.0
 11
0.6677966557966357
 21
1.265609403139926
 31
0.0
  0
LINE
  5
AE
330
2
100
AcDbEntity
  8
0
100
AcDbLine
 10
-0.3947033442033501
 20
1.814250000000008
 30
0.0
 11
-0.3947033442033501
 21
2.248250000000006
 31
0.0
  0
LINE
  5
AF
330
2
100
AcDbEntity
  8
0
100
AcDbLine
 10
0.4352966557966482
 20
0.125
 30
0.0
 11
0.4352966557966482
 21
0.8316526429625242
 31
0.0
  0
LINE
  5
B1
330
2
100
AcDbEntity
  8
0
100
AcDbLine
 10
0.4352966557966482
 20
0.0625
 30
0.0
 11
0.4352966557966482
 21
0.125
 31
0.0
  0
ARC
  5
B2
330
2
100
AcDbEntity
  8
0
100
AcDbCircle
 10
0.5602966557966482
 20
0.8316526429625242
 30
0.0
 40
0.125
100
AcDbArc
 50
144.9999999999999
 51
180.0
  0
LINE
  5
BB
330
2
100
AcDbEntity
  8
0
100
AcDbLine
 10
-0.3947033442033501
 20
3.496229973885534
 30
0.0
 11
-0.3947033442033501
 21
3.930229973885531
 31
0.0
  0
LINE
  5
BD
330
2
100
AcDbEntity
  8
0
100
AcDbLine
 10
-0.6442033442033619
 20
4.192700000000016
 30
0.0
 11
-0.6442033442033619
 21
3.557300000000012
 31
0.0
  0
LINE
  5
BE
330
2
100
AcDbEntity
  8
0
100
AcDbLine
 10
-0.3322033442033572
 20
2.562500000000011
 30
0.0
 11
-0.3322033442033572
 21
3.187500000000014
 31
0.0
  0
ARC
  5
C0
330
2
100
AcDbEntity
  8
0
100
AcDbCircle
 10
-0.5197033442033572
 20
3.187500000000014
 30
0.0
 40
0.1875
100
AcDbArc
 50
0.0
 51
90.0
  0
ARC
  5
C2
330
2
100
AcDbEntity
  8
0
100
AcDbCircle
 10
-0.4567033442033619
 20
3.557300000000012
 30
0.0
 40
0.1875
100
AcDbArc
 50
180.0
 51
250.3666411024315
  0
ARC
  5
C3
330
2
100
AcDbEntity
  8
0
100
AcDbCircle
 10
-0.5197033442033572
 20
4.562500000000014
 30
0.0
 40
0.1875
100
AcDbArc
 50
289.6333588975897
 51
0.0
  0
ARC
  5
C4
330
2
100
AcDbEntity
  8
0
100
AcDbCircle
 10
-0.4567033442033619
 20
4.192700000000016
 30
0.0
 40
0.1875
100
AcDbArc
 50
90.0
 51
180.0
  0
ARC
  5
111
330
2
100
AcDbEntity
  8
0
100
AcDbCircle
 10
-0.4567033442033619
 20
6.192700000000016
 30
0.0
 40
0.1875
100
AcDbArc
 50
90.0
 51
180.0
  0
LINE
  5
112
330
2
100
AcDbEntity
  8
0
100
AcDbLine
 10
0.6052966557966428
 20
6.250000000000014
 30
0.0
 11
0.2927966557966428
 21
6.000000000000014
 31
0.0
  0
LINE
  5
113
330
2
100
AcDbEntity
  8
0
100
AcDbLine
 10
0.2927966557966428
 20
6.000000000000014
 30
0.0
 11
0.6052966557966428
 21
5.812500000000014
 31
0.0
  0
LINE
  5
114
330
2
100
AcDbEntity
  8
0
100
AcDbLine
 10
-0.6442033442033619
 20
5.557299788214721
 30
0.0
 11
-0.6442033442033619
 21
6.192700000000016
 31
0.0
  0
ARC
  5
115
330
2
100
AcDbEntity
  8
0
100
AcDbCircle
 10
-0.5197033442033572
 20
5.187500000000014
 30
0.0
 40
0.1875
100
AcDbArc
 50
0.0
 51
90.0
  0
ARC
  5
116
330
2
100
AcDbEntity
  8
0
100
AcDbCircle
 10
-0.4567033442033619
 20
5.557300000000012
 30
0.0
 40
0.1875
100
AcDbArc
 50
180.0
 51
250.3666411024315
  0
LINE
  5
117
330
2
100
AcDbEntity
  8
0
100
AcDbLine
 10
0.6052966557966428
 20
5.875000000000014
 30
0.0
 11
0.3838866557966441
 21
6.004390000000015
 31
0.0
  0
LINE
  5
118
330
2
100
AcDbEntity
  8
0
100
AcDbLine
 10
0.6052966557966428
 20
5.839644017375306
 30
0.0
 11
0.6052966557966428
 21
5.902144017375306
 31
0.0
  0
LINE
  5
119
330
2
100
AcDbEntity
  8
0
100
AcDbLine
 10
0.3838866557966441
 20
6.004390000000015
 30
0.0
 11
0.6052966557966428
 21
6.187500000000014
 31
0.0
  0
LINE
  5
11A
330
2
100
AcDbEntity
  8
0
100
AcDbLine
 10
-0.3322033442033572
 20
6.875000000000014
 30
0.0
 11
0.6677966557966428
 21
6.875000000000014
 31
0.0
  0
ARC
  5
11B
330
2
100
AcDbEntity
  8
0
100
AcDbCircle
 10
-0.5197033442033572
 20
6.562500000000014
 30
0.0
 40
0.1875
100
AcDbArc
 50
289.6333588975897
 51
0.0
  0
LINE
  5
11C
330
2
100
AcDbEntity
  8
0
100
AcDbLine
 10
-0.3322033442033572
 20
6.562500000000014
 30
0.0
 11
-0.3322033442033572
 21
6.875000000000014
 31
0.0
  0
ARC
  5
193
330
2
100
AcDbEntity
  8
0
100
AcDbCircle
 10
-0.3947033442033536
 20
2.26365909841121
 30
0.0
 40
0.449409098411202
100
AcDbArc
 50
270.0000000000005
 51
284.3044795065296
  0
ARC
  5
194
330
2
100
AcDbEntity
  8
0
100
AcDbCircle
 10
-0.3947033442033394
 20
1.933675526379194
 30
0.0
 40
0.0734255263791788
100
AcDbArc
 50
269.9999999999917
 51
302.6079210151868
  0
ARC
  5
195
330
2
100
AcDbEntity
  8
0
100
AcDbCircle
 10
-0.4245739391708554
 20
1.980368650683641
 30
0.0
 40
0.1288556653021863
100
AcDbArc
 50
302.6079210151953
 51
327.0773280975511
  0
ARC
  5
196
330
2
100
AcDbEntity
  8
0
100
AcDbCircle
 10
-0.4720373294658131
 20
2.011100743226791
 30
0.0
 40
0.1853997625217208
100
AcDbArc
 50
327.0773280975486
 51
344.9866289980012
  0
ARC
  5
197
330
2
100
AcDbEntity
  8
0
100
AcDbCircle
 10
-0.5471652452828302
 20
2.031249999999993
 30
0.0
 40
0.2631827702002704
100
AcDbArc
 50
344.986628998006
 51
0.0000000000030938
  0
ARC
  5
198
330
2
100
AcDbEntity
  8
0
100
AcDbCircle
 10
-0.5471652452828231
 20
2.031250000000021
 30
0.0
 40
0.2631827702002632
100
AcDbArc
 50
359.9999999999969
 51
15.01337100199443
  0
ARC
  5
199
330
2
100
AcDbEntity
  8
0
100
AcDbCircle
 10
-0.472037329465806
 20
2.051399256773223
 30
0.0
 40
0.1853997625217145
100
AcDbArc
 50
15.01337100199934
 51
32.92267190245256
  0
ARC
  5
19A
330
2
100
AcDbEntity
  8
0
100
AcDbCircle
 10
-0.424573939170859
 20
2.08213134931637
 30
0.0
 40
0.1288556653021905
100
AcDbArc
 50
32.92267190244941
 51
57.39207898480424
  0
ARC
  5
19B
330
2
100
AcDbEntity
  8
0
100
AcDbCircle
 10
-0.3947033442033643
 20
2.128824473620824
 30
0.0
 40
0.0734255263791889
100
AcDbArc
 50
57.3920789847954
 51
89.99999999998892
  0
ARC
  5
19C
330
2
100
AcDbEntity
  8
0
100
AcDbCircle
 10
-0.3947033442033501
 20
1.956529608820532
 30
0.0
 40
0.0502796088205244
100
AcDbArc
 50
270.0
 51
303.5108229556709
  0
ARC
  5
19D
330
2
100
AcDbEntity
  8
0
100
AcDbCircle
 10
-0.4183504321465534
 20
1.99224180272584
 30
0.0
 40
0.0931112041880084
100
AcDbArc
 50
303.5108229556701
 51
327.9718933333913
  0
ARC
  5
19E
330
2
100
AcDbEntity
  8
0
100
AcDbCircle
 10
-0.4560028643405651
 20
2.015795344093323
 30
0.0
 40
0.1375237582811305
100
AcDbArc
 50
327.9718933333911
 51
345.4734521832016
  0
ARC
  5
19F
330
2
100
AcDbEntity
  8
0
100
AcDbCircle
 10
-0.5156475626560599
 20
2.031250000000014
 30
0.0
 40
0.1991381756389258
100
AcDbArc
 50
345.4734521832008
 51
359.999999999998
  0
ARC
  5
1A0
330
2
100
AcDbEntity
  8
0
100
AcDbCircle
 10
-0.5156475626560599
 20
2.03125
 30
0.0
 40
0.1991381756389252
100
AcDbArc
 50
0.0000000000020444
 51
14.5265478167992
  0
ARC
  5
1A1
330
2
100
AcDbEntity
  8
0
100
AcDbCircle
 10
-0.4560028643405545
 20
2.046704655906694
 30
0.0
 40
0.1375237582811191
100
AcDbArc
 50
14.52654781679805
 51
32.02810666661003
  0
ARC
  5
1A2
330
2
100
AcDbEntity
  8
0
100
AcDbCircle
 10
-0.4183504321465534
 20
2.070258197274171
 30
0.0
 40
0.093111204188011
100
AcDbArc
 50
32.02810666661055
 51
56.48917704433114
  0
ARC
  5
1A3
330
2
100
AcDbEntity
  8
0
100
AcDbCircle
 10
-0.3947033442033501
 20
2.105970391179483
 30
0.0
 40
0.050279608820524
100
AcDbArc
 50
56.48917704432905
 51
90.0
  0
ARC
  5
1A4
330
2
100
AcDbEntity
  8
0
100
AcDbCircle
 10
-0.3947033442034105
 20
1.798840901588811
 30
0.0
 40
0.4494090984112092
100
AcDbArc
 50
75.69552049346309
 51
89.9999999999923
  0
ARC
  5
1A5
330
2
100
AcDbEntity
  8
0
100
AcDbCircle
 10
-0.3116629663897115
 20
1.985522824163226
 30
0.0
 40
0.242397530879118
100
AcDbArc
 50
50.43639217035425
 51
55.25172445454089
  0
ARC
  5
1A6
330
2
100
AcDbEntity
  8
0
100
AcDbCircle
 10
-0.3618531730872547
 20
1.913169290509661
 30
0.0
 40
0.3304548456263878
100
AcDbArc
 50
55.25172445456686
 51
64.66892074213267
  0
ARC
  5
1A7
330
2
100
AcDbEntity
  8
0
100
AcDbCircle
 10
-0.361853173087173
 20
2.149330709490322
 30
0.0
 40
0.330454845626311
100
AcDbArc
 50
295.331079257858
 51
304.7482755454237
  0
ARC
  5
1A8
330
2
100
AcDbEntity
  8
0
100
AcDbCircle
 10
-0.3116629663896937
 20
2.076977175836845
 30
0.0
 40
0.2423975308791505
100
AcDbArc
 50
304.7482755454466
 51
309.563607829634
  0
ARC
  5
1A9
330
2
100
AcDbEntity
  8
0
100
AcDbCircle
 10
-0.2350840347978469
 20
2.031250000000036
 30
0.0
 40
0.153205001069999
100
AcDbArc
 50
336.9842081995419
 51
359.9999999999894
  0
ARC
  5
1AA
330
2
100
AcDbEntity
  8
0
100
AcDbCircle
 10
-0.2350840347978469
 20
2.031249999999979
 30
0.0
 40
0.153205001069999
100
AcDbArc
 50
0.0000000000106292
 51
23.01579180045814
  0
ARC
  5
1AB
330
2
100
AcDbEntity
  8
0
100
AcDbCircle
 10
-0.3947033442033394
 20
3.615655500264719
 30
0.0
 40
0.0734255263791788
100
AcDbArc
 50
269.9999999999917
 51
302.6079210151868
  0
ARC
  5
1AC
330
2
100
AcDbEntity
  8
0
100
AcDbCircle
 10
-0.4245739391708554
 20
3.662348624569166
 30
0.0
 40
0.1288556653021863
100
AcDbArc
 50
302.6079210151953
 51
327.0773280975511
  0
ARC
  5
1AD
330
2
100
AcDbEntity
  8
0
100
AcDbCircle
 10
-0.4720373294658131
 20
3.693080717112316
 30
0.0
 40
0.1853997625217208
100
AcDbArc
 50
327.0773280975486
 51
344.9866289980012
  0
ARC
  5
1AE
330
2
100
AcDbEntity
  8
0
100
AcDbCircle
 10
-0.5471652452828302
 20
3.713229973885518
 30
0.0
 40
0.2631827702002704
100
AcDbArc
 50
344.986628998006
 51
0.0000000000030938
  0
ARC
  5
1AF
330
2
100
AcDbEntity
  8
0
100
AcDbCircle
 10
-0.5471652452828231
 20
3.713229973885547
 30
0.0
 40
0.2631827702002632
100
AcDbArc
 50
359.9999999999969
 51
15.01337100199443
  0
ARC
  5
1B0
330
2
100
AcDbEntity
  8
0
100
AcDbCircle
 10
-0.472037329465806
 20
3.733379230658748
 30
0.0
 40
0.1853997625217145
100
AcDbArc
 50
15.01337100199934
 51
32.92267190245256
  0
ARC
  5
1B1
330
2
100
AcDbEntity
  8
0
100
AcDbCircle
 10
-0.424573939170859
 20
3.764111323201895
 30
0.0
 40
0.1288556653021905
100
AcDbArc
 50
32.92267190244941
 51
57.39207898480424
  0
ARC
  5
1B2
330
2
100
AcDbEntity
  8
0
100
AcDbCircle
 10
-0.3947033442033643
 20
3.810804447506349
 30
0.0
 40
0.0734255263791889
100
AcDbArc
 50
57.3920789847954
 51
89.99999999998892
  0
ARC
  5
1B3
330
2
100
AcDbEntity
  8
0
100
AcDbCircle
 10
-0.3947033442033501
 20
3.638509582706057
 30
0.0
 40
0.0502796088205244
100
AcDbArc
 50
270.0
 51
303.5108229556709
  0
ARC
  5
1B4
330
2
100
AcDbEntity
  8
0
100
AcDbCircle
 10
-0.4183504321465534
 20
3.674221776611365
 30
0.0
 40
0.0931112041880084
100
AcDbArc
 50
303.5108229556701
 51
327.9718933333913
  0
ARC
  5
1B5
330
2
100
AcDbEntity
  8
0
100
AcDbCircle
 10
-0.4560028643405651
 20
3.697775317978849
 30
0.0
 40
0.1375237582811305
100
AcDbArc
 50
327.9718933333911
 51
345.4734521832016
  0
ARC
  5
1B6
330
2
100
AcDbEntity
  8
0
100
AcDbCircle
 10
-0.5156475626560599
 20
3.713229973885539
 30
0.0
 40
0.1991381756389258
100
AcDbArc
 50
345.4734521832008
 51
359.999999999998
  0
ARC
  5
1B7
330
2
100
AcDbEntity
  8
0
100
AcDbCircle
 10
-0.5156475626560599
 20
3.713229973885525
 30
0.0
 40
0.1991381756389252
100
AcDbArc
 50
0.0000000000020444
 51
14.5265478167992
  0
ARC
  5
1B8
330
2
100
AcDbEntity
  8
0
100
AcDbCircle
 10
-0.4560028643405545
 20
3.72868462979222
 30
0.0
 40
0.1375237582811191
100
AcDbArc
 50
14.52654781679805
 51
32.02810666661003
  0
ARC
  5
1B9
330
2
100
AcDbEntity
  8
0
100
AcDbCircle
 10
-0.4183504321465534
 20
3.752238171159696
 30
0.0
 40
0.093111204188011
100
AcDbArc
 50
32.02810666661055
 51
56.48917704433114
  0
ARC
  5
1BA
330
2
100
AcDbEntity
  8
0
100
AcDbCircle
 10
-0.3947033442033501
 20
3.787950365065008
 30
0.0
 40
0.050279608820524
100
AcDbArc
 50
56.48917704432905
 51
90.0
  0
ARC
  5
1BB
330
2
100
AcDbEntity
  8
0
100
AcDbCircle
 10
-0.2350840347978469
 20
3.713229973885561
 30
0.0
 40
0.153205001069999
100
AcDbArc
 50
336.9842081995419
 51
359.9999999999894
  0
ARC
  5
1BC
330
2
100
AcDbEntity
  8
0
100
AcDbCircle
 10
-0.2350840347978469
 20
3.713229973885504
 30
0.0
 40
0.153205001069999
100
AcDbArc
 50
0.0000000000106292
 51
23.01579180045814
  0
ARC
  5
1BD
330
2
100
AcDbEntity
  8
0
100
AcDbCircle
 10
-0.3947033442033536
 20
3.945639072296736
 30
0.0
 40
0.449409098411202
100
AcDbArc
 50
270.0000000000005
 51
284.3044795065296
  0
ARC
  5
1BE
330
2
100
AcDbEntity
  8
0
100
AcDbCircle
 10
-0.361853173087173
 20
3.831310683375847
 30
0.0
 40
0.330454845626311
100
AcDbArc
 50
295.331079257858
 51
304.7482755454237
  0
ARC
  5
1BF
330
2
100
AcDbEntity
  8
0
100
AcDbCircle
 10
-0.3116629663896937
 20
3.75895714972237
 30
0.0
 40
0.2423975308791505
100
AcDbArc
 50
304.7482755454466
 51
309.563607829634
  0
ARC
  5
1C0
330
2
100
AcDbEntity
  8
0
100
AcDbCircle
 10
-0.3947033442034105
 20
3.480820875474336
 30
0.0
 40
0.4494090984112092
100
AcDbArc
 50
75.69552049346309
 51
89.9999999999923
  0
ARC
  5
1C1
330
2
100
AcDbEntity
  8
0
100
AcDbCircle
 10
-0.3116629663897115
 20
3.667502798048751
 30
0.0
 40
0.242397530879118
100
AcDbArc
 50
50.43639217035425
 51
55.25172445454089
  0
ARC
  5
1C2
330
2
100
AcDbEntity
  8
0
100
AcDbCircle
 10
-0.3618531730872547
 20
3.595149264395186
 30
0.0
 40
0.3304548456263878
100
AcDbArc
 50
55.25172445456686
 51
64.66892074213267
  0
ENDSEC
  0
SECTION
  2
OBJECTS
  0
DICTIONARY
  5
9
330
0
100
AcDbDictionary
281
     1
  3
ACAD_COLOR
350
1D0
  3
ACAD_GROUP
350
24
  3
ACAD_LAYOUT
350
D
  3
ACAD_MATERIAL
350
1CF
  3
ACAD_MLINESTYLE
350
25
  3
ACAD_PLOTSETTINGS
350
26
  3
ACAD_PLOTSTYLENAME
350
8
  3
ACAD_TABLESTYLE
350
1D1
  3
ACDBHEADERROUNDTRIPXREC
350
1ED
  3
AcDbVariableDictionary
350
11D
  0
DICTIONARY
  5
1D0
102
{ACAD_REACTORS
330
9
102
}
330
9
100
AcDbDictionary
281
     1
  0
DICTIONARY
  5
24
102
{ACAD_REACTORS
330
9
102
}
330
9
100
AcDbDictionary
281
     1
  0
DICTIONARY
  5
D
102
{ACAD_REACTORS
330
9
102
}
330
9
100
AcDbDictionary
281
     1
  3
Layout1
350
13
  3
Model
350
C
  0
DICTIONARY
  5
1CF
102
{ACAD_REACTORS
330
9
102
}
330
9
100
AcDbDictionary
281
     1
  0
DICTIONARY
  5
25
102
{ACAD_REACTORS
330
9
102
}
330
9
100
AcDbDictionary
281
     1
  3
STANDARD
350
28
  0
DICTIONARY
  5
26
102
{ACAD_REACTORS
330
9
102
}
330
9
100
AcDbDictionary
281
     1
  0
ACDBDICTIONARYWDFLT
  5
8
102
{ACAD_REACTORS
330
9
102
}
330
9
100
AcDbDictionary
281
     1
  3
Normal
350
7
100
AcDbDictionaryWithDefault
340
7
  0
DICTIONARY
  5
1D1
102
{ACAD_REACTORS
330
9
102
}
330
9
100
AcDbDictionary
281
     1
  3
Standard
350
1D2
  0
DICTIONARY
  5
1ED
102
{ACAD_REACTORS
330
9
102
}
330
9
100
AcDbDictionary
281
     1
  3
COLORDICT
350
1EE
  3
MATERIALDICT
350
1EF
  0
DICTIONARY
  5
11D
102
{ACAD_REACTORS
330
9
102
}
330
9
100
AcDbDictionary
281
     1
  3
CTABLESTYLE
350
1DB
  3
HIDETEXT
350
1EC
  0
LAYOUT
  5
13
102
{ACAD_REACTORS
330
D
102
}
102
{ACAD_XDICTIONARY
360
1F0
102
}
330
D
100
AcDbPlotSettings
  1

  2
HP LaserJet 2100 Series PS
  4

  6

 40
0.0
 41
0.0
 42
0.0
 43
0.0
 44
0.0
 45
0.0
 46
0.0
 47
0.0
 48
0.0
 49
0.0
140
0.0
141
0.0
142
1.0
143
1.0
 70
   688
 72
     0
 73
     0
 74
     5
  7

 75
    16
147
1.0
148
0.0
149
0.0
100
AcDbLayout
  1
Layout1
 70
     0
 71
     1
 10
0.0
 20
0.0
 11
12.0
 21
9.0
 12
0.0
 22
0.0
 32
0.0
 14
1.000000000000000E+20
 24
1.000000000000000E+20
 34
1.000000000000000E+20
 15
-1.000000000000000E+20
 25
-1.000000000000000E+20
 35
-1.000000000000000E+20
146
0.0
 13
0.0
 23
0.0
 33
0.0
 16
1.0
 26
0.0
 36
0.0
 17
0.0
 27
1.0
 37
0.0
 76
     0
330
E
  0
LAYOUT
  5
C
102
{ACAD_REACTORS
330
D
102
}
102
{ACAD_XDICTIONARY
360
1F2
102
}
330
D
100
AcDbPlotSettings
  1

  2
HP LaserJet 2100 Series PS
  4
Letter
  6

 40
5.365749835968018
 41
5.408084392547607
 42
5.4080810546875
 43
5.365753173828125
 44
215.8999938964844
 45
279.3999938964844
 46
0.0
 47
0.0
 48
0.0
 49
0.0
140
0.0
141
0.0
142
1.0
143
1.0
 70
 11952
 72
     0
 73
     1
 74
     0
  7

 75
     0
147
1.0
148
-330.9017215825716
149
16.45524825855086
100
AcDbLayout
  1
Model
 70
     1
 71
     0
 10
0.0
 20
0.0
 11
12.0
 21
9.0
 12
0.0
 22
0.0
 32
0.0
 14
0.0
 24
0.0
 34
0.0
 15
0.0
 25
0.0
 35
0.0
146
0.0
 13
0.0
 23
0.0
 33
0.0
 16
1.0
 26
0.0
 36
0.0
 17
0.0
 27
1.0
 37
0.0
 76
     0
330
2
  0
MLINESTYLE
  5
28
102
{ACAD_REACTORS
330
25
102
}
330
25
100
AcDbMlineStyle
  2
STANDARD
 70
     0
  3

 62
   256
 51
90.0
 52
90.0
 71
     2
 49
0.5
 62
   256
  6
BYLAYER
 49
-0.5
 62
   256
  6
BYLAYER
  0
ACDBPLACEHOLDER
  5
7
102
{ACAD_REACTORS
330
8
102
}
330
8
  0
ACAD_PROXY_OBJECT
  5
1D2
102
{ACAD_REACTORS
330
1D1
102
}
330
1D1
100
AcDbProxyObject
 90
      499
 91
      561
 95
   983063
 70
     0
 93
     1841
310
4214DD185B99185C9928B81E85EB51B8AE3F2E07A17AD46E2B8FC02B5E8DC0F42B1CFD028000000C1008070000C3001FDFF8000000C1003FBFF000000182007F7FE00000030400FEFFC00000060801FDFF8000000C1003FBFF00000018200000000000000681FA0B0000001820100E000186003FBFF000000182007F7FE000
310
00030400FEFFC00000060801FDFF8000000C1003FBFF000000182007F7FE000000304000AD7A3703D0AC73F4160000003040201C00030C007F7FE00000030400FEFFC00000060801FDFF8000000C1003FBFF000000182007F7FE00000030400FEFFC000000608000
340
16
340
16
340
16
 94
        0
  0
XRECORD
  5
1EE
102
{ACAD_REACTORS
330
1ED
102
}
330
1ED
100
AcDbXrecord
340
1D0
  0
XRECORD
  5
1EF
102
{ACAD_REACTORS
330
1ED
102
}
330
1ED
100
AcDbXrecord
340
1CF
  0
DICTIONARYVAR
  5
1DB
102
{ACAD_REACTORS
330
11D
102
}
330
11D
100
DictionaryVariables
280
     0
  1
STANDARD
  0
DICTIONARYVAR
  5
1EC
102
{ACAD_REACTORS
330
11D
102
}
330
11D
100
DictionaryVariables
280
     0
  1
0
  0
DICTIONARY
  5
1F0
330
13
100
AcDbDictionary
280
     1
281
     1
  3
ACAD_XREC_ROUNDTRIP
360
1F1
  0
DICTIONARY
  5
1F2
330
C
100
AcDbDictionary
280
     1
281
     1
  3
ACAD_XREC_ROUNDTRIP
360
1F3
  0
XRECORD
  5
1F1
102
{ACAD_REACTORS
330
1F0
102
}
330
1F0
100
AcDbXrecord
102
SHADEPLOT
 70
     0
102
SHADEPLOTRESLEVEL
 70
     2
102
SHADEPLOTCUSTOMDPI
 70
   300
  0
XRECORD
  5
1F3
102
{ACAD_REACTORS
330
1F2
102
}
330
1F2
100
AcDbXrecord
102
SHADEPLOT
 70
     0
102
SHADEPLOTRESLEVEL
 70
     2
102
SHADEPLOTCUSTOMDPI
 70
   300
  0
ENDSEC
  0
EOF
