  0
SECTION
  2
HEADER
  9
$ACADVER
  1
AC1018
  9
$ACADMAINTVER
 70
     6
  9
$DWGCODEPAGE
  3
ANSI_1252
  9
$INSBASE
 10
0.0
 20
0.0
 30
0.0
  9
$EXTMIN
 10
-9.307545273459823
 20
-0.0263203758566846
 30
-0.0015258207003583
  9
$EXTMAX
 10
8.95010807211996
 20
15.29781483994383
 30
0.0000000349246037
  9
$LIMMIN
 10
0.0
 20
0.0
  9
$LIMMAX
 10
42.0
 20
32.0
  9
$ORTHOMODE
 70
     1
  9
$REGENMODE
 70
     1
  9
$FILLMODE
 70
     1
  9
$QTEXTMODE
 70
     0
  9
$MIRRTEXT
 70
     1
  9
$LTSCALE
 40
0.75
  9
$ATTMODE
 70
     1
  9
$TEXTSIZE
 40
0.27
  9
$TRACEWID
 40
0.05
  9
$TEXTSTYLE
  7
STANDARD
  9
$CLAYER
  8
0
  9
$CELTYPE
  6
BYLAYER
  9
$CECOLOR
 62
   256
  9
$CELTSCALE
 40
1.0
  9
$DISPSILH
 70
     0
  9
$DIMSCALE
 40
1.0
  9
$DIMASZ
 40
0.375
  9
$DIMEXO
 40
0.0625
  9
$DIMDLI
 40
1.25
  9
$DIMRND
 40
0.0
  9
$DIMDLE
 40
0.0
  9
$DIMEXE
 40
0.18
  9
$DIMTP
 40
0.0
  9
$DIMTM
 40
0.0
  9
$DIMTXT
 40
0.27
  9
$DIMCEN
 40
-0.06
  9
$DIMTSZ
 40
0.0
  9
$DIMTOL
 70
     0
  9
$DIMLIM
 70
     0
  9
$DIMTIH
 70
     1
  9
$DIMTOH
 70
     1
  9
$DIMSE1
 70
     0
  9
$DIMSE2
 70
     0
  9
$DIMTAD
 70
     0
  9
$DIMZIN
 70
     0
  9
$DIMBLK
  1

  9
$DIMASO
 70
     0
  9
$DIMSHO
 70
     0
  9
$DIMPOST
  1

  9
$DIMAPOST
  1

  9
$DIMALT
 70
     0
  9
$DIMALTD
 70
     2
  9
$DIMALTF
 40
25.4
  9
$DIMLFAC
 40
1.0
  9
$DIMTOFL
 70
     0
  9
$DIMTVP
 40
0.0
  9
$DIMTIX
 70
     0
  9
$DIMSOXD
 70
     0
  9
$DIMSAH
 70
     0
  9
$DIMBLK1
  1

  9
$DIMBLK2
  1

  9
$DIMSTYLE
  2
STANDARD
  9
$DIMCLRD
 70
     0
  9
$DIMCLRE
 70
     0
  9
$DIMCLRT
 70
     0
  9
$DIMTFAC
 40
1.0
  9
$DIMGAP
 40
0.09
  9
$DIMJUST
 70
     0
  9
$DIMSD1
 70
     0
  9
$DIMSD2
 70
     0
  9
$DIMTOLJ
 70
     1
  9
$DIMTZIN
 70
     0
  9
$DIMALTZ
 70
     0
  9
$DIMALTTZ
 70
     0
  9
$DIMUPT
 70
     0
  9
$DIMDEC
 70
     5
  9
$DIMTDEC
 70
     5
  9
$DIMALTU
 70
     2
  9
$DIMALTTD
 70
     2
  9
$DIMTXSTY
  7
STANDARD
  9
$DIMAUNIT
 70
     0
  9
$DIMADEC
 70
     3
  9
$DIMALTRND
 40
0.0
  9
$DIMAZIN
 70
     0
  9
$DIMDSEP
 70
    46
  9
$DIMATFIT
 70
     3
  9
$DIMFRAC
 70
     2
  9
$DIMLDRBLK
  1

  9
$DIMLUNIT
 70
     5
  9
$DIMLWD
 70
    -2
  9
$DIMLWE
 70
    -2
  9
$DIMTMOVE
 70
     2
  9
$LUNITS
 70
     2
  9
$LUPREC
 70
     4
  9
$SKETCHINC
 40
0.1
  9
$FILLETRAD
 40
0.0
  9
$AUNITS
 70
     0
  9
$AUPREC
 70
     0
  9
$MENU
  1
ACAD
  9
$ELEVATION
 40
0.0
  9
$PELEVATION
 40
0.0
  9
$THICKNESS
 40
0.0
  9
$LIMCHECK
 70
     0
  9
$CHAMFERA
 40
0.0
  9
$CHAMFERB
 40
0.0
  9
$CHAMFERC
 40
0.0
  9
$CHAMFERD
 40
0.0
  9
$SKPOLY
 70
     0
  9
$TDCREATE
 40
2448910.885606945
  9
$TDUCREATE
 40
2448911.218940278
  9
$TDUPDATE
 40
2454804.882489977
  9
$TDUUPDATE
 40
2454805.21582331
  9
$TDINDWG
 40
0.2498933218
  9
$TDUSRTIMER
 40
0.2498933218
  9
$USRTIMER
 70
     1
  9
$ANGBASE
 50
0.0
  9
$ANGDIR
 70
     0
  9
$PDMODE
 70
     0
  9
$PDSIZE
 40
0.0
  9
$PLINEWID
 40
0.0
  9
$SPLFRAME
 70
     0
  9
$SPLINETYPE
 70
     6
  9
$SPLINESEGS
 70
     8
  9
$HANDSEED
  5
64F
  9
$SURFTAB1
 70
     6
  9
$SURFTAB2
 70
     6
  9
$SURFTYPE
 70
     6
  9
$SURFU
 70
     6
  9
$SURFV
 70
     6
  9
$UCSBASE
  2

  9
$UCSNAME
  2

  9
$UCSORG
 10
0.0
 20
0.0
 30
0.0
  9
$UCSXDIR
 10
1.0
 20
0.0
 30
0.0
  9
$UCSYDIR
 10
0.0
 20
1.0
 30
0.0
  9
$UCSORTHOREF
  2

  9
$UCSORTHOVIEW
 70
     0
  9
$UCSORGTOP
 10
0.0
 20
0.0
 30
0.0
  9
$UCSORGBOTTOM
 10
0.0
 20
0.0
 30
0.0
  9
$UCSORGLEFT
 10
0.0
 20
0.0
 30
0.0
  9
$UCSORGRIGHT
 10
0.0
 20
0.0
 30
0.0
  9
$UCSORGFRONT
 10
0.0
 20
0.0
 30
0.0
  9
$UCSORGBACK
 10
0.0
 20
0.0
 30
0.0
  9
$PUCSBASE
  2

  9
$PUCSNAME
  2

  9
$PUCSORG
 10
0.0
 20
0.0
 30
0.0
  9
$PUCSXDIR
 10
1.0
 20
0.0
 30
0.0
  9
$PUCSYDIR
 10
0.0
 20
1.0
 30
0.0
  9
$PUCSORTHOREF
  2

  9
$PUCSORTHOVIEW
 70
     0
  9
$PUCSORGTOP
 10
0.0
 20
0.0
 30
0.0
  9
$PUCSORGBOTTOM
 10
0.0
 20
0.0
 30
0.0
  9
$PUCSORGLEFT
 10
0.0
 20
0.0
 30
0.0
  9
$PUCSORGRIGHT
 10
0.0
 20
0.0
 30
0.0
  9
$PUCSORGFRONT
 10
0.0
 20
0.0
 30
0.0
  9
$PUCSORGBACK
 10
0.0
 20
0.0
 30
0.0
  9
$USERI1
 70
     0
  9
$USERI2
 70
     0
  9
$USERI3
 70
     0
  9
$USERI4
 70
     0
  9
$USERI5
 70
     0
  9
$USERR1
 40
0.0
  9
$USERR2
 40
0.0
  9
$USERR3
 40
0.0
  9
$USERR4
 40
0.0
  9
$USERR5
 40
0.0
  9
$WORLDVIEW
 70
     1
  9
$SHADEDGE
 70
     3
  9
$SHADEDIF
 70
    70
  9
$TILEMODE
 70
     1
  9
$MAXACTVP
 70
    16
  9
$PINSBASE
 10
0.0
 20
0.0
 30
0.0
  9
$PLIMCHECK
 70
     0
  9
$PEXTMIN
 10
1.000000000000000E+20
 20
1.000000000000000E+20
 30
1.000000000000000E+20
  9
$PEXTMAX
 10
-1.000000000000000E+20
 20
-1.000000000000000E+20
 30
-1.000000000000000E+20
  9
$PLIMMIN
 10
0.0
 20
0.0
  9
$PLIMMAX
 10
12.0
 20
9.0
  9
$UNITMODE
 70
     0
  9
$VISRETAIN
 70
     0
  9
$PLINEGEN
 70
     0
  9
$PSLTSCALE
 70
     0
  9
$TREEDEPTH
 70
  3020
  9
$CMLSTYLE
  2
STANDARD
  9
$CMLJUST
 70
     0
  9
$CMLSCALE
 40
1.0
  9
$PROXYGRAPHICS
 70
     1
  9
$MEASUREMENT
 70
     0
  9
$CELWEIGHT
370
    -1
  9
$ENDCAPS
280
     0
  9
$JOINSTYLE
280
     0
  9
$LWDISPLAY
290
     0
  9
$INSUNITS
 70
     0
  9
$HYPERLINKBASE
  1

  9
$STYLESHEET
  1

  9
$XEDIT
290
     1
  9
$CEPSNTYPE
380
     0
  9
$PSTYLEMODE
290
     1
  9
$FINGERPRINTGUID
  2
{26C2C90B-331F-11D5-BE3F-00508B5FCD51}
  9
$VERSIONGUID
  2
{42DBE797-534B-4573-965F-AAEB1044194A}
  9
$EXTNAMES
290
     1
  9
$PSVPSCALE
 40
0.0
  9
$OLESTARTUP
290
     0
  9
$SORTENTS
280
   127
  9
$INDEXCTL
280
     0
  9
$HIDETEXT
280
     1
  9
$XCLIPFRAME
290
     0
  9
$HALOGAP
280
     0
  9
$OBSCOLOR
 70
   257
  9
$OBSLTYPE
280
     0
  9
$INTERSECTIONDISPLAY
280
     0
  9
$INTERSECTIONCOLOR
 70
   257
  9
$DIMASSOC
280
     0
  9
$PROJECTNAME
  1

  0
ENDSEC
  0
SECTION
  2
CLASSES
  0
CLASS
  1
DICTIONARYVAR
  2
AcDbDictionaryVar
  3
AutoCAD 2000
 90
        0
 91
        1
280
     0
281
     0
  0
CLASS
  1
LWPOLYLINE
  2
AcDbPolyline
  3
AutoCAD 2000
 90
        0
 91
       14
280
     0
281
     1
  0
CLASS
  1
ACDBDICTIONARYWDFLT
  2
AcDbDictionaryWithDefault
  3
AutoCAD 2000
 90
        0
 91
        1
280
     0
281
     0
  0
CLASS
  1
ACDBPLACEHOLDER
  2
AcDbPlaceHolder
  3
ObjectDBX Classes
 90
        0
 91
        3
280
     0
281
     0
  0
CLASS
  1
LAYOUT
  2
AcDbLayout
  3
ObjectDBX Classes
 90
        0
 91
        3
280
     0
281
     0
  0
CLASS
  1
LONG_TRANSACTION
  2
AcDbLongTransaction
  3
ObjectDBX Classes
 90
   -65536
 91
       11
280
     1
281
     0
  0
CLASS
  1
LWPOLYLINE
  2
AcDbPolyline
  3
AutoCAD 2000
 90
        0
 91
       14
280
     0
281
     1
  0
CLASS
  1
HATCH
  2
AcDbHatch
  3
AutoCAD 2000
 90
        0
 91
       13
280
     0
281
     1
  0
CLASS
  1
XRECORD
  2
AcDbXrecord
  3
AutoCAD 2000
 90
        0
 91
       13
280
     0
281
     0
  0
CLASS
  1
LONG_TRANSACTION
  2
AcDbLongTransaction
  3
ObjectDBX Classes
 90
   -65536
 91
       11
280
     1
281
     0
  0
CLASS
  1
LWPOLYLINE
  2
AcDbPolyline
  3
AutoCAD 2000
 90
        0
 91
       14
280
     0
281
     1
  0
CLASS
  1
HATCH
  2
AcDbHatch
  3
AutoCAD 2000
 90
        0
 91
       13
280
     0
281
     1
  0
CLASS
  1
XRECORD
  2
AcDbXrecord
  3
AutoCAD 2000
 90
        0
 91
       13
280
     0
281
     0
  0
CLASS
  1
LONG_TRANSACTION
  2
AcDbLongTransaction
  3
ObjectDBX Classes
 90
   -65536
 91
       11
280
     1
281
     0
  0
CLASS
  1
LWPOLYLINE
  2
AcDbPolyline
  3
AutoCAD 2000
 90
        0
 91
       14
280
     0
281
     1
  0
CLASS
  1
HATCH
  2
AcDbHatch
  3
AutoCAD 2000
 90
        0
 91
       13
280
     0
281
     1
  0
CLASS
  1
XRECORD
  2
AcDbXrecord
  3
AutoCAD 2000
 90
        0
 91
       13
280
     0
281
     0
  0
CLASS
  1
LONG_TRANSACTION
  2
AcDbLongTransaction
  3
ObjectDBX Classes
 90
   -65536
 91
       11
280
     1
281
     0
  0
CLASS
  1
LWPOLYLINE
  2
AcDbPolyline
  3
AutoCAD 2000
 90
        0
 91
       14
280
     0
281
     1
  0
CLASS
  1
HATCH
  2
AcDbHatch
  3
AutoCAD 2000
 90
        0
 91
       13
280
     0
281
     1
  0
CLASS
  1
XRECORD
  2
AcDbXrecord
  3
AutoCAD 2000
 90
        0
 91
       13
280
     0
281
     0
  0
CLASS
  1
LONG_TRANSACTION
  2
AcDbLongTransaction
  3
ObjectDBX Classes
 90
   -65536
 91
       11
280
     1
281
     0
  0
CLASS
  1
LWPOLYLINE
  2
AcDbPolyline
  3
AutoCAD 2000
 90
        0
 91
       14
280
     0
281
     1
  0
CLASS
  1
HATCH
  2
AcDbHatch
  3
AutoCAD 2000
 90
        0
 91
       13
280
     0
281
     1
  0
CLASS
  1
XRECORD
  2
AcDbXrecord
  3
AutoCAD 2000
 90
        0
 91
       13
280
     0
281
     0
  0
CLASS
  1
LONG_TRANSACTION
  2
AcDbLongTransaction
  3
ObjectDBX Classes
 90
   -65536
 91
       11
280
     1
281
     0
  0
CLASS
  1
LWPOLYLINE
  2
AcDbPolyline
  3
AutoCAD 2000
 90
        0
 91
       14
280
     0
281
     1
  0
CLASS
  1
HATCH
  2
AcDbHatch
  3
AutoCAD 2000
 90
        0
 91
       13
280
     0
281
     1
  0
CLASS
  1
XRECORD
  2
AcDbXrecord
  3
AutoCAD 2000
 90
        0
 91
       13
280
     0
281
     0
  0
CLASS
  1
LONG_TRANSACTION
  2
AcDbLongTransaction
  3
ObjectDBX Classes
 90
   -65536
 91
       11
280
     1
281
     0
  0
CLASS
  1
LWPOLYLINE
  2
AcDbPolyline
  3
AutoCAD 2000
 90
        0
 91
       14
280
     0
281
     1
  0
CLASS
  1
HATCH
  2
AcDbHatch
  3
AutoCAD 2000
 90
        0
 91
       13
280
     0
281
     1
  0
CLASS
  1
XRECORD
  2
AcDbXrecord
  3
AutoCAD 2000
 90
        0
 91
       13
280
     0
281
     0
  0
CLASS
  1
LONG_TRANSACTION
  2
AcDbLongTransaction
  3
ObjectDBX Classes
 90
   -65536
 91
       11
280
     1
281
     0
  0
CLASS
  1
LWPOLYLINE
  2
AcDbPolyline
  3
AutoCAD 2000
 90
        0
 91
       14
280
     0
281
     1
  0
CLASS
  1
HATCH
  2
AcDbHatch
  3
AutoCAD 2000
 90
        0
 91
       13
280
     0
281
     1
  0
CLASS
  1
XRECORD
  2
AcDbXrecord
  3
AutoCAD 2000
 90
        0
 91
       13
280
     0
281
     0
  0
CLASS
  1
LONG_TRANSACTION
  2
AcDbLongTransaction
  3
ObjectDBX Classes
 90
   -65536
 91
       11
280
     1
281
     0
  0
CLASS
  1
LWPOLYLINE
  2
AcDbPolyline
  3
AutoCAD 2000
 90
        0
 91
       14
280
     0
281
     1
  0
CLASS
  1
HATCH
  2
AcDbHatch
  3
AutoCAD 2000
 90
        0
 91
       13
280
     0
281
     1
  0
CLASS
  1
XRECORD
  2
AcDbXrecord
  3
AutoCAD 2000
 90
        0
 91
       13
280
     0
281
     0
  0
CLASS
  1
LONG_TRANSACTION
  2
AcDbLongTransaction
  3
ObjectDBX Classes
 90
   -65536
 91
       11
280
     1
281
     0
  0
CLASS
  1
LWPOLYLINE
  2
AcDbPolyline
  3
AutoCAD 2000
 90
        0
 91
       14
280
     0
281
     1
  0
CLASS
  1
HATCH
  2
AcDbHatch
  3
AutoCAD 2000
 90
        0
 91
       13
280
     0
281
     1
  0
CLASS
  1
XRECORD
  2
AcDbXrecord
  3
AutoCAD 2000
 90
        0
 91
       13
280
     0
281
     0
  0
CLASS
  1
LONG_TRANSACTION
  2
AcDbLongTransaction
  3
ObjectDBX Classes
 90
   -65536
 91
       11
280
     1
281
     0
  0
CLASS
  1
LWPOLYLINE
  2
AcDbPolyline
  3
AutoCAD 2000
 90
        0
 91
       14
280
     0
281
     1
  0
CLASS
  1
HATCH
  2
AcDbHatch
  3
AutoCAD 2000
 90
        0
 91
       13
280
     0
281
     1
  0
CLASS
  1
XRECORD
  2
AcDbXrecord
  3
AutoCAD 2000
 90
        0
 91
       13
280
     0
281
     0
  0
CLASS
  1
TABLESTYLE
  2
AcDbTableStyle
  3
ObjectDBX Classes
 90
     2047
 91
        2
280
     1
281
     0
  0
ENDSEC
  0
SECTION
  2
TABLES
  0
TABLE
  2
VPORT
  5
1D
330
0
100
AcDbSymbolTable
 70
     5
  0
VPORT
  5
649
330
1D
100
AcDbSymbolTableRecord
100
AcDbViewportTableRecord
  2
*Active
 70
     0
 10
0.0
 20
0.0
 11
1.0
 21
1.0
 12
1.67005272983543
 22
6.057673485599938
 13
0.0
 23
0.0
 14
0.0625
 24
0.0625
 15
0.5
 25
0.5
 16
0.0
 26
0.0
 36
1.0
 17
0.0
 27
0.0
 37
0.0
 40
16.05887838961052
 41
1.797160243407708
 42
50.0
 43
0.0
 44
0.0
 50
0.0
 51
0.0
 71
     0
 72
   100
 73
     1
 74
     0
 75
     0
 76
     0
 77
     0
 78
     1
281
     0
 65
     1
110
0.0
120
0.0
130
0.0
111
1.0
121
0.0
131
0.0
112
0.0
122
1.0
132
0.0
 79
     0
146
0.0
  0
ENDTAB
  0
TABLE
  2
LTYPE
  5
18
330
0
100
AcDbSymbolTable
 70
     2
  0
LTYPE
  5
19
330
18
100
AcDbSymbolTableRecord
100
AcDbLinetypeTableRecord
  2
BYBLOCK
 70
     0
  3

 72
    65
 73
     0
 40
0.0
  0
LTYPE
  5
1A
330
18
100
AcDbSymbolTableRecord
100
AcDbLinetypeTableRecord
  2
BYLAYER
 70
     0
  3

 72
    65
 73
     0
 40
0.0
  0
LTYPE
  5
A
330
18
100
AcDbSymbolTableRecord
100
AcDbLinetypeTableRecord
  2
CONTINUOUS
 70
     0
  3
Solid line
 72
    65
 73
     0
 40
0.0
  0
LTYPE
  5
29A
330
18
100
AcDbSymbolTableRecord
100
AcDbLinetypeTableRecord
  2
HIDDEN
 70
     0
  3
_ _ _ _ _ _ _ _ _ _ _ _ _ _ _ _ _ _ _ _ _ _ _
 72
    65
 73
     2
 40
0.375
 49
0.25
 74
     0
 49
-0.125
 74
     0
  0
ENDTAB
  0
TABLE
  2
LAYER
  5
14
330
0
100
AcDbSymbolTable
 70
     1
  0
LAYER
  5
6
330
14
100
AcDbSymbolTableRecord
100
AcDbLayerTableRecord
  2
0
 70
     0
 62
     7
  6
CONTINUOUS
370
    -3
390
7
  0
ENDTAB
  0
TABLE
  2
STYLE
  5
15
330
0
100
AcDbSymbolTable
 70
     1
  0
STYLE
  5
16
330
15
100
AcDbSymbolTableRecord
100
AcDbTextStyleTableRecord
  2
STANDARD
 70
     0
 40
0.0
 41
1.0
 50
0.0
 71
     0
 42
0.27
  3
txt
  4

  0
ENDTAB
  0
TABLE
  2
VIEW
  5
1B
330
0
100
AcDbSymbolTable
 70
     0
  0
ENDTAB
  0
TABLE
  2
UCS
  5
1C
330
0
100
AcDbSymbolTable
 70
     0
  0
ENDTAB
  0
TABLE
  2
APPID
  5
1F
330
0
100
AcDbSymbolTable
 70
     2
  0
APPID
  5
20
330
1F
100
AcDbSymbolTableRecord
100
AcDbRegAppTableRecord
  2
ACAD
 70
     0
  0
APPID
  5
635
330
1F
100
AcDbSymbolTableRecord
100
AcDbRegAppTableRecord
  2
DCO15
 70
     0
  0
ENDTAB
  0
TABLE
  2
DIMSTYLE
  5
21
330
0
100
AcDbSymbolTable
 70
     1
100
AcDbDimStyleTable
  0
DIMSTYLE
105
22
330
21
100
AcDbSymbolTableRecord
100
AcDbDimStyleTableRecord
  2
STANDARD
 70
     0
  3

  4

340
16
  0
ENDTAB
  0
TABLE
  2
BLOCK_RECORD
  5
1
330
0
100
AcDbSymbolTable
 70
     0
  0
BLOCK_RECORD
  5
2
330
1
100
AcDbSymbolTableRecord
100
AcDbBlockTableRecord
  2
*MODEL_SPACE
340
C
  0
BLOCK_RECORD
  5
E
330
1
100
AcDbSymbolTableRecord
100
AcDbBlockTableRecord
  2
*PAPER_SPACE
340
13
  0
ENDTAB
  0
ENDSEC
  0
SECTION
  2
BLOCKS
  0
BLOCK
  5
5
330
2
100
AcDbEntity
  8
0
100
AcDbBlockBegin
  2
*MODEL_SPACE
 70
     0
 10
0.0
 20
0.0
 30
0.0
  3
*MODEL_SPACE
  1

  4

  0
ENDBLK
  5
B
330
2
100
AcDbEntity
  8
0
100
AcDbBlockEnd
  0
BLOCK
  5
11
330
E
100
AcDbEntity
 67
     1
  8
0
100
AcDbBlockBegin
  2
*PAPER_SPACE
 70
     0
 10
0.0
 20
0.0
 30
0.0
  3
*PAPER_SPACE
  1

  4

  0
ENDBLK
  5
12
330
E
100
AcDbEntity
 67
     1
  8
0
100
AcDbBlockEnd
  0
ENDSEC
  0
SECTION
  2
ENTITIES
  0
LINE
  5
6C
330
2
100
AcDbEntity
  8
0
100
AcDbLine
 10
3.436500000000001
 20
3.968800000000002
 30
0.0
 11
3.436500000000001
 21
4.593800000000002
 31
0.0
  0
LINE
  5
6D
330
2
100
AcDbEntity
  8
0
100
AcDbLine
 10
-3.437000000000002
 20
3.968799999999997
 30
0.0
 11
-3.437000000000002
 21
4.593799999999997
 31
0.0
  0
LINE
  5
6E
330
2
100
AcDbEntity
  8
0
100
AcDbLine
 10
-2.312500000000001
 20
0.3437999999999969
 30
0.0
 11
-2.312500000000001
 21
6.281299999999997
 31
0.0
  0
LINE
  5
6F
330
2
100
AcDbEntity
  8
0
100
AcDbLine
 10
-2.375000000000001
 20
0.3437999999999969
 30
0.0
 11
-2.375000000000001
 21
6.281299999999997
 31
0.0
  0
LINE
  5
70
330
2
100
AcDbEntity
  8
0
100
AcDbLine
 10
2.312499999999998
 20
0.3438000000000017
 30
0.0
 11
2.312499999999998
 21
6.281300000000002
 31
0.0
  0
LINE
  5
71
330
2
100
AcDbEntity
  8
0
100
AcDbLine
 10
2.374999999999998
 20
0.3438000000000017
 30
0.0
 11
2.374999999999998
 21
6.281300000000002
 31
0.0
  0
LINE
  5
72
330
2
100
AcDbEntity
  8
0
100
AcDbLine
 10
-2.250000000000001
 20
-0.0000000000000047
 30
0.0
 11
2.249999999999998
 21
0.0
 31
0.0
  0
LINE
  5
73
330
2
100
AcDbEntity
  8
0
100
AcDbLine
 10
-2.2505
 20
0.0625
 30
0.0
 11
2.250500000000001
 21
0.0625000000000047
 31
0.0
  0
LINE
  5
74
330
2
100
AcDbEntity
  8
0
100
AcDbLine
 10
-3.437
 20
1.968799999999997
 30
0.0
 11
-3.437
 21
2.593799999999997
 31
0.0
  0
ARC
  5
75
330
2
100
AcDbEntity
  8
0
100
AcDbCircle
 10
-2.375
 20
2.214450164207952
 30
0.0
 40
0.156
100
AcDbArc
 50
90.0
 51
270.0
  0
LINE
  5
78
330
2
100
AcDbEntity
  8
0
100
AcDbLine
 10
-2.375000000000001
 20
0.0936999999999936
 30
0.0
 11
-3.411547148656212
 21
1.874476240467248
 31
0.0
  0
LINE
  5
79
330
2
100
AcDbEntity
  8
0
100
AcDbLine
 10
-2.312500000000001
 20
0.1245
 30
0.0
 11
-2.312500000000001
 21
0.3437999999999969
 31
0.0
  0
LINE
  5
7A
330
2
100
AcDbEntity
  8
0
100
AcDbLine
 10
-2.375000000000001
 20
0.1249999999999953
 30
0.0
 11
-2.375000000000001
 21
0.3437999999999969
 31
0.0
  0
ARC
  5
7B
330
2
100
AcDbEntity
  8
0
100
AcDbCircle
 10
-2.250000000000001
 20
0.1249999999999953
 30
0.0
 40
0.125
100
AcDbArc
 50
180.0
 51
270.0
  0
ARC
  5
7C
330
2
100
AcDbEntity
  8
0
100
AcDbCircle
 10
-2.2505
 20
0.1245
 30
0.0
 40
0.062
100
AcDbArc
 50
180.0
 51
270.0
  0
ARC
  5
7D
330
2
100
AcDbEntity
  8
0
100
AcDbCircle
 10
-2.426988878756846
 20
0.8554909493805276
 30
0.0
 40
0.0519900307039585
100
AcDbArc
 50
359.6185877246038
 51
83.38525270417914
  0
ARC
  5
7E
330
2
100
AcDbEntity
  8
0
100
AcDbCircle
 10
-2.427636839002006
 20
0.8553683940686518
 30
0.0
 40
0.0986370922929614
100
AcDbArc
 50
57.74817661148475
 51
86.14191405494711
  0
ARC
  5
7F
330
2
100
AcDbEntity
  8
0
100
AcDbCircle
 10
-3.2495
 20
1.968799999999997
 30
0.0
 40
0.1875
100
AcDbArc
 50
180.0
 51
210.2026586833964
  0
ARC
  5
80
330
2
100
AcDbEntity
  8
0
100
AcDbCircle
 10
-2.427636839002006
 20
1.288921324932513
 30
0.0
 40
0.0986370922929614
100
AcDbArc
 50
273.8580859450529
 51
302.2518233885158
  0
ARC
  5
81
330
2
100
AcDbEntity
  8
0
100
AcDbCircle
 10
-2.426988878756846
 20
1.288798769620637
 30
0.0
 40
0.0519900307039585
100
AcDbArc
 50
276.6147472958209
 51
0.3814122753966671
  0
LINE
  5
82
330
2
100
AcDbEntity
  8
0
100
AcDbLine
 10
-0.7719730795094968
 20
0.0625
 30
0.0
 11
-0.3419730795094971
 21
0.0625
 31
0.0
  0
LINE
  5
85
330
2
100
AcDbEntity
  8
0
100
AcDbLine
 10
-3.125000000000001
 20
3.598999999999999
 30
0.0
 11
-3.125000000000001
 21
2.963600000000002
 31
0.0
  0
ARC
  5
86
330
2
100
AcDbEntity
  8
0
100
AcDbCircle
 10
-3.2495
 20
2.593799999999997
 30
0.0
 40
0.1875
100
AcDbArc
 50
90.0
 51
180.0
  0
CIRCLE
  5
87
330
2
100
AcDbEntity
  8
0
100
AcDbCircle
 10
-3.125000000000001
 20
2.218799999999997
 30
0.0
 40
0.0855
  0
ARC
  5
88
330
2
100
AcDbEntity
  8
0
100
AcDbCircle
 10
-3.312500000000001
 20
2.963600000000002
 30
0.0
 40
0.1875
100
AcDbArc
 50
289.6333588975685
 51
0.0
  0
ARC
  5
89
330
2
100
AcDbEntity
  8
0
100
AcDbCircle
 10
-2.426988878756847
 20
3.32564094938052
 30
0.0
 40
0.0519900307039585
100
AcDbArc
 50
359.6185877246038
 51
83.38525270417914
  0
ARC
  5
8A
330
2
100
AcDbEntity
  8
0
100
AcDbCircle
 10
-2.427636839002008
 20
3.325518394068645
 30
0.0
 40
0.0986370922929614
100
AcDbArc
 50
57.74817661148475
 51
86.14191405494711
  0
ARC
  5
8B
330
2
100
AcDbEntity
  8
0
100
AcDbCircle
 10
-3.2495
 20
3.968799999999997
 30
0.0
 40
0.1875
100
AcDbArc
 50
180.0
 51
250.3666411024103
  0
CIRCLE
  5
8C
330
2
100
AcDbEntity
  8
0
100
AcDbCircle
 10
-3.125000000000001
 20
3.968799999999997
 30
0.0
 40
0.0855
  0
ARC
  5
8D
330
2
100
AcDbEntity
  8
0
100
AcDbCircle
 10
-3.312500000000001
 20
3.598999999999999
 30
0.0
 40
0.1875
100
AcDbArc
 50
0.0
 51
90.0
  0
ARC
  5
8E
330
2
100
AcDbEntity
  8
0
100
AcDbCircle
 10
-2.427636839002008
 20
3.759071324932506
 30
0.0
 40
0.0986370922929614
100
AcDbArc
 50
273.8580859450529
 51
302.2518233885158
  0
ARC
  5
8F
330
2
100
AcDbEntity
  8
0
100
AcDbCircle
 10
-2.426988878756847
 20
3.75894876962063
 30
0.0
 40
0.0519900307039585
100
AcDbArc
 50
276.6147472958209
 51
0.3814122753966671
  0
LINE
  5
90
330
2
100
AcDbEntity
  8
0
100
AcDbLine
 10
3.436500000000001
 20
1.968800000000002
 30
0.0
 11
3.436500000000001
 21
2.593800000000002
 31
0.0
  0
ARC
  5
91
330
2
100
AcDbEntity
  8
0
100
AcDbCircle
 10
2.375
 20
2.214450164207957
 30
0.0
 40
0.156
100
AcDbArc
 50
270.0
 51
90.0
  0
LINE
  5
92
330
2
100
AcDbEntity
  8
0
100
AcDbLine
 10
2.374499999999999
 20
0.0936999999999983
 30
0.0
 11
3.411047148656211
 21
1.874476240467253
 31
0.0
  0
LINE
  5
93
330
2
100
AcDbEntity
  8
0
100
AcDbLine
 10
2.374999999999998
 20
1.196227300392494
 30
0.0
 11
2.374999999999998
 21
0.4063000000000017
 31
0.0
  0
LINE
  5
94
330
2
100
AcDbEntity
  8
0
100
AcDbLine
 10
2.374999999999998
 20
0.125
 30
0.0
 11
2.374999999999998
 21
0.3438000000000017
 31
0.0
  0
LINE
  5
95
330
2
100
AcDbEntity
  8
0
100
AcDbLine
 10
2.312499999999998
 20
0.1245000000000047
 30
0.0
 11
2.312499999999998
 21
0.3438000000000017
 31
0.0
  0
ARC
  5
96
330
2
100
AcDbEntity
  8
0
100
AcDbCircle
 10
2.249999999999998
 20
0.125
 30
0.0
 40
0.125
100
AcDbArc
 50
270.0
 51
0.0
  0
ARC
  5
97
330
2
100
AcDbEntity
  8
0
100
AcDbCircle
 10
2.250500000000001
 20
0.1245000000000047
 30
0.0
 40
0.062
100
AcDbArc
 50
270.0
 51
0.0
  0
ARC
  5
98
330
2
100
AcDbEntity
  8
0
100
AcDbCircle
 10
2.426988878756843
 20
1.673568769620665
 30
0.0
 40
0.0519900307039585
100
AcDbArc
 50
179.6185877246033
 51
263.3852527041792
  0
ARC
  5
99
330
2
100
AcDbEntity
  8
0
100
AcDbCircle
 10
2.427636839002004
 20
1.673691324932541
 30
0.0
 40
0.0986370922929614
100
AcDbArc
 50
237.7481766114842
 51
266.1419140549471
  0
ARC
  5
9A
330
2
100
AcDbEntity
  8
0
100
AcDbCircle
 10
2.426988878756843
 20
1.240260949380555
 30
0.0
 40
0.0519900307039585
100
AcDbArc
 50
96.61474729582088
 51
180.3814122753962
  0
ARC
  5
9B
330
2
100
AcDbEntity
  8
0
100
AcDbCircle
 10
2.427636839002004
 20
1.240138394068679
 30
0.0
 40
0.0986370922929614
100
AcDbArc
 50
93.85808594505291
 51
122.2518233885153
  0
ARC
  5
9E
330
2
100
AcDbEntity
  8
0
100
AcDbCircle
 10
3.249000000000001
 20
1.968800000000002
 30
0.0
 40
0.1875
100
AcDbArc
 50
329.7973413166037
 51
0.0000000000000254
  0
LINE
  5
9F
330
2
100
AcDbEntity
  8
0
100
AcDbLine
 10
3.124499999999999
 20
3.599000000000004
 30
0.0
 11
3.124499999999999
 21
2.963600000000007
 31
0.0
  0
ARC
  5
A0
330
2
100
AcDbEntity
  8
0
100
AcDbCircle
 10
2.427636839002004
 20
3.477124078342646
 30
0.0
 40
0.0986370922929614
100
AcDbArc
 50
237.7481766114842
 51
266.1419140549471
  0
ARC
  5
A1
330
2
100
AcDbEntity
  8
0
100
AcDbCircle
 10
2.426988878756843
 20
3.47700152303077
 30
0.0
 40
0.0519900307039585
100
AcDbArc
 50
179.6185877246033
 51
263.3852527041792
  0
ARC
  5
A2
330
2
100
AcDbEntity
  8
0
100
AcDbCircle
 10
2.426988878756843
 20
3.043693702790661
 30
0.0
 40
0.0519900307039585
100
AcDbArc
 50
96.61474729582088
 51
180.3814122753962
  0
ARC
  5
A3
330
2
100
AcDbEntity
  8
0
100
AcDbCircle
 10
2.427636839002004
 20
3.043571147478785
 30
0.0
 40
0.0986370922929614
100
AcDbArc
 50
93.85808594505291
 51
122.2518233885153
  0
ARC
  5
A6
330
2
100
AcDbEntity
  8
0
100
AcDbCircle
 10
3.249000000000001
 20
2.593800000000002
 30
0.0
 40
0.1875
100
AcDbArc
 50
0.0000000000000254
 51
90.00000000000003
  0
CIRCLE
  5
A7
330
2
100
AcDbEntity
  8
0
100
AcDbCircle
 10
3.124499999999999
 20
2.218800000000002
 30
0.0
 40
0.0855
  0
ARC
  5
A8
330
2
100
AcDbEntity
  8
0
100
AcDbCircle
 10
3.311999999999999
 20
2.963600000000007
 30
0.0
 40
0.1875
100
AcDbArc
 50
180.0000000000001
 51
250.3666411024315
  0
CIRCLE
  5
A9
330
2
100
AcDbEntity
  8
0
100
AcDbCircle
 10
3.124499999999999
 20
3.968800000000002
 30
0.0
 40
0.0855
  0
ARC
  5
AA
330
2
100
AcDbEntity
  8
0
100
AcDbCircle
 10
3.249000000000001
 20
3.968800000000002
 30
0.0
 40
0.1875
100
AcDbArc
 50
289.6333588975897
 51
0.0000000000000254
  0
ARC
  5
AB
330
2
100
AcDbEntity
  8
0
100
AcDbCircle
 10
3.311999999999999
 20
3.599000000000004
 30
0.0
 40
0.1875
100
AcDbArc
 50
90.00000000000003
 51
180.0000000000001
  0
ARC
  5
DD
330
2
100
AcDbEntity
  8
0
100
AcDbCircle
 10
-3.2495
 20
5.968799999999997
 30
0.0
 40
0.1875
100
AcDbArc
 50
180.0
 51
250.3666411024103
  0
LINE
  5
DE
330
2
100
AcDbEntity
  8
0
100
AcDbLine
 10
-3.125000000000001
 20
4.963599788214704
 30
0.0
 11
-3.125000000000001
 21
5.598999999999999
 31
0.0
  0
ARC
  5
DF
330
2
100
AcDbEntity
  8
0
100
AcDbCircle
 10
-3.312500000000001
 20
4.963600000000002
 30
0.0
 40
0.1875
100
AcDbArc
 50
289.6333588975685
 51
0.0
  0
ARC
  5
E0
330
2
100
AcDbEntity
  8
0
100
AcDbCircle
 10
-3.2495
 20
4.593799999999997
 30
0.0
 40
0.1875
100
AcDbArc
 50
90.0
 51
180.0
  0
ARC
  5
E1
330
2
100
AcDbEntity
  8
0
100
AcDbCircle
 10
-3.312500000000001
 20
5.598999999999999
 30
0.0
 40
0.1875
100
AcDbArc
 50
0.0
 51
90.0
  0
LINE
  5
E2
330
2
100
AcDbEntity
  8
0
100
AcDbLine
 10
-2.375000000000001
 20
5.2863
 30
0.0
 11
-2.375000000000001
 21
5.190299999999996
 31
0.0
  0
LINE
  5
E3
330
2
100
AcDbEntity
  8
0
100
AcDbLine
 10
-2.65509
 20
5.593799999999997
 30
0.0
 11
-2.65509
 21
4.843799999999997
 31
0.0
  0
LINE
  5
E4
330
2
100
AcDbEntity
  8
0
100
AcDbLine
 10
-2.84259
 20
4.843799999999997
 30
0.0
 11
-2.84259
 21
5.593799999999997
 31
0.0
  0
LINE
  5
E5
330
2
100
AcDbEntity
  8
0
100
AcDbLine
 10
-2.74884
 20
5.093799999999997
 30
0.0
 11
-2.84259
 21
5.218799999999997
 31
0.0
  0
LINE
  5
E6
330
2
100
AcDbEntity
  8
0
100
AcDbLine
 10
-2.74884
 20
5.093799999999997
 30
0.0
 11
-2.65509
 21
5.218799999999997
 31
0.0
  0
LINE
  5
E7
330
2
100
AcDbEntity
  8
0
100
AcDbLine
 10
-2.74884
 20
4.718799999999997
 30
0.0
 11
-2.65509
 21
4.843799999999997
 31
0.0
  0
LINE
  5
E8
330
2
100
AcDbEntity
  8
0
100
AcDbLine
 10
-2.74884
 20
4.718799999999997
 30
0.0
 11
-2.84259
 21
4.843799999999997
 31
0.0
  0
LINE
  5
E9
330
2
100
AcDbEntity
  8
0
100
AcDbLine
 10
-2.375000000000001
 20
5.526300000000002
 30
0.0
 11
-2.375000000000001
 21
5.622299999999998
 31
0.0
  0
LINE
  5
EA
330
2
100
AcDbEntity
  8
0
100
AcDbLine
 10
-2.375000000000001
 20
5.346300000000002
 30
0.0
 11
-2.375000000000001
 21
5.4663
 31
0.0
  0
LINE
  5
EB
330
2
100
AcDbEntity
  8
0
100
AcDbLine
 10
-2.84259
 20
5.593799999999997
 30
0.0
 11
-2.65509
 21
5.593799999999997
 31
0.0
  0
LINE
  5
EC
330
2
100
AcDbEntity
  8
0
100
AcDbLine
 10
-2.312500000000001
 20
6.281299999999997
 30
0.0
 11
-3.437500000000001
 21
6.281299999999997
 31
0.0
  0
LINE
  5
ED
330
2
100
AcDbEntity
  8
0
100
AcDbLine
 10
-3.437000000000002
 20
5.968799999999997
 30
0.0
 11
-3.437000000000002
 21
6.281299999999997
 31
0.0
  0
CIRCLE
  5
EE
330
2
100
AcDbEntity
  8
0
100
AcDbCircle
 10
-3.125000000000001
 20
5.968799999999997
 30
0.0
 40
0.0855
  0
ARC
  5
EF
330
2
100
AcDbEntity
  8
0
100
AcDbCircle
 10
3.249000000000001
 20
5.968800000000002
 30
0.0
 40
0.1875
100
AcDbArc
 50
289.6333588975897
 51
0.0000000000000254
  0
LINE
  5
F0
330
2
100
AcDbEntity
  8
0
100
AcDbLine
 10
2.74884
 20
5.093800000000002
 30
0.0
 11
2.65509
 21
5.218800000000002
 31
0.0
  0
LINE
  5
F1
330
2
100
AcDbEntity
  8
0
100
AcDbLine
 10
2.74884
 20
4.718800000000002
 30
0.0
 11
2.65509
 21
4.843800000000002
 31
0.0
  0
LINE
  5
F2
330
2
100
AcDbEntity
  8
0
100
AcDbLine
 10
2.842589999999996
 20
5.593800000000002
 30
0.0
 11
2.65509
 21
5.593800000000002
 31
0.0
  0
LINE
  5
F3
330
2
100
AcDbEntity
  8
0
100
AcDbLine
 10
2.65509
 20
5.593800000000002
 30
0.0
 11
2.65509
 21
4.843800000000002
 31
0.0
  0
LINE
  5
F4
330
2
100
AcDbEntity
  8
0
100
AcDbLine
 10
3.124499999999999
 20
4.963599788214708
 30
0.0
 11
3.124499999999999
 21
5.599000000000004
 31
0.0
  0
LINE
  5
F5
330
2
100
AcDbEntity
  8
0
100
AcDbLine
 10
2.74884
 20
5.093800000000002
 30
0.0
 11
2.842589999999996
 21
5.218800000000002
 31
0.0
  0
LINE
  5
F6
330
2
100
AcDbEntity
  8
0
100
AcDbLine
 10
2.842589999999996
 20
4.843800000000002
 30
0.0
 11
2.842589999999996
 21
5.593800000000002
 31
0.0
  0
ARC
  5
F7
330
2
100
AcDbEntity
  8
0
100
AcDbCircle
 10
3.311999999999999
 20
4.963600000000007
 30
0.0
 40
0.1875
100
AcDbArc
 50
180.0000000000001
 51
250.3666411024315
  0
LINE
  5
F8
330
2
100
AcDbEntity
  8
0
100
AcDbLine
 10
2.74884
 20
4.718800000000002
 30
0.0
 11
2.842589999999996
 21
4.843800000000002
 31
0.0
  0
ARC
  5
F9
330
2
100
AcDbEntity
  8
0
100
AcDbCircle
 10
3.249000000000001
 20
4.593800000000002
 30
0.0
 40
0.1875
100
AcDbArc
 50
0.0000000000000254
 51
90.00000000000003
  0
ARC
  5
FA
330
2
100
AcDbEntity
  8
0
100
AcDbCircle
 10
3.311999999999999
 20
5.599000000000004
 30
0.0
 40
0.1875
100
AcDbArc
 50
90.00000000000003
 51
180.0000000000001
  0
LINE
  5
FB
330
2
100
AcDbEntity
  8
0
100
AcDbLine
 10
2.312499999999998
 20
6.281300000000002
 30
0.0
 11
3.437499999999998
 21
6.281300000000002
 31
0.0
  0
CIRCLE
  5
FC
330
2
100
AcDbEntity
  8
0
100
AcDbCircle
 10
3.124499999999999
 20
5.968800000000002
 30
0.0
 40
0.0855
  0
LINE
  5
FD
330
2
100
AcDbEntity
  8
0
100
AcDbLine
 10
3.436500000000001
 20
5.968800000000002
 30
0.0
 11
3.436500000000001
 21
6.281300000000002
 31
0.0
  0
ARC
  5
18B
330
2
100
AcDbEntity
  8
0
100
AcDbCircle
 10
-2.374999999999994
 20
1.034419158338089
 30
0.0
 40
0.1627257011624951
100
AcDbArc
 50
106.4204773143154
 51
109.9326970463658
  0
ARC
  5
18C
330
2
100
AcDbEntity
  8
0
100
AcDbCircle
 10
-2.381684477804659
 20
1.052851951187719
 30
0.0
 40
0.1431183021570574
100
AcDbArc
 50
109.9326970463565
 51
131.2018769840333
  0
ARC
  5
18D
330
2
100
AcDbEntity
  8
0
100
AcDbCircle
 10
-2.391978162061974
 20
1.064609554793208
 30
0.0
 40
0.1274913645769336
100
AcDbArc
 50
131.2018769840263
 51
154.6801826141883
  0
ARC
  5
18E
330
2
100
AcDbEntity
  8
0
100
AcDbCircle
 10
-2.407904962283566
 20
1.07214485950059
 30
0.0
 40
0.1098719496510168
100
AcDbArc
 50
154.680182614201
 51
180.0000000000055
  0
ARC
  5
18F
330
2
100
AcDbEntity
  8
0
100
AcDbCircle
 10
-2.40790496228358
 20
1.072144859500575
 30
0.0
 40
0.1098719496510032
100
AcDbArc
 50
179.9999999999982
 51
205.3198173858021
  0
ARC
  5
190
330
2
100
AcDbEntity
  8
0
100
AcDbCircle
 10
-2.391978162061956
 20
1.07968016420795
 30
0.0
 40
0.1274913645769462
100
AcDbArc
 50
205.3198173858054
 51
228.7981230159677
  0
ARC
  5
191
330
2
100
AcDbEntity
  8
0
100
AcDbCircle
 10
-2.381684477804661
 20
1.091437767813439
 30
0.0
 40
0.1431183021570562
100
AcDbArc
 50
228.7981230159672
 51
250.0673029536441
  0
ARC
  5
192
330
2
100
AcDbEntity
  8
0
100
AcDbCircle
 10
-2.374999999999994
 20
1.109870560663069
 30
0.0
 40
0.1627257011624951
100
AcDbArc
 50
250.0673029536342
 51
253.5795226856846
  0
ARC
  5
193
330
2
100
AcDbEntity
  8
0
100
AcDbCircle
 10
-2.374999999999997
 20
1.063523036659841
 30
0.0
 40
0.1796218228407433
100
AcDbArc
 50
104.8383959934706
 51
112.0008925954779
  0
ARC
  5
194
330
2
100
AcDbEntity
  8
0
100
AcDbCircle
 10
-2.376695882090488
 20
1.067720303866029
 30
0.0
 40
0.1750948958405604
100
AcDbArc
 50
112.0008925954737
 51
134.2879713357527
  0
ARC
  5
195
330
2
100
AcDbEntity
  8
0
100
AcDbCircle
 10
-2.379320116518769
 20
1.070410586497644
 30
0.0
 40
0.1713366745894175
100
AcDbArc
 50
134.2879713357522
 51
156.9920431300937
  0
ARC
  5
196
330
2
100
AcDbEntity
  8
0
100
AcDbCircle
 10
-2.383404230649156
 20
1.072144859500583
 30
0.0
 40
0.1668995932200094
100
AcDbArc
 50
156.9920431300962
 51
180.0000000000013
  0
ARC
  5
197
330
2
100
AcDbEntity
  8
0
100
AcDbCircle
 10
-2.383404230649162
 20
1.072144859500575
 30
0.0
 40
0.1668995932200037
100
AcDbArc
 50
179.9999999999988
 51
203.0079568699046
  0
ARC
  5
198
330
2
100
AcDbEntity
  8
0
100
AcDbCircle
 10
-2.379320116518769
 20
1.073879132503514
 30
0.0
 40
0.171336674589418
100
AcDbArc
 50
203.0079568699063
 51
225.7120286642478
  0
ARC
  5
199
330
2
100
AcDbEntity
  8
0
100
AcDbCircle
 10
-2.376695882090487
 20
1.076569415135133
 30
0.0
 40
0.1750948958405643
100
AcDbArc
 50
225.7120286642477
 51
247.9991074045262
  0
ARC
  5
19A
330
2
100
AcDbEntity
  8
0
100
AcDbCircle
 10
-2.375000000000056
 20
1.080766682341313
 30
0.0
 40
0.1796218228407181
100
AcDbArc
 50
247.9991074045391
 51
255.1616040065466
  0
ARC
  5
19B
330
2
100
AcDbEntity
  8
0
100
AcDbCircle
 10
-2.374999999999996
 20
3.504569158338085
 30
0.0
 40
0.1627257011624917
100
AcDbArc
 50
106.4204773143158
 51
109.9326970463662
  0
ARC
  5
19C
330
2
100
AcDbEntity
  8
0
100
AcDbCircle
 10
-2.381684477804661
 20
3.523001951187708
 30
0.0
 40
0.1431183021570608
100
AcDbArc
 50
109.9326970463561
 51
131.2018769840323
  0
ARC
  5
19D
330
2
100
AcDbEntity
  8
0
100
AcDbCircle
 10
-2.391978162061975
 20
3.534759554793201
 30
0.0
 40
0.1274913645769336
100
AcDbArc
 50
131.2018769840263
 51
154.6801826141883
  0
ARC
  5
19E
330
2
100
AcDbEntity
  8
0
100
AcDbCircle
 10
-2.407904962283568
 20
3.542294859500579
 30
0.0
 40
0.1098719496510183
100
AcDbArc
 50
154.6801826141994
 51
180.0000000000037
  0
ARC
  5
19F
330
2
100
AcDbEntity
  8
0
100
AcDbCircle
 10
-2.407904962283582
 20
3.542294859500565
 30
0.0
 40
0.1098719496510032
100
AcDbArc
 50
179.9999999999963
 51
205.3198173858004
  0
ARC
  5
1A0
330
2
100
AcDbEntity
  8
0
100
AcDbCircle
 10
-2.391978162061958
 20
3.549830164207946
 30
0.0
 40
0.1274913645769478
100
AcDbArc
 50
205.3198173858069
 51
228.7981230159687
  0
ARC
  5
1A1
330
2
100
AcDbEntity
  8
0
100
AcDbCircle
 10
-2.381684477804661
 20
3.561587767813428
 30
0.0
 40
0.1431183021570547
100
AcDbArc
 50
228.7981230159658
 51
250.067302953643
  0
ARC
  5
1A2
330
2
100
AcDbEntity
  8
0
100
AcDbCircle
 10
-2.374999999999996
 20
3.580020560663058
 30
0.0
 40
0.1627257011624917
100
AcDbArc
 50
250.0673029536338
 51
253.5795226856842
  0
ARC
  5
1A3
330
2
100
AcDbEntity
  8
0
100
AcDbCircle
 10
-2.374999999999999
 20
3.533673036659834
 30
0.0
 40
0.1796218228407433
100
AcDbArc
 50
104.8383959934706
 51
112.0008925954779
  0
ARC
  5
1A4
330
2
100
AcDbEntity
  8
0
100
AcDbCircle
 10
-2.37669588209049
 20
3.537870303866022
 30
0.0
 40
0.1750948958405604
100
AcDbArc
 50
112.0008925954737
 51
134.2879713357527
  0
ARC
  5
1A5
330
2
100
AcDbEntity
  8
0
100
AcDbCircle
 10
-2.379320116518771
 20
3.540560586497637
 30
0.0
 40
0.1713366745894175
100
AcDbArc
 50
134.2879713357522
 51
156.9920431300937
  0
ARC
  5
1A6
330
2
100
AcDbEntity
  8
0
100
AcDbCircle
 10
-2.383404230649158
 20
3.542294859500579
 30
0.0
 40
0.1668995932200081
100
AcDbArc
 50
156.9920431300973
 51
180.0000000000024
  0
ARC
  5
1A7
330
2
100
AcDbEntity
  8
0
100
AcDbCircle
 10
-2.383404230649163
 20
3.542294859500565
 30
0.0
 40
0.1668995932200037
100
AcDbArc
 50
179.9999999999976
 51
203.0079568699034
  0
ARC
  5
1A8
330
2
100
AcDbEntity
  8
0
100
AcDbCircle
 10
-2.379320116518771
 20
3.54402913250351
 30
0.0
 40
0.1713366745894194
100
AcDbArc
 50
203.0079568699074
 51
225.7120286642487
  0
ARC
  5
1A9
330
2
100
AcDbEntity
  8
0
100
AcDbCircle
 10
-2.376695882090488
 20
3.546719415135125
 30
0.0
 40
0.1750948958405643
100
AcDbArc
 50
225.7120286642477
 51
247.9991074045262
  0
ARC
  5
1AA
330
2
100
AcDbEntity
  8
0
100
AcDbCircle
 10
-2.375000000000058
 20
3.550916682341306
 30
0.0
 40
0.1796218228407181
100
AcDbArc
 50
247.9991074045391
 51
255.1616040065466
  0
ARC
  5
1AB
330
2
100
AcDbEntity
  8
0
100
AcDbCircle
 10
2.374999999999991
 20
1.41918915833812
 30
0.0
 40
0.1627257011624917
100
AcDbArc
 50
70.06730295363376
 51
73.57952268568424
  0
ARC
  5
1AC
330
2
100
AcDbEntity
  8
0
100
AcDbCircle
 10
2.381684477804656
 20
1.437621951187743
 30
0.0
 40
0.1431183021570608
100
AcDbArc
 50
48.79812301596765
 51
70.06730295364395
  0
ARC
  5
1AD
330
2
100
AcDbEntity
  8
0
100
AcDbCircle
 10
2.391978162061969
 20
1.449379554793235
 30
0.0
 40
0.1274913645769348
100
AcDbArc
 50
25.31981738581136
 51
48.79812301597308
  0
ARC
  5
1AE
330
2
100
AcDbEntity
  8
0
100
AcDbCircle
 10
2.407904962283562
 20
1.456914859500613
 30
0.0
 40
0.1098719496510199
100
AcDbArc
 50
359.9999999999963
 51
25.31981738580025
  0
ARC
  5
1AF
330
2
100
AcDbEntity
  8
0
100
AcDbCircle
 10
2.407904962283579
 20
1.456914859500599
 30
0.0
 40
0.1098719496510014
100
AcDbArc
 50
334.6801826141992
 51
0.0000000000037053
  0
ARC
  5
1B0
330
2
100
AcDbEntity
  8
0
100
AcDbCircle
 10
2.391978162061955
 20
1.464450164207981
 30
0.0
 40
0.1274913645769462
100
AcDbArc
 50
311.2018769840307
 51
334.6801826141928
  0
ARC
  5
1B1
330
2
100
AcDbEntity
  8
0
100
AcDbCircle
 10
2.381684477804656
 20
1.476207767813462
 30
0.0
 40
0.1431183021570547
100
AcDbArc
 50
289.932697046357
 51
311.2018769840342
  0
ARC
  5
1B2
330
2
100
AcDbEntity
  8
0
100
AcDbCircle
 10
2.374999999999991
 20
1.494640560663093
 30
0.0
 40
0.1627257011624917
100
AcDbArc
 50
286.4204773143158
 51
289.9326970463663
  0
ARC
  5
1B3
330
2
100
AcDbEntity
  8
0
100
AcDbCircle
 10
2.374999999999995
 20
1.448293036659869
 30
0.0
 40
0.1796218228407433
100
AcDbArc
 50
67.99910740452214
 51
75.1616040065294
  0
ARC
  5
1B4
330
2
100
AcDbEntity
  8
0
100
AcDbCircle
 10
2.376695882090486
 20
1.452490303866056
 30
0.0
 40
0.1750948958405604
100
AcDbArc
 50
45.71202866424729
 51
67.99910740452631
  0
ARC
  5
1B5
330
2
100
AcDbEntity
  8
0
100
AcDbCircle
 10
2.379320116518768
 20
1.455180586497672
 30
0.0
 40
0.1713366745894163
100
AcDbArc
 50
23.00795686990655
 51
45.71202866424827
  0
ARC
  5
1B6
330
2
100
AcDbEntity
  8
0
100
AcDbCircle
 10
2.383404230649154
 20
1.456914859500613
 30
0.0
 40
0.1668995932200081
100
AcDbArc
 50
359.9999999999976
 51
23.00795686990271
  0
ARC
  5
1B7
330
2
100
AcDbEntity
  8
0
100
AcDbCircle
 10
2.383404230649161
 20
1.456914859500599
 30
0.0
 40
0.1668995932200019
100
AcDbArc
 50
336.9920431300963
 51
0.0000000000024393
  0
ARC
  5
1B8
330
2
100
AcDbEntity
  8
0
100
AcDbCircle
 10
2.379320116518768
 20
1.458649132503545
 30
0.0
 40
0.1713366745894177
100
AcDbArc
 50
314.2879713357509
 51
336.9920431300923
  0
ARC
  5
1B9
330
2
100
AcDbEntity
  8
0
100
AcDbCircle
 10
2.376695882090482
 20
1.46133941513516
 30
0.0
 40
0.1750948958405655
100
AcDbArc
 50
292.0008925954743
 51
314.2879713357527
  0
ARC
  5
1BA
330
2
100
AcDbEntity
  8
0
100
AcDbCircle
 10
2.375000000000055
 20
1.46553668234134
 30
0.0
 40
0.1796218228407174
100
AcDbArc
 50
284.8383959934529
 51
292.0008925954604
  0
ARC
  5
1BB
330
2
100
AcDbEntity
  8
0
100
AcDbCircle
 10
2.374999999999991
 20
3.222621911748226
 30
0.0
 40
0.1627257011624917
100
AcDbArc
 50
70.06730295363376
 51
73.57952268568424
  0
ARC
  5
1BC
330
2
100
AcDbEntity
  8
0
100
AcDbCircle
 10
2.381684477804656
 20
3.241054704597849
 30
0.0
 40
0.1431183021570608
100
AcDbArc
 50
48.79812301596765
 51
70.06730295364395
  0
ARC
  5
1BD
330
2
100
AcDbEntity
  8
0
100
AcDbCircle
 10
2.391978162061969
 20
3.252812308203341
 30
0.0
 40
0.1274913645769348
100
AcDbArc
 50
25.31981738581136
 51
48.79812301597308
  0
ARC
  5
1BE
330
2
100
AcDbEntity
  8
0
100
AcDbCircle
 10
2.407904962283562
 20
3.260347612910719
 30
0.0
 40
0.1098719496510199
100
AcDbArc
 50
359.9999999999963
 51
25.31981738580025
  0
ARC
  5
1BF
330
2
100
AcDbEntity
  8
0
100
AcDbCircle
 10
2.407904962283579
 20
3.260347612910705
 30
0.0
 40
0.1098719496510014
100
AcDbArc
 50
334.6801826141992
 51
0.0000000000037053
  0
ARC
  5
1C0
330
2
100
AcDbEntity
  8
0
100
AcDbCircle
 10
2.391978162061955
 20
3.267882917618087
 30
0.0
 40
0.1274913645769462
100
AcDbArc
 50
311.2018769840307
 51
334.6801826141928
  0
ARC
  5
1C1
330
2
100
AcDbEntity
  8
0
100
AcDbCircle
 10
2.381684477804656
 20
3.279640521223568
 30
0.0
 40
0.1431183021570547
100
AcDbArc
 50
289.932697046357
 51
311.2018769840342
  0
ARC
  5
1C2
330
2
100
AcDbEntity
  8
0
100
AcDbCircle
 10
2.374999999999991
 20
3.298073314073198
 30
0.0
 40
0.1627257011624917
100
AcDbArc
 50
286.4204773143158
 51
289.9326970463663
  0
ARC
  5
1C3
330
2
100
AcDbEntity
  8
0
100
AcDbCircle
 10
2.374999999999995
 20
3.251725790069974
 30
0.0
 40
0.1796218228407433
100
AcDbArc
 50
67.99910740452214
 51
75.1616040065294
  0
ARC
  5
1C4
330
2
100
AcDbEntity
  8
0
100
AcDbCircle
 10
2.376695882090486
 20
3.255923057276162
 30
0.0
 40
0.1750948958405604
100
AcDbArc
 50
45.71202866424729
 51
67.99910740452631
  0
ARC
  5
1C5
330
2
100
AcDbEntity
  8
0
100
AcDbCircle
 10
2.379320116518768
 20
3.258613339907777
 30
0.0
 40
0.1713366745894163
100
AcDbArc
 50
23.00795686990655
 51
45.71202866424827
  0
ARC
  5
1C6
330
2
100
AcDbEntity
  8
0
100
AcDbCircle
 10
2.383404230649154
 20
3.260347612910719
 30
0.0
 40
0.1668995932200081
100
AcDbArc
 50
359.9999999999976
 51
23.00795686990271
  0
ARC
  5
1C7
330
2
100
AcDbEntity
  8
0
100
AcDbCircle
 10
2.383404230649161
 20
3.260347612910705
 30
0.0
 40
0.1668995932200019
100
AcDbArc
 50
336.9920431300963
 51
0.0000000000024393
  0
ARC
  5
1C8
330
2
100
AcDbEntity
  8
0
100
AcDbCircle
 10
2.379320116518768
 20
3.26208188591365
 30
0.0
 40
0.1713366745894177
100
AcDbArc
 50
314.2879713357509
 51
336.9920431300923
  0
ARC
  5
1C9
330
2
100
AcDbEntity
  8
0
100
AcDbCircle
 10
2.376695882090482
 20
3.264772168545266
 30
0.0
 40
0.1750948958405655
100
AcDbArc
 50
292.0008925954743
 51
314.2879713357527
  0
ARC
  5
1CA
330
2
100
AcDbEntity
  8
0
100
AcDbCircle
 10
2.375000000000055
 20
3.268969435751446
 30
0.0
 40
0.1796218228407174
100
AcDbArc
 50
284.8383959934529
 51
292.0008925954604
  0
ENDSEC
  0
SECTION
  2
OBJECTS
  0
DICTIONARY
  5
9
330
0
100
AcDbDictionary
281
     1
  3
ACAD_COLOR
350
619
  3
ACAD_GROUP
350
24
  3
ACAD_LAYOUT
350
D
  3
ACAD_MATERIAL
350
618
  3
ACAD_MLINESTYLE
350
25
  3
ACAD_PLOTSETTINGS
350
26
  3
ACAD_PLOTSTYLENAME
350
8
  3
ACAD_TABLESTYLE
350
61A
  3
AcDbVariableDictionary
350
135
  3
ASE_INDEX_DICTIONARY
350
634
  0
DICTIONARY
  5
619
102
{ACAD_REACTORS
330
9
102
}
330
9
100
AcDbDictionary
281
     1
  0
DICTIONARY
  5
24
102
{ACAD_REACTORS
330
9
102
}
330
9
100
AcDbDictionary
281
     1
  0
DICTIONARY
  5
D
102
{ACAD_REACTORS
330
9
102
}
330
9
100
AcDbDictionary
281
     1
  3
Layout1
350
13
  3
Model
350
C
  0
DICTIONARY
  5
618
102
{ACAD_REACTORS
330
9
102
}
330
9
100
AcDbDictionary
281
     1
  0
DICTIONARY
  5
25
102
{ACAD_REACTORS
330
9
102
}
330
9
100
AcDbDictionary
281
     1
  3
STANDARD
350
28
  0
DICTIONARY
  5
26
102
{ACAD_REACTORS
330
9
102
}
330
9
100
AcDbDictionary
281
     1
  0
ACDBDICTIONARYWDFLT
  5
8
102
{ACAD_REACTORS
330
9
102
}
330
9
100
AcDbDictionary
281
     1
  3
Normal
350
7
100
AcDbDictionaryWithDefault
340
7
  0
DICTIONARY
  5
61A
102
{ACAD_REACTORS
330
9
102
}
330
9
100
AcDbDictionary
281
     1
  3
Standard
350
61B
  0
DICTIONARY
  5
135
102
{ACAD_REACTORS
330
9
102
}
330
9
100
AcDbDictionary
281
     1
  3
CTABLESTYLE
350
627
  3
DIMASSOC
350
137
  3
HIDETEXT
350
136
  0
DICTIONARY
  5
634
102
{ACAD_REACTORS
330
9
102
}
330
9
100
AcDbDictionary
281
     1
  3
ASEBlockHierarchyIndexRecord
350
636
1001
DCO15
1040
1641715543.134
  0
LAYOUT
  5
13
102
{ACAD_REACTORS
330
D
102
}
330
D
100
AcDbPlotSettings
  1

  2
HP LaserJet 2100 Series PS
  4

  6

 40
0.0
 41
0.0
 42
0.0
 43
0.0
 44
0.0
 45
0.0
 46
0.0
 47
0.0
 48
0.0
 49
0.0
140
0.0
141
0.0
142
1.0
143
1.0
 70
   688
 72
     0
 73
     0
 74
     5
  7

 75
    16
 76
     0
 77
     2
 78
   300
147
1.0
148
0.0
149
0.0
100
AcDbLayout
  1
Layout1
 70
     0
 71
     1
 10
0.0
 20
0.0
 11
12.0
 21
9.0
 12
0.0
 22
0.0
 32
0.0
 14
1.000000000000000E+20
 24
1.000000000000000E+20
 34
1.000000000000000E+20
 15
-1.000000000000000E+20
 25
-1.000000000000000E+20
 35
-1.000000000000000E+20
146
0.0
 13
0.0
 23
0.0
 33
0.0
 16
1.0
 26
0.0
 36
0.0
 17
0.0
 27
1.0
 37
0.0
 76
     0
330
E
  0
LAYOUT
  5
C
102
{ACAD_REACTORS
330
D
102
}
330
D
100
AcDbPlotSettings
  1

  2
HP LaserJet 2100 Series PS
  4
Letter
  6

 40
5.365749835968018
 41
5.386905193328857
 42
5.386917114257813
 43
5.365753173828125
 44
215.8999938964844
 45
279.3999938964844
 46
0.0
 47
0.0
 48
0.0
 49
0.0
140
0.0
141
0.0
142
1.0
143
3.971005325245599
 70
 11952
 72
     0
 73
     1
 74
     2
  7

 75
     0
 76
     0
 77
     2
 78
   300
147
0.2518253988838839
148
0.0
149
0.0
100
AcDbLayout
  1
Model
 70
     1
 71
     0
 10
0.0
 20
0.0
 11
12.0
 21
9.0
 12
0.0
 22
0.0
 32
0.0
 14
0.0
 24
0.0
 34
0.0
 15
0.0
 25
0.0
 35
0.0
146
0.0
 13
0.0
 23
0.0
 33
0.0
 16
1.0
 26
0.0
 36
0.0
 17
0.0
 27
1.0
 37
0.0
 76
     0
330
2
  0
MLINESTYLE
  5
28
102
{ACAD_REACTORS
330
25
102
}
330
25
100
AcDbMlineStyle
  2
STANDARD
 70
     0
  3

 62
   256
 51
90.0
 52
90.0
 71
     2
 49
0.5
 62
   256
  6
BYLAYER
 49
-0.5
 62
   256
  6
BYLAYER
  0
ACDBPLACEHOLDER
  5
7
102
{ACAD_REACTORS
330
8
102
}
330
8
  0
ACAD_PROXY_OBJECT
  5
61B
102
{ACAD_REACTORS
330
61A
102
}
330
61A
100
AcDbProxyObject
 90
      499
 91
      549
 95
   983063
 70
     0
 93
     1841
310
4214DD185B99185C9928B81E85EB51B8AE3F2E07A17AD46E2B8FC02B5E8DC0F42B1CFD028000000C1008070000C3001FDFF8000000C1003FBFF000000182007F7FE00000030400FEFFC00000060801FDFF8000000C1003FBFF00000018200000000000000681FA0B0000001820100E000186003FBFF000000182007F7FE000
310
00030400FEFFC00000060801FDFF8000000C1003FBFF000000182007F7FE000000304000AD7A3703D0AC73F4160000003040201C00030C007F7FE00000030400FEFFC00000060801FDFF8000000C1003FBFF000000182007F7FE00000030400FEFFC000000608000
340
16
340
16
340
16
 94
        0
  0
DICTIONARYVAR
  5
627
102
{ACAD_REACTORS
330
135
102
}
330
135
100
DictionaryVariables
280
     0
  1
STANDARD
  0
DICTIONARYVAR
  5
137
102
{ACAD_REACTORS
330
135
102
}
330
135
100
DictionaryVariables
280
     0
  1
0
  0
DICTIONARYVAR
  5
136
102
{ACAD_REACTORS
330
135
102
}
330
135
100
DictionaryVariables
280
     0
  1
1
  0
XRECORD
  5
636
102
{ACAD_REACTORS
330
634
102
}
330
634
100
AcDbXrecord
280
     1
  0
ENDSEC
  0
EOF
