  0
SECTION
  2
HEADER
  9
$ACADVER
  1
AC1015
  9
$ACADMAINTVER
 70
     6
  9
$DWGCODEPAGE
  3
ANSI_1252
  9
$INSBASE
 10
0.0
 20
0.0
 30
0.0
  9
$EXTMIN
 10
-9.307102681134182
 20
-0.0258883476483184
 30
0.0
  9
$EXTMAX
 10
8.950008427497693
 20
12.52969474194937
 30
0.0
  9
$LIMMIN
 10
0.0
 20
0.0
  9
$LIMMAX
 10
42.0
 20
32.0
  9
$ORTHOMODE
 70
     1
  9
$REGENMODE
 70
     1
  9
$FILLMODE
 70
     1
  9
$QTEXTMODE
 70
     0
  9
$MIRRTEXT
 70
     1
  9
$LTSCALE
 40
0.75
  9
$ATTMODE
 70
     1
  9
$TEXTSIZE
 40
0.27
  9
$TRACEWID
 40
0.05
  9
$TEXTSTYLE
  7
STANDARD
  9
$CLAYER
  8
0
  9
$CELTYPE
  6
BYLAYER
  9
$CECOLOR
 62
   256
  9
$CELTSCALE
 40
1.0
  9
$DISPSILH
 70
     0
  9
$DIMSCALE
 40
1.0
  9
$DIMASZ
 40
0.375
  9
$DIMEXO
 40
0.0625
  9
$DIMDLI
 40
1.25
  9
$DIMRND
 40
0.0
  9
$DIMDLE
 40
0.0
  9
$DIMEXE
 40
0.18
  9
$DIMTP
 40
0.0
  9
$DIMTM
 40
0.0
  9
$DIMTXT
 40
0.27
  9
$DIMCEN
 40
-0.06
  9
$DIMTSZ
 40
0.0
  9
$DIMTOL
 70
     0
  9
$DIMLIM
 70
     0
  9
$DIMTIH
 70
     1
  9
$DIMTOH
 70
     1
  9
$DIMSE1
 70
     0
  9
$DIMSE2
 70
     0
  9
$DIMTAD
 70
     0
  9
$DIMZIN
 70
     0
  9
$DIMBLK
  1

  9
$DIMASO
 70
     0
  9
$DIMSHO
 70
     0
  9
$DIMPOST
  1

  9
$DIMAPOST
  1

  9
$DIMALT
 70
     0
  9
$DIMALTD
 70
     2
  9
$DIMALTF
 40
25.4
  9
$DIMLFAC
 40
1.0
  9
$DIMTOFL
 70
     0
  9
$DIMTVP
 40
0.0
  9
$DIMTIX
 70
     0
  9
$DIMSOXD
 70
     0
  9
$DIMSAH
 70
     0
  9
$DIMBLK1
  1

  9
$DIMBLK2
  1

  9
$DIMSTYLE
  2
STANDARD
  9
$DIMCLRD
 70
     0
  9
$DIMCLRE
 70
     0
  9
$DIMCLRT
 70
     0
  9
$DIMTFAC
 40
1.0
  9
$DIMGAP
 40
0.09
  9
$DIMJUST
 70
     0
  9
$DIMSD1
 70
     0
  9
$DIMSD2
 70
     0
  9
$DIMTOLJ
 70
     1
  9
$DIMTZIN
 70
     0
  9
$DIMALTZ
 70
     0
  9
$DIMALTTZ
 70
     0
  9
$DIMUPT
 70
     0
  9
$DIMDEC
 70
     5
  9
$DIMTDEC
 70
     5
  9
$DIMALTU
 70
     2
  9
$DIMALTTD
 70
     2
  9
$DIMTXSTY
  7
STANDARD
  9
$DIMAUNIT
 70
     0
  9
$DIMADEC
 70
     3
  9
$DIMALTRND
 40
0.0
  9
$DIMAZIN
 70
     0
  9
$DIMDSEP
 70
    46
  9
$DIMATFIT
 70
     3
  9
$DIMFRAC
 70
     2
  9
$DIMLDRBLK
  1

  9
$DIMLUNIT
 70
     5
  9
$DIMLWD
 70
    -2
  9
$DIMLWE
 70
    -2
  9
$DIMTMOVE
 70
     2
  9
$LUNITS
 70
     2
  9
$LUPREC
 70
     4
  9
$SKETCHINC
 40
0.1
  9
$FILLETRAD
 40
0.0
  9
$AUNITS
 70
     0
  9
$AUPREC
 70
     0
  9
$MENU
  1
ACAD
  9
$ELEVATION
 40
0.0
  9
$PELEVATION
 40
0.0
  9
$THICKNESS
 40
0.0
  9
$LIMCHECK
 70
     0
  9
$CHAMFERA
 40
0.0
  9
$CHAMFERB
 40
0.0
  9
$CHAMFERC
 40
0.0
  9
$CHAMFERD
 40
0.0
  9
$SKPOLY
 70
     0
  9
$TDCREATE
 40
2448910.885606945
  9
$TDUCREATE
 40
2448911.218940278
  9
$TDUPDATE
 40
2454175.699766111
  9
$TDUUPDATE
 40
2454176.033099445
  9
$TDINDWG
 40
0.2465055093
  9
$TDUSRTIMER
 40
0.2465055093
  9
$USRTIMER
 70
     1
  9
$ANGBASE
 50
0.0
  9
$ANGDIR
 70
     0
  9
$PDMODE
 70
     0
  9
$PDSIZE
 40
0.0
  9
$PLINEWID
 40
0.0
  9
$SPLFRAME
 70
     0
  9
$SPLINETYPE
 70
     6
  9
$SPLINESEGS
 70
     8
  9
$HANDSEED
  5
640
  9
$SURFTAB1
 70
     6
  9
$SURFTAB2
 70
     6
  9
$SURFTYPE
 70
     6
  9
$SURFU
 70
     6
  9
$SURFV
 70
     6
  9
$UCSBASE
  2

  9
$UCSNAME
  2

  9
$UCSORG
 10
0.0
 20
0.0
 30
0.0
  9
$UCSXDIR
 10
1.0
 20
0.0
 30
0.0
  9
$UCSYDIR
 10
0.0
 20
1.0
 30
0.0
  9
$UCSORTHOREF
  2

  9
$UCSORTHOVIEW
 70
     0
  9
$UCSORGTOP
 10
0.0
 20
0.0
 30
0.0
  9
$UCSORGBOTTOM
 10
0.0
 20
0.0
 30
0.0
  9
$UCSORGLEFT
 10
0.0
 20
0.0
 30
0.0
  9
$UCSORGRIGHT
 10
0.0
 20
0.0
 30
0.0
  9
$UCSORGFRONT
 10
0.0
 20
0.0
 30
0.0
  9
$UCSORGBACK
 10
0.0
 20
0.0
 30
0.0
  9
$PUCSBASE
  2

  9
$PUCSNAME
  2

  9
$PUCSORG
 10
0.0
 20
0.0
 30
0.0
  9
$PUCSXDIR
 10
1.0
 20
0.0
 30
0.0
  9
$PUCSYDIR
 10
0.0
 20
1.0
 30
0.0
  9
$PUCSORTHOREF
  2

  9
$PUCSORTHOVIEW
 70
     0
  9
$PUCSORGTOP
 10
0.0
 20
0.0
 30
0.0
  9
$PUCSORGBOTTOM
 10
0.0
 20
0.0
 30
0.0
  9
$PUCSORGLEFT
 10
0.0
 20
0.0
 30
0.0
  9
$PUCSORGRIGHT
 10
0.0
 20
0.0
 30
0.0
  9
$PUCSORGFRONT
 10
0.0
 20
0.0
 30
0.0
  9
$PUCSORGBACK
 10
0.0
 20
0.0
 30
0.0
  9
$USERI1
 70
     0
  9
$USERI2
 70
     0
  9
$USERI3
 70
     0
  9
$USERI4
 70
     0
  9
$USERI5
 70
     0
  9
$USERR1
 40
0.0
  9
$USERR2
 40
0.0
  9
$USERR3
 40
0.0
  9
$USERR4
 40
0.0
  9
$USERR5
 40
0.0
  9
$WORLDVIEW
 70
     1
  9
$SHADEDGE
 70
     3
  9
$SHADEDIF
 70
    70
  9
$TILEMODE
 70
     1
  9
$MAXACTVP
 70
    16
  9
$PINSBASE
 10
0.0
 20
0.0
 30
0.0
  9
$PLIMCHECK
 70
     0
  9
$PEXTMIN
 10
1.000000000000000E+20
 20
1.000000000000000E+20
 30
1.000000000000000E+20
  9
$PEXTMAX
 10
-1.000000000000000E+20
 20
-1.000000000000000E+20
 30
-1.000000000000000E+20
  9
$PLIMMIN
 10
0.0
 20
0.0
  9
$PLIMMAX
 10
12.0
 20
9.0
  9
$UNITMODE
 70
     0
  9
$VISRETAIN
 70
     0
  9
$PLINEGEN
 70
     0
  9
$PSLTSCALE
 70
     0
  9
$TREEDEPTH
 70
  3020
  9
$CMLSTYLE
  2
STANDARD
  9
$CMLJUST
 70
     0
  9
$CMLSCALE
 40
1.0
  9
$PROXYGRAPHICS
 70
     1
  9
$MEASUREMENT
 70
     0
  9
$CELWEIGHT
370
    -1
  9
$ENDCAPS
280
     0
  9
$JOINSTYLE
280
     0
  9
$LWDISPLAY
290
     0
  9
$INSUNITS
 70
     0
  9
$HYPERLINKBASE
  1

  9
$STYLESHEET
  1

  9
$XEDIT
290
     1
  9
$CEPSNTYPE
380
     0
  9
$PSTYLEMODE
290
     1
  9
$FINGERPRINTGUID
  2
{26C2C90B-331F-11D5-BE3F-00508B5FCD51}
  9
$VERSIONGUID
  2
{B971E1D5-DF23-4FFC-B4F1-A47B427DF48C}
  9
$EXTNAMES
290
     1
  9
$PSVPSCALE
 40
0.0
  9
$OLESTARTUP
290
     0
  0
ENDSEC
  0
SECTION
  2
CLASSES
  0
CLASS
  1
DICTIONARYVAR
  2
AcDbDictionaryVar
  3
AutoCAD 2000
 90
        0
280
     0
281
     0
  0
CLASS
  1
LWPOLYLINE
  2
AcDbPolyline
  3
AutoCAD 2000
 90
        0
280
     0
281
     1
  0
CLASS
  1
ACDBDICTIONARYWDFLT
  2
AcDbDictionaryWithDefault
  3
AutoCAD 2000
 90
        0
280
     0
281
     0
  0
CLASS
  1
ACDBPLACEHOLDER
  2
AcDbPlaceHolder
  3
ObjectDBX Classes
 90
        0
280
     0
281
     0
  0
CLASS
  1
LAYOUT
  2
AcDbLayout
  3
ObjectDBX Classes
 90
        0
280
     0
281
     0
  0
CLASS
  1
LONG_TRANSACTION
  2
AcDbLongTransaction
  3
ObjectDBX Classes
 90
   -65536
280
     1
281
     0
  0
CLASS
  1
LWPOLYLINE
  2
AcDbPolyline
  3
AutoCAD 2000
 90
        0
280
     0
281
     1
  0
CLASS
  1
HATCH
  2
AcDbHatch
  3
AutoCAD 2000
 90
        0
280
     0
281
     1
  0
CLASS
  1
XRECORD
  2
AcDbXrecord
  3
AutoCAD 2000
 90
        0
280
     0
281
     0
  0
CLASS
  1
LONG_TRANSACTION
  2
AcDbLongTransaction
  3
ObjectDBX Classes
 90
   -65536
280
     1
281
     0
  0
CLASS
  1
LWPOLYLINE
  2
AcDbPolyline
  3
AutoCAD 2000
 90
        0
280
     0
281
     1
  0
CLASS
  1
HATCH
  2
AcDbHatch
  3
AutoCAD 2000
 90
        0
280
     0
281
     1
  0
CLASS
  1
XRECORD
  2
AcDbXrecord
  3
AutoCAD 2000
 90
        0
280
     0
281
     0
  0
CLASS
  1
LONG_TRANSACTION
  2
AcDbLongTransaction
  3
ObjectDBX Classes
 90
   -65536
280
     1
281
     0
  0
CLASS
  1
LWPOLYLINE
  2
AcDbPolyline
  3
AutoCAD 2000
 90
        0
280
     0
281
     1
  0
CLASS
  1
HATCH
  2
AcDbHatch
  3
AutoCAD 2000
 90
        0
280
     0
281
     1
  0
CLASS
  1
XRECORD
  2
AcDbXrecord
  3
AutoCAD 2000
 90
        0
280
     0
281
     0
  0
CLASS
  1
LONG_TRANSACTION
  2
AcDbLongTransaction
  3
ObjectDBX Classes
 90
   -65536
280
     1
281
     0
  0
CLASS
  1
LWPOLYLINE
  2
AcDbPolyline
  3
AutoCAD 2000
 90
        0
280
     0
281
     1
  0
CLASS
  1
HATCH
  2
AcDbHatch
  3
AutoCAD 2000
 90
        0
280
     0
281
     1
  0
CLASS
  1
XRECORD
  2
AcDbXrecord
  3
AutoCAD 2000
 90
        0
280
     0
281
     0
  0
CLASS
  1
LONG_TRANSACTION
  2
AcDbLongTransaction
  3
ObjectDBX Classes
 90
   -65536
280
     1
281
     0
  0
CLASS
  1
LWPOLYLINE
  2
AcDbPolyline
  3
AutoCAD 2000
 90
        0
280
     0
281
     1
  0
CLASS
  1
HATCH
  2
AcDbHatch
  3
AutoCAD 2000
 90
        0
280
     0
281
     1
  0
CLASS
  1
XRECORD
  2
AcDbXrecord
  3
AutoCAD 2000
 90
        0
280
     0
281
     0
  0
CLASS
  1
LONG_TRANSACTION
  2
AcDbLongTransaction
  3
ObjectDBX Classes
 90
   -65536
280
     1
281
     0
  0
CLASS
  1
LWPOLYLINE
  2
AcDbPolyline
  3
AutoCAD 2000
 90
        0
280
     0
281
     1
  0
CLASS
  1
HATCH
  2
AcDbHatch
  3
AutoCAD 2000
 90
        0
280
     0
281
     1
  0
CLASS
  1
XRECORD
  2
AcDbXrecord
  3
AutoCAD 2000
 90
        0
280
     0
281
     0
  0
CLASS
  1
LONG_TRANSACTION
  2
AcDbLongTransaction
  3
ObjectDBX Classes
 90
   -65536
280
     1
281
     0
  0
CLASS
  1
LWPOLYLINE
  2
AcDbPolyline
  3
AutoCAD 2000
 90
        0
280
     0
281
     1
  0
CLASS
  1
HATCH
  2
AcDbHatch
  3
AutoCAD 2000
 90
        0
280
     0
281
     1
  0
CLASS
  1
XRECORD
  2
AcDbXrecord
  3
AutoCAD 2000
 90
        0
280
     0
281
     0
  0
CLASS
  1
LONG_TRANSACTION
  2
AcDbLongTransaction
  3
ObjectDBX Classes
 90
   -65536
280
     1
281
     0
  0
CLASS
  1
LWPOLYLINE
  2
AcDbPolyline
  3
AutoCAD 2000
 90
        0
280
     0
281
     1
  0
CLASS
  1
HATCH
  2
AcDbHatch
  3
AutoCAD 2000
 90
        0
280
     0
281
     1
  0
CLASS
  1
XRECORD
  2
AcDbXrecord
  3
AutoCAD 2000
 90
        0
280
     0
281
     0
  0
CLASS
  1
LONG_TRANSACTION
  2
AcDbLongTransaction
  3
ObjectDBX Classes
 90
   -65536
280
     1
281
     0
  0
CLASS
  1
LWPOLYLINE
  2
AcDbPolyline
  3
AutoCAD 2000
 90
        0
280
     0
281
     1
  0
CLASS
  1
HATCH
  2
AcDbHatch
  3
AutoCAD 2000
 90
        0
280
     0
281
     1
  0
CLASS
  1
XRECORD
  2
AcDbXrecord
  3
AutoCAD 2000
 90
        0
280
     0
281
     0
  0
CLASS
  1
LONG_TRANSACTION
  2
AcDbLongTransaction
  3
ObjectDBX Classes
 90
   -65536
280
     1
281
     0
  0
CLASS
  1
LWPOLYLINE
  2
AcDbPolyline
  3
AutoCAD 2000
 90
        0
280
     0
281
     1
  0
CLASS
  1
HATCH
  2
AcDbHatch
  3
AutoCAD 2000
 90
        0
280
     0
281
     1
  0
CLASS
  1
XRECORD
  2
AcDbXrecord
  3
AutoCAD 2000
 90
        0
280
     0
281
     0
  0
CLASS
  1
LONG_TRANSACTION
  2
AcDbLongTransaction
  3
ObjectDBX Classes
 90
   -65536
280
     1
281
     0
  0
CLASS
  1
LWPOLYLINE
  2
AcDbPolyline
  3
AutoCAD 2000
 90
        0
280
     0
281
     1
  0
CLASS
  1
HATCH
  2
AcDbHatch
  3
AutoCAD 2000
 90
        0
280
     0
281
     1
  0
CLASS
  1
XRECORD
  2
AcDbXrecord
  3
AutoCAD 2000
 90
        0
280
     0
281
     0
  0
CLASS
  1
TABLESTYLE
  2
AcDbTableStyle
  3
ObjectDBX Classes
 90
     2047
280
     1
281
     0
  0
ENDSEC
  0
SECTION
  2
TABLES
  0
TABLE
  2
VPORT
  5
1D
330
0
100
AcDbSymbolTable
 70
     3
  0
VPORT
  5
632
330
1D
100
AcDbSymbolTableRecord
100
AcDbViewportTableRecord
  2
*Active
 70
     0
 10
0.0
 20
0.0
 11
1.0
 21
1.0
 12
4.123406659700162
 22
6.619627820495374
 13
0.0
 23
0.0
 14
0.0625
 24
0.0625
 15
0.5
 25
0.5
 16
0.0
 26
0.0
 36
1.0
 17
0.0
 27
0.0
 37
0.0
 40
18.24044387599351
 41
1.814583333333333
 42
50.0
 43
0.0
 44
0.0
 50
0.0
 51
0.0
 71
     0
 72
   100
 73
     1
 74
     0
 75
     0
 76
     0
 77
     0
 78
     1
281
     0
 65
     1
110
0.0
120
0.0
130
0.0
111
1.0
121
0.0
131
0.0
112
0.0
122
1.0
132
0.0
 79
     0
146
0.0
  0
ENDTAB
  0
TABLE
  2
LTYPE
  5
18
330
0
100
AcDbSymbolTable
 70
     2
  0
LTYPE
  5
19
330
18
100
AcDbSymbolTableRecord
100
AcDbLinetypeTableRecord
  2
BYBLOCK
 70
     0
  3

 72
    65
 73
     0
 40
0.0
  0
LTYPE
  5
1A
330
18
100
AcDbSymbolTableRecord
100
AcDbLinetypeTableRecord
  2
BYLAYER
 70
     0
  3

 72
    65
 73
     0
 40
0.0
  0
LTYPE
  5
A
330
18
100
AcDbSymbolTableRecord
100
AcDbLinetypeTableRecord
  2
CONTINUOUS
 70
     0
  3
Solid line
 72
    65
 73
     0
 40
0.0
  0
LTYPE
  5
29A
330
18
100
AcDbSymbolTableRecord
100
AcDbLinetypeTableRecord
  2
HIDDEN
 70
     0
  3
_ _ _ _ _ _ _ _ _ _ _ _ _ _ _ _ _ _ _ _ _ _ _
 72
    65
 73
     2
 40
0.375
 49
0.25
 74
     0
 49
-0.125
 74
     0
  0
ENDTAB
  0
TABLE
  2
LAYER
  5
14
330
0
100
AcDbSymbolTable
 70
     1
  0
LAYER
  5
6
330
14
100
AcDbSymbolTableRecord
100
AcDbLayerTableRecord
  2
0
 70
     0
 62
     7
  6
CONTINUOUS
370
    -3
390
7
  0
ENDTAB
  0
TABLE
  2
STYLE
  5
15
330
0
100
AcDbSymbolTable
 70
     1
  0
STYLE
  5
16
330
15
100
AcDbSymbolTableRecord
100
AcDbTextStyleTableRecord
  2
STANDARD
 70
     0
 40
0.0
 41
1.0
 50
0.0
 71
     0
 42
0.27
  3
txt
  4

  0
ENDTAB
  0
TABLE
  2
VIEW
  5
1B
330
0
100
AcDbSymbolTable
 70
     0
  0
ENDTAB
  0
TABLE
  2
UCS
  5
1C
330
0
100
AcDbSymbolTable
 70
     0
  0
ENDTAB
  0
TABLE
  2
APPID
  5
1F
330
0
100
AcDbSymbolTable
 70
     1
  0
APPID
  5
20
330
1F
100
AcDbSymbolTableRecord
100
AcDbRegAppTableRecord
  2
ACAD
 70
     0
  0
ENDTAB
  0
TABLE
  2
DIMSTYLE
  5
21
330
0
100
AcDbSymbolTable
 70
     1
100
AcDbDimStyleTable
  0
DIMSTYLE
105
22
330
21
100
AcDbSymbolTableRecord
100
AcDbDimStyleTableRecord
  2
STANDARD
 70
     0
  3

  4

340
16
  0
ENDTAB
  0
TABLE
  2
BLOCK_RECORD
  5
1
330
0
100
AcDbSymbolTable
 70
     0
  0
BLOCK_RECORD
  5
2
330
1
100
AcDbSymbolTableRecord
100
AcDbBlockTableRecord
  2
*MODEL_SPACE
340
C
  0
BLOCK_RECORD
  5
E
330
1
100
AcDbSymbolTableRecord
100
AcDbBlockTableRecord
  2
*PAPER_SPACE
340
13
  0
ENDTAB
  0
ENDSEC
  0
SECTION
  2
BLOCKS
  0
BLOCK
  5
5
330
2
100
AcDbEntity
  8
0
100
AcDbBlockBegin
  2
*MODEL_SPACE
 70
     0
 10
0.0
 20
0.0
 30
0.0
  3
*MODEL_SPACE
  1

  4

  0
ENDBLK
  5
B
330
2
100
AcDbEntity
  8
0
100
AcDbBlockEnd
  0
BLOCK
  5
11
330
E
100
AcDbEntity
 67
     1
  8
0
100
AcDbBlockBegin
  2
*PAPER_SPACE
 70
     0
 10
0.0
 20
0.0
 30
0.0
  3
*PAPER_SPACE
  1

  4

  0
ENDBLK
  5
12
330
E
100
AcDbEntity
 67
     1
  8
0
100
AcDbBlockEnd
  0
ENDSEC
  0
SECTION
  2
ENTITIES
  0
LINE
  5
29
330
2
100
AcDbEntity
  8
0
100
AcDbLine
 10
-0.9179424941426078
 20
0.4301899753027385
 30
0.0
 11
-0.9179424941426149
 21
6.356316889916901
 31
0.0
  0
LINE
  5
2A
330
2
100
AcDbEntity
  8
0
100
AcDbLine
 10
-0.8554424941426149
 20
0.3409307248813462
 30
0.0
 11
-0.8554424941426149
 21
6.356316889916901
 31
0.0
  0
LINE
  5
2B
330
2
100
AcDbEntity
  8
0
100
AcDbLine
 10
0.0820575058573851
 20
4.043816889916901
 30
0.0
 11
0.0820575058573851
 21
4.668816889916901
 31
0.0
  0
ARC
  5
2C
330
2
100
AcDbEntity
  8
0
100
AcDbCircle
 10
0.2065575058573899
 20
3.674016889916903
 30
0.0
 40
0.1875
100
AcDbArc
 50
0.000000000000007
 51
90.0
  0
ARC
  5
2D
330
2
100
AcDbEntity
  8
0
100
AcDbCircle
 10
0.2065575058573899
 20
3.038616889916906
 30
0.0
 40
0.1875
100
AcDbArc
 50
289.6333588975684
 51
0.000000000000007
  0
LINE
  5
2E
330
2
100
AcDbEntity
  8
0
100
AcDbLine
 10
1.310038272738183
 20
0.1045996975063623
 30
0.0
 11
0.1206329811555165
 21
1.795742157869331
 31
0.0
  0
LINE
  5
2F
330
2
100
AcDbEntity
  8
0
100
AcDbLine
 10
1.332644267202063
 20
0.0
 30
0.0
 11
-0.6673557327979367
 21
0.0
 31
0.0
  0
LINE
  5
30
330
2
100
AcDbEntity
  8
0
100
AcDbLine
 10
0.0820575058573851
 20
1.901847893720227
 30
0.0
 11
0.0820575058573851
 21
2.668816889916901
 31
0.0
  0
ARC
  5
31
330
2
100
AcDbEntity
  8
0
100
AcDbCircle
 10
-0.8554424941426078
 20
2.106846889916898
 30
0.0
 40
0.156
100
AcDbArc
 50
270.0
 51
90.0
  0
LINE
  5
34
330
2
100
AcDbEntity
  8
0
100
AcDbLine
 10
0.1445575058573851
 20
0.6110268638024117
 30
0.0
 11
0.1445575058573851
 21
1.045026863802409
 31
0.0
  0
LINE
  5
35
330
2
100
AcDbEntity
  8
0
100
AcDbLine
 10
-0.6899617272618102
 20
0.104599697506373
 30
0.0
 11
-0.9185292554872859
 21
0.4310279573475668
 31
0.0
  0
ARC
  5
36
330
2
100
AcDbEntity
  8
0
100
AcDbCircle
 10
-0.7923557327979367
 20
0.0329026429624832
 30
0.0
 40
0.125
100
AcDbArc
 50
0.000000000000007
 51
34.99999999999994
  0
LINE
  5
37
330
2
100
AcDbEntity
  8
0
100
AcDbLine
 10
-0.6673557327979367
 20
-0.0000000000000142
 30
0.0
 11
-0.6673557327979367
 21
0.0329026429624903
 31
0.0
  0
LINE
  5
38
330
2
100
AcDbEntity
  8
0
100
AcDbLine
 10
-0.6673557327979367
 20
0.0
 30
0.0
 11
-0.6673557327979367
 21
0.0329028366059418
 31
0.0
  0
ARC
  5
46
330
2
100
AcDbEntity
  8
0
100
AcDbCircle
 10
0.7412179253646798
 20
2.081425171894107
 30
0.0
 40
0.6831840582751946
100
AcDbArc
 50
195.239442634218
 51
204.7187305669534
  0
LINE
  5
48
330
2
100
AcDbEntity
  8
0
100
AcDbLine
 10
0.1445575058573851
 20
2.932103589546824
 30
0.0
 11
0.1445575058573851
 21
3.366103589546821
 31
0.0
  0
LINE
  5
4C
330
2
100
AcDbEntity
  8
0
100
AcDbLine
 10
-0.8554424941426149
 20
2.731316889916901
 30
0.0
 11
-0.8554424941426149
 21
2.793816889916901
 31
0.0
  0
ARC
  5
52
330
2
100
AcDbEntity
  8
0
100
AcDbCircle
 10
0.2695575058573922
 20
2.668816889916901
 30
0.0
 40
0.1875
100
AcDbArc
 50
90.0
 51
180.0
  0
ARC
  5
55
330
2
100
AcDbEntity
  8
0
100
AcDbCircle
 10
0.2695575058573922
 20
4.043816889916901
 30
0.0
 40
0.1875
100
AcDbArc
 50
180.0
 51
250.3666411024103
  0
ARC
  5
5B
330
2
100
AcDbEntity
  8
0
100
AcDbCircle
 10
1.207644267202063
 20
0.0329026429624832
 30
0.0
 40
0.125
100
AcDbArc
 50
0.000000000000007
 51
34.99999999999994
  0
LINE
  5
5C
330
2
100
AcDbEntity
  8
0
100
AcDbLine
 10
1.332644267202063
 20
0.0
 30
0.0
 11
1.332644267202063
 21
0.0329026429624903
 31
0.0
  0
LINE
  5
5D
330
2
100
AcDbEntity
  8
0
100
AcDbLine
 10
0.3940575058573899
 20
3.674016889916903
 30
0.0
 11
0.3940575058573899
 21
3.038616889916906
 31
0.0
  0
ARC
  5
5E
330
2
100
AcDbEntity
  8
0
100
AcDbCircle
 10
0.2065575058573899
 20
5.038616889916906
 30
0.0
 40
0.1875
100
AcDbArc
 50
289.6333588975684
 51
0.000000000000007
  0
ARC
  5
5F
330
2
100
AcDbEntity
  8
0
100
AcDbCircle
 10
0.2065575058573899
 20
5.674016889916903
 30
0.0
 40
0.1875
100
AcDbArc
 50
0.000000000000007
 51
90.0
  0
LINE
  5
60
330
2
100
AcDbEntity
  8
0
100
AcDbLine
 10
-0.5429424941426149
 20
5.462933167552908
 30
0.0
 11
-0.8554424941426149
 21
5.275433167552908
 31
0.0
  0
LINE
  5
61
330
2
100
AcDbEntity
  8
0
100
AcDbLine
 10
-0.8554424941426149
 20
5.337933167552908
 30
0.0
 11
-0.6340324941426161
 21
5.467323167552909
 31
0.0
  0
LINE
  5
62
330
2
100
AcDbEntity
  8
0
100
AcDbLine
 10
-0.8554424941426149
 20
5.712933167552908
 30
0.0
 11
-0.5429424941426149
 21
5.462933167552908
 31
0.0
  0
LINE
  5
63
330
2
100
AcDbEntity
  8
0
100
AcDbLine
 10
-0.6340324941426161
 20
5.467323167552909
 30
0.0
 11
-0.8554424941426149
 21
5.650433167552908
 31
0.0
  0
ARC
  5
64
330
2
100
AcDbEntity
  8
0
100
AcDbCircle
 10
0.2695575058573922
 20
4.668816889916901
 30
0.0
 40
0.1875
100
AcDbArc
 50
90.0
 51
180.0
  0
LINE
  5
65
330
2
100
AcDbEntity
  8
0
100
AcDbLine
 10
0.0820575058573851
 20
6.356316889916901
 30
0.0
 11
-0.9179424941426149
 21
6.356316889916901
 31
0.0
  0
LINE
  5
66
330
2
100
AcDbEntity
  8
0
100
AcDbLine
 10
0.0820575058573851
 20
6.043816889916901
 30
0.0
 11
0.0820575058573851
 21
6.356316889916901
 31
0.0
  0
ARC
  5
67
330
2
100
AcDbEntity
  8
0
100
AcDbCircle
 10
0.2695575058573922
 20
6.043816889916901
 30
0.0
 40
0.1875
100
AcDbArc
 50
180.0
 51
250.3666411024103
  0
LINE
  5
68
330
2
100
AcDbEntity
  8
0
100
AcDbLine
 10
0.3940575058573899
 20
5.038616678131607
 30
0.0
 11
0.3940575058573899
 21
5.674016889916903
 31
0.0
  0
ARC
  5
13B
330
2
100
AcDbEntity
  8
0
100
AcDbCircle
 10
0.1445575058573745
 20
0.7304523901815969
 30
0.0
 40
0.0734255263791788
100
AcDbArc
 50
237.3920789848133
 51
270.0000000000083
  0
ARC
  5
13C
330
2
100
AcDbEntity
  8
0
100
AcDbCircle
 10
0.1744281008248922
 20
0.777145514486044
 30
0.0
 40
0.1288556653021872
100
AcDbArc
 50
212.9226719024485
 51
237.392078984804
  0
ARC
  5
13D
330
2
100
AcDbEntity
  8
0
100
AcDbCircle
 10
0.2218914911198446
 20
0.8078776070292193
 30
0.0
 40
0.185399762521732
100
AcDbArc
 50
195.0133710020058
 51
212.9226719024582
  0
ARC
  5
13E
330
2
100
AcDbEntity
  8
0
100
AcDbCircle
 10
0.2970194069368581
 20
0.8280268638023962
 30
0.0
 40
0.2631827702002704
100
AcDbArc
 50
179.9999999999969
 51
195.0133710019941
  0
ARC
  5
13F
330
2
100
AcDbEntity
  8
0
100
AcDbCircle
 10
0.297019406936851
 20
0.8280268638024282
 30
0.0
 40
0.263182770200264
100
AcDbArc
 50
164.9866289980064
 51
180.0000000000039
  0
ARC
  5
140
330
2
100
AcDbEntity
  8
0
100
AcDbCircle
 10
0.2218914911198393
 20
0.8481761205756051
 30
0.0
 40
0.1853997625217251
100
AcDbArc
 50
147.0773280975416
 51
164.9866289979947
  0
ARC
  5
141
330
2
100
AcDbEntity
  8
0
100
AcDbCircle
 10
0.174428100824894
 20
0.8789082131187769
 30
0.0
 40
0.1288556653021893
100
AcDbArc
 50
122.607921015197
 51
147.0773280975521
  0
ARC
  5
142
330
2
100
AcDbEntity
  8
0
100
AcDbCircle
 10
0.1445575058573994
 20
0.925601337423231
 30
0.0
 40
0.0734255263791859
100
AcDbArc
 50
90.00000000001107
 51
122.6079210152061
  0
ARC
  5
143
330
2
100
AcDbEntity
  8
0
100
AcDbCircle
 10
0.1445575058573851
 20
0.7533064726229348
 30
0.0
 40
0.0502796088205244
100
AcDbArc
 50
236.4891770443282
 51
269.999999999999
  0
ARC
  5
144
330
2
100
AcDbEntity
  8
0
100
AcDbCircle
 10
0.1682045938005867
 20
0.7890186665282428
 30
0.0
 40
0.0931112041880074
100
AcDbArc
 50
212.0281066666093
 51
236.4891770443309
  0
ARC
  5
145
330
2
100
AcDbEntity
  8
0
100
AcDbCircle
 10
0.2058570259946002
 20
0.8125722078957267
 30
0.0
 40
0.1375237582811297
100
AcDbArc
 50
194.5265478167985
 51
212.0281066666091
  0
ARC
  5
146
330
2
100
AcDbEntity
  8
0
100
AcDbCircle
 10
0.265501724310095
 20
0.828026863802414
 30
0.0
 40
0.1991381756389249
100
AcDbArc
 50
180.000000000001
 51
194.5265478167982
  0
ARC
  5
147
330
2
100
AcDbEntity
  8
0
100
AcDbCircle
 10
0.265501724310095
 20
0.8280268638024069
 30
0.0
 40
0.1991381756389261
100
AcDbArc
 50
165.4734521832019
 51
179.999999999999
  0
ARC
  5
148
330
2
100
AcDbEntity
  8
0
100
AcDbCircle
 10
0.2058570259945896
 20
0.8434815197091012
 30
0.0
 40
0.1375237582811191
100
AcDbArc
 50
147.9718933333914
 51
165.4734521832035
  0
ARC
  5
149
330
2
100
AcDbEntity
  8
0
100
AcDbCircle
 10
0.1682045938005867
 20
0.867035061076578
 30
0.0
 40
0.0931112041880077
100
AcDbArc
 50
123.5108229556691
 51
147.9718933333907
  0
ARC
  5
14A
330
2
100
AcDbEntity
  8
0
100
AcDbCircle
 10
0.1445575058573851
 20
0.9027472549818825
 30
0.0
 40
0.0502796088205275
100
AcDbArc
 50
90.00000000000101
 51
123.5108229556696
  0
ARC
  5
14B
330
2
100
AcDbEntity
  8
0
100
AcDbCircle
 10
0.1445575058573123
 20
1.072714077316036
 30
0.0
 40
0.4156872135136176
100
AcDbArc
 50
263.391298322924
 51
270.00000000001
  0
ARC
  5
14C
330
2
100
AcDbEntity
  8
0
100
AcDbCircle
 10
0.1445575058573851
 20
1.060435962213642
 30
0.0
 40
0.4494090984112305
100
AcDbArc
 50
255.6955204934708
 51
270.0
  0
ARC
  5
14D
330
2
100
AcDbEntity
  8
0
100
AcDbCircle
 10
0.1125719619537193
 20
0.9521089582045192
 30
0.0
 40
0.2909127378596742
100
AcDbArc
 50
240.7267474111849
 51
254.2322733469937
  0
ARC
  5
14E
330
2
100
AcDbEntity
  8
0
100
AcDbCircle
 10
0.1117073347412063
 20
0.9461075732927284
 30
0.0
 40
0.3304548456263149
100
AcDbArc
 50
235.2517244545765
 51
244.668920742142
  0
ARC
  5
14F
330
2
100
AcDbEntity
  8
0
100
AcDbCircle
 10
0.0615171280437252
 20
0.8737540396392518
 30
0.0
 40
0.2423975308791539
100
AcDbArc
 50
230.4363921703664
 51
235.2517244545537
  0
ARC
  5
150
330
2
100
AcDbEntity
  8
0
100
AcDbCircle
 10
0.1445575058574704
 20
1.141768368314828
 30
0.0
 40
0.4387415045124276
100
AcDbArc
 50
257.5515265765664
 51
263.7399893497397
  0
ARC
  5
151
330
2
100
AcDbEntity
  8
0
100
AcDbCircle
 10
0.1102902288435814
 20
0.9865381593096956
 30
0.0
 40
0.2797740107858051
100
AcDbArc
 50
254.0736567670578
 51
257.5515265766115
  0
ARC
  5
152
330
2
100
AcDbEntity
  8
0
100
AcDbCircle
 10
0.1445575058574384
 20
0.5833396502887602
 30
0.0
 40
0.4156872135136567
100
AcDbArc
 50
90.00000000000722
 51
96.60870167709278
  0
ARC
  5
153
330
2
100
AcDbEntity
  8
0
100
AcDbCircle
 10
0.144557505857442
 20
0.5956177653911894
 30
0.0
 40
0.449409098411234
100
AcDbArc
 50
90.00000000000713
 51
104.3044795065365
  0
ARC
  5
154
330
2
100
AcDbEntity
  8
0
100
AcDbCircle
 10
0.061517128043743
 20
0.7822996879656294
 30
0.0
 40
0.242397530879118
100
AcDbArc
 50
124.7482755454591
 51
129.5636078296458
  0
ARC
  5
155
330
2
100
AcDbEntity
  8
0
100
AcDbCircle
 10
0.1117073347412863
 20
0.709946154312064
 30
0.0
 40
0.3304548456263872
100
AcDbArc
 50
115.3310792578672
 51
124.748275545433
  0
ARC
  5
156
330
2
100
AcDbEntity
  8
0
100
AcDbCircle
 10
0.1125719619537797
 20
0.7039447694003123
 30
0.0
 40
0.2909127378596938
100
AcDbArc
 50
105.7677266530175
 51
119.2732525888264
  0
ARC
  5
157
330
2
100
AcDbEntity
  8
0
100
AcDbCircle
 10
0.1102902288438159
 20
0.6695155682951324
 30
0.0
 40
0.2797740107858623
100
AcDbArc
 50
102.4484734234349
 51
105.9263432329886
  0
ARC
  5
158
330
2
100
AcDbEntity
  8
0
100
AcDbCircle
 10
0.144557505857339
 20
0.5142853592899996
 30
0.0
 40
0.4387415045124061
100
AcDbArc
 50
96.26001065024319
 51
102.4484734234165
  0
ARC
  5
159
330
2
100
AcDbEntity
  8
0
100
AcDbCircle
 10
0.0582212183395256
 20
0.8888368719741884
 30
0.0
 40
0.1690639236126234
100
AcDbArc
 50
217.8551494250168
 51
238.6736376575062
  0
ARC
  5
15A
330
2
100
AcDbEntity
  8
0
100
AcDbCircle
 10
-0.0200189516951887
 20
0.828026863802414
 30
0.0
 40
0.0699711322455799
100
AcDbArc
 50
180.0000000000029
 51
217.8551494250187
  0
ARC
  5
15B
330
2
100
AcDbEntity
  8
0
100
AcDbCircle
 10
-0.0200189516951887
 20
0.8280268638024069
 30
0.0
 40
0.0699711322455805
100
AcDbArc
 50
142.1448505749818
 51
179.9999999999971
  0
ARC
  5
15C
330
2
100
AcDbEntity
  8
0
100
AcDbCircle
 10
0.0582212183395256
 20
0.7672168556306289
 30
0.0
 40
0.1690639236126271
100
AcDbArc
 50
121.3263623424937
 51
142.1448505749826
  0
ARC
  5
15D
330
2
100
AcDbEntity
  8
0
100
AcDbCircle
 10
-0.0150618035481216
 20
0.8280268638024388
 30
0.0
 40
0.1532050010699973
100
AcDbArc
 50
180.0000000000106
 51
203.0157918004584
  0
ARC
  5
15E
330
2
100
AcDbEntity
  8
0
100
AcDbCircle
 10
-0.0150618035481216
 20
0.828026863802382
 30
0.0
 40
0.1532050010699999
100
AcDbArc
 50
156.984208199542
 51
179.9999999999894
  0
ARC
  5
15F
330
2
100
AcDbEntity
  8
0
100
AcDbCircle
 10
0.0637994814729517
 20
0.8759341867269228
 30
0.0
 40
0.2004619188367848
100
AcDbArc
 50
212.9002408406008
 51
218.5960597889868
  0
ARC
  5
160
330
2
100
AcDbEntity
  8
0
100
AcDbCircle
 10
-0.0102532823306163
 20
0.8280268638024282
 30
0.0
 40
0.1122637135447343
100
AcDbArc
 50
180.0000000000091
 51
212.9002408406086
  0
ARC
  5
161
330
2
100
AcDbEntity
  8
0
100
AcDbCircle
 10
-0.0102532823306163
 20
0.8280268638023927
 30
0.0
 40
0.1122637135447349
100
AcDbArc
 50
147.0997591593914
 51
179.9999999999909
  0
ARC
  5
162
330
2
100
AcDbEntity
  8
0
100
AcDbCircle
 10
0.0637994814729694
 20
0.7801195408778838
 30
0.0
 40
0.2004619188368083
100
AcDbArc
 50
141.4039402110134
 51
147.0997591593987
  0
ARC
  5
163
330
2
100
AcDbEntity
  8
0
100
AcDbCircle
 10
0.1445575058573851
 20
3.074383198367347
 30
0.0
 40
0.0502796088205244
100
AcDbArc
 50
236.4891770443282
 51
269.999999999999
  0
ARC
  5
164
330
2
100
AcDbEntity
  8
0
100
AcDbCircle
 10
0.1682045938005867
 20
3.110095392272655
 30
0.0
 40
0.0931112041880074
100
AcDbArc
 50
212.0281066666093
 51
236.4891770443309
  0
ARC
  5
165
330
2
100
AcDbEntity
  8
0
100
AcDbCircle
 10
0.2058570259946002
 20
3.133648933640139
 30
0.0
 40
0.1375237582811297
100
AcDbArc
 50
194.5265478167985
 51
212.0281066666091
  0
ARC
  5
166
330
2
100
AcDbEntity
  8
0
100
AcDbCircle
 10
0.265501724310095
 20
3.149103589546826
 30
0.0
 40
0.1991381756389249
100
AcDbArc
 50
180.000000000001
 51
194.5265478167982
  0
ARC
  5
167
330
2
100
AcDbEntity
  8
0
100
AcDbCircle
 10
0.265501724310095
 20
3.149103589546819
 30
0.0
 40
0.1991381756389261
100
AcDbArc
 50
165.4734521832019
 51
179.999999999999
  0
ARC
  5
168
330
2
100
AcDbEntity
  8
0
100
AcDbCircle
 10
0.2058570259945896
 20
3.164558245453513
 30
0.0
 40
0.1375237582811191
100
AcDbArc
 50
147.9718933333914
 51
165.4734521832035
  0
ARC
  5
169
330
2
100
AcDbEntity
  8
0
100
AcDbCircle
 10
0.1682045938005867
 20
3.18811178682099
 30
0.0
 40
0.0931112041880077
100
AcDbArc
 50
123.5108229556691
 51
147.9718933333907
  0
ARC
  5
16A
330
2
100
AcDbEntity
  8
0
100
AcDbCircle
 10
0.1445575058573851
 20
3.223823980726294
 30
0.0
 40
0.0502796088205275
100
AcDbArc
 50
90.00000000000101
 51
123.5108229556696
  0
ARC
  5
16B
330
2
100
AcDbEntity
  8
0
100
AcDbCircle
 10
0.1445575058573745
 20
3.051529115926009
 30
0.0
 40
0.0734255263791788
100
AcDbArc
 50
237.3920789848133
 51
270.0000000000083
  0
ARC
  5
16C
330
2
100
AcDbEntity
  8
0
100
AcDbCircle
 10
0.1744281008248922
 20
3.098222240230456
 30
0.0
 40
0.1288556653021872
100
AcDbArc
 50
212.9226719024485
 51
237.392078984804
  0
ARC
  5
16D
330
2
100
AcDbEntity
  8
0
100
AcDbCircle
 10
0.2218914911198446
 20
3.128954332773631
 30
0.0
 40
0.185399762521732
100
AcDbArc
 50
195.0133710020058
 51
212.9226719024582
  0
ARC
  5
16E
330
2
100
AcDbEntity
  8
0
100
AcDbCircle
 10
0.2970194069368581
 20
3.149103589546808
 30
0.0
 40
0.2631827702002704
100
AcDbArc
 50
179.9999999999969
 51
195.0133710019941
  0
ARC
  5
16F
330
2
100
AcDbEntity
  8
0
100
AcDbCircle
 10
0.297019406936851
 20
3.14910358954684
 30
0.0
 40
0.263182770200264
100
AcDbArc
 50
164.9866289980064
 51
180.0000000000039
  0
ARC
  5
170
330
2
100
AcDbEntity
  8
0
100
AcDbCircle
 10
0.2218914911198393
 20
3.169252846320017
 30
0.0
 40
0.1853997625217251
100
AcDbArc
 50
147.0773280975416
 51
164.9866289979947
  0
ARC
  5
171
330
2
100
AcDbEntity
  8
0
100
AcDbCircle
 10
0.174428100824894
 20
3.199984938863189
 30
0.0
 40
0.1288556653021893
100
AcDbArc
 50
122.607921015197
 51
147.0773280975521
  0
ARC
  5
172
330
2
100
AcDbEntity
  8
0
100
AcDbCircle
 10
0.1445575058573994
 20
3.246678063167643
 30
0.0
 40
0.0734255263791859
100
AcDbArc
 50
90.00000000001107
 51
122.6079210152061
  0
ARC
  5
173
330
2
100
AcDbEntity
  8
0
100
AcDbCircle
 10
0.0582212183395256
 20
3.2099135977186
 30
0.0
 40
0.1690639236126234
100
AcDbArc
 50
217.8551494250168
 51
238.6736376575062
  0
ARC
  5
174
330
2
100
AcDbEntity
  8
0
100
AcDbCircle
 10
-0.0200189516951887
 20
3.149103589546826
 30
0.0
 40
0.0699711322455799
100
AcDbArc
 50
180.0000000000029
 51
217.8551494250187
  0
ARC
  5
175
330
2
100
AcDbEntity
  8
0
100
AcDbCircle
 10
-0.0200189516951887
 20
3.149103589546819
 30
0.0
 40
0.0699711322455805
100
AcDbArc
 50
142.1448505749818
 51
179.9999999999971
  0
ARC
  5
176
330
2
100
AcDbEntity
  8
0
100
AcDbCircle
 10
0.0582212183395256
 20
3.088293581375041
 30
0.0
 40
0.1690639236126271
100
AcDbArc
 50
121.3263623424937
 51
142.1448505749826
  0
ARC
  5
177
330
2
100
AcDbEntity
  8
0
100
AcDbCircle
 10
0.1445575058573851
 20
3.381512687958054
 30
0.0
 40
0.4494090984112305
100
AcDbArc
 50
255.6955204934708
 51
270.0
  0
ARC
  5
178
330
2
100
AcDbEntity
  8
0
100
AcDbCircle
 10
0.1445575058573123
 20
3.393790803060448
 30
0.0
 40
0.4156872135136176
100
AcDbArc
 50
263.391298322924
 51
270.00000000001
  0
ARC
  5
179
330
2
100
AcDbEntity
  8
0
100
AcDbCircle
 10
0.0637994814729517
 20
3.197010912471335
 30
0.0
 40
0.2004619188367848
100
AcDbArc
 50
212.9002408406008
 51
218.5960597889868
  0
ARC
  5
17A
330
2
100
AcDbEntity
  8
0
100
AcDbCircle
 10
-0.0102532823306163
 20
3.14910358954684
 30
0.0
 40
0.1122637135447343
100
AcDbArc
 50
180.0000000000091
 51
212.9002408406086
  0
ARC
  5
17B
330
2
100
AcDbEntity
  8
0
100
AcDbCircle
 10
-0.0102532823306163
 20
3.149103589546805
 30
0.0
 40
0.1122637135447349
100
AcDbArc
 50
147.0997591593914
 51
179.9999999999909
  0
ARC
  5
17C
330
2
100
AcDbEntity
  8
0
100
AcDbCircle
 10
0.0637994814729694
 20
3.101196266622296
 30
0.0
 40
0.2004619188368083
100
AcDbArc
 50
141.4039402110134
 51
147.0997591593987
  0
ARC
  5
17D
330
2
100
AcDbEntity
  8
0
100
AcDbCircle
 10
-0.0150618035481216
 20
3.149103589546851
 30
0.0
 40
0.1532050010699973
100
AcDbArc
 50
180.0000000000106
 51
203.0157918004584
  0
ARC
  5
17E
330
2
100
AcDbEntity
  8
0
100
AcDbCircle
 10
-0.0150618035481216
 20
3.149103589546794
 30
0.0
 40
0.1532050010699999
100
AcDbArc
 50
156.984208199542
 51
179.9999999999894
  0
ARC
  5
17F
330
2
100
AcDbEntity
  8
0
100
AcDbCircle
 10
0.1445575058574704
 20
3.46284509405924
 30
0.0
 40
0.4387415045124276
100
AcDbArc
 50
257.5515265765664
 51
263.7399893497397
  0
ARC
  5
180
330
2
100
AcDbEntity
  8
0
100
AcDbCircle
 10
0.1102902288435814
 20
3.307614885054107
 30
0.0
 40
0.2797740107858051
100
AcDbArc
 50
254.0736567670578
 51
257.5515265766115
  0
ARC
  5
181
330
2
100
AcDbEntity
  8
0
100
AcDbCircle
 10
0.1117073347412063
 20
3.26718429903714
 30
0.0
 40
0.3304548456263149
100
AcDbArc
 50
235.2517244545765
 51
244.668920742142
  0
ARC
  5
182
330
2
100
AcDbEntity
  8
0
100
AcDbCircle
 10
0.0615171280437252
 20
3.194830765383664
 30
0.0
 40
0.2423975308791539
100
AcDbArc
 50
230.4363921703664
 51
235.2517244545537
  0
ARC
  5
183
330
2
100
AcDbEntity
  8
0
100
AcDbCircle
 10
0.1125719619537193
 20
3.273185683948931
 30
0.0
 40
0.2909127378596742
100
AcDbArc
 50
240.7267474111849
 51
254.2322733469937
  0
ARC
  5
184
330
2
100
AcDbEntity
  8
0
100
AcDbCircle
 10
0.144557505857442
 20
2.916694491135601
 30
0.0
 40
0.449409098411234
100
AcDbArc
 50
90.00000000000713
 51
104.3044795065365
  0
ARC
  5
185
330
2
100
AcDbEntity
  8
0
100
AcDbCircle
 10
0.1445575058574384
 20
2.904416376033172
 30
0.0
 40
0.4156872135136567
100
AcDbArc
 50
90.00000000000722
 51
96.60870167709278
  0
ARC
  5
186
330
2
100
AcDbEntity
  8
0
100
AcDbCircle
 10
0.1102902288438159
 20
2.990592294039544
 30
0.0
 40
0.2797740107858623
100
AcDbArc
 50
102.4484734234349
 51
105.9263432329886
  0
ARC
  5
187
330
2
100
AcDbEntity
  8
0
100
AcDbCircle
 10
0.144557505857339
 20
2.835362085034412
 30
0.0
 40
0.4387415045124061
100
AcDbArc
 50
96.26001065024319
 51
102.4484734234165
  0
ARC
  5
188
330
2
100
AcDbEntity
  8
0
100
AcDbCircle
 10
0.061517128043743
 20
3.103376413710041
 30
0.0
 40
0.242397530879118
100
AcDbArc
 50
124.7482755454591
 51
129.5636078296458
  0
ARC
  5
189
330
2
100
AcDbEntity
  8
0
100
AcDbCircle
 10
0.1117073347412863
 20
3.031022880056476
 30
0.0
 40
0.3304548456263872
100
AcDbArc
 50
115.3310792578672
 51
124.748275545433
  0
ARC
  5
18A
330
2
100
AcDbEntity
  8
0
100
AcDbCircle
 10
0.1125719619537797
 20
3.025021495144724
 30
0.0
 40
0.2909127378596938
100
AcDbArc
 50
105.7677266530175
 51
119.2732525888264
  0
LINE
  5
61E
330
2
100
AcDbEntity
  8
0
  6
HIDDEN
100
AcDbLine
 10
1.329089713623054
 20
0.0625
 30
0.0
 11
-0.6709102863769463
 21
0.0625
 31
0.0
  0
ENDSEC
  0
SECTION
  2
OBJECTS
  0
DICTIONARY
  5
9
330
0
100
AcDbDictionary
281
     1
  3
ACAD_COLOR
350
619
  3
ACAD_GROUP
350
24
  3
ACAD_LAYOUT
350
D
  3
ACAD_MATERIAL
350
618
  3
ACAD_MLINESTYLE
350
25
  3
ACAD_PLOTSETTINGS
350
26
  3
ACAD_PLOTSTYLENAME
350
8
  3
ACAD_TABLESTYLE
350
61A
  3
ACDBHEADERROUNDTRIPXREC
350
639
  3
AcDbVariableDictionary
350
135
  0
DICTIONARY
  5
619
102
{ACAD_REACTORS
330
9
102
}
330
9
100
AcDbDictionary
281
     1
  0
DICTIONARY
  5
24
102
{ACAD_REACTORS
330
9
102
}
330
9
100
AcDbDictionary
281
     1
  0
DICTIONARY
  5
D
102
{ACAD_REACTORS
330
9
102
}
330
9
100
AcDbDictionary
281
     1
  3
Layout1
350
13
  3
Model
350
C
  0
DICTIONARY
  5
618
102
{ACAD_REACTORS
330
9
102
}
330
9
100
AcDbDictionary
281
     1
  0
DICTIONARY
  5
25
102
{ACAD_REACTORS
330
9
102
}
330
9
100
AcDbDictionary
281
     1
  3
STANDARD
350
28
  0
DICTIONARY
  5
26
102
{ACAD_REACTORS
330
9
102
}
330
9
100
AcDbDictionary
281
     1
  0
ACDBDICTIONARYWDFLT
  5
8
102
{ACAD_REACTORS
330
9
102
}
330
9
100
AcDbDictionary
281
     1
  3
Normal
350
7
100
AcDbDictionaryWithDefault
340
7
  0
DICTIONARY
  5
61A
102
{ACAD_REACTORS
330
9
102
}
330
9
100
AcDbDictionary
281
     1
  3
Standard
350
61B
  0
DICTIONARY
  5
639
102
{ACAD_REACTORS
330
9
102
}
330
9
100
AcDbDictionary
281
     1
  3
COLORDICT
350
63A
  3
MATERIALDICT
350
63B
  0
DICTIONARY
  5
135
102
{ACAD_REACTORS
330
9
102
}
330
9
100
AcDbDictionary
281
     1
  3
CTABLESTYLE
350
627
  3
HIDETEXT
350
638
  0
LAYOUT
  5
13
102
{ACAD_REACTORS
330
D
102
}
102
{ACAD_XDICTIONARY
360
63C
102
}
330
D
100
AcDbPlotSettings
  1

  2
HP LaserJet 2100 Series PS
  4

  6

 40
0.0
 41
0.0
 42
0.0
 43
0.0
 44
0.0
 45
0.0
 46
0.0
 47
0.0
 48
0.0
 49
0.0
140
0.0
141
0.0
142
1.0
143
1.0
 70
   688
 72
     0
 73
     0
 74
     5
  7

 75
    16
147
1.0
148
0.0
149
0.0
100
AcDbLayout
  1
Layout1
 70
     0
 71
     1
 10
0.0
 20
0.0
 11
12.0
 21
9.0
 12
0.0
 22
0.0
 32
0.0
 14
1.000000000000000E+20
 24
1.000000000000000E+20
 34
1.000000000000000E+20
 15
-1.000000000000000E+20
 25
-1.000000000000000E+20
 35
-1.000000000000000E+20
146
0.0
 13
0.0
 23
0.0
 33
0.0
 16
1.0
 26
0.0
 36
0.0
 17
0.0
 27
1.0
 37
0.0
 76
     0
330
E
  0
LAYOUT
  5
C
102
{ACAD_REACTORS
330
D
102
}
102
{ACAD_XDICTIONARY
360
63E
102
}
330
D
100
AcDbPlotSettings
  1

  2
HP LaserJet 2100 Series PS
  4
Letter
  6

 40
5.365749835968018
 41
5.386905193328857
 42
5.386917114257813
 43
5.365753173828125
 44
215.8999938964844
 45
279.3999938964844
 46
0.0
 47
0.0
 48
0.0
 49
0.0
140
0.0
141
0.0
142
1.0
143
3.971005325245599
 70
 11952
 72
     0
 73
     1
 74
     2
  7

 75
     0
147
0.2518253988838839
148
0.0
149
0.0
100
AcDbLayout
  1
Model
 70
     1
 71
     0
 10
0.0
 20
0.0
 11
12.0
 21
9.0
 12
0.0
 22
0.0
 32
0.0
 14
0.0
 24
0.0
 34
0.0
 15
0.0
 25
0.0
 35
0.0
146
0.0
 13
0.0
 23
0.0
 33
0.0
 16
1.0
 26
0.0
 36
0.0
 17
0.0
 27
1.0
 37
0.0
 76
     0
330
2
  0
MLINESTYLE
  5
28
102
{ACAD_REACTORS
330
25
102
}
330
25
100
AcDbMlineStyle
  2
STANDARD
 70
     0
  3

 62
   256
 51
90.0
 52
90.0
 71
     2
 49
0.5
 62
   256
  6
BYLAYER
 49
-0.5
 62
   256
  6
BYLAYER
  0
ACDBPLACEHOLDER
  5
7
102
{ACAD_REACTORS
330
8
102
}
330
8
  0
ACAD_PROXY_OBJECT
  5
61B
102
{ACAD_REACTORS
330
61A
102
}
330
61A
100
AcDbProxyObject
 90
      499
 91
      549
 95
   983063
 70
     0
 93
     1841
310
4214DD185B99185C9928B81E85EB51B8AE3F2E07A17AD46E2B8FC02B5E8DC0F42B1CFD028000000C1008070000C3001FDFF8000000C1003FBFF000000182007F7FE00000030400FEFFC00000060801FDFF8000000C1003FBFF00000018200000000000000681FA0B0000001820100E000186003FBFF000000182007F7FE000
310
00030400FEFFC00000060801FDFF8000000C1003FBFF000000182007F7FE000000304000AD7A3703D0AC73F4160000003040201C00030C007F7FE00000030400FEFFC00000060801FDFF8000000C1003FBFF000000182007F7FE00000030400FEFFC000000608000
340
16
340
16
340
16
 94
        0
  0
XRECORD
  5
63A
102
{ACAD_REACTORS
330
639
102
}
330
639
100
AcDbXrecord
340
619
  0
XRECORD
  5
63B
102
{ACAD_REACTORS
330
639
102
}
330
639
100
AcDbXrecord
340
618
  0
DICTIONARYVAR
  5
627
102
{ACAD_REACTORS
330
135
102
}
330
135
100
DictionaryVariables
280
     0
  1
STANDARD
  0
DICTIONARYVAR
  5
638
102
{ACAD_REACTORS
330
135
102
}
330
135
100
DictionaryVariables
280
     0
  1
0
  0
DICTIONARY
  5
63C
330
13
100
AcDbDictionary
280
     1
281
     1
  3
ACAD_XREC_ROUNDTRIP
360
63D
  0
DICTIONARY
  5
63E
330
C
100
AcDbDictionary
280
     1
281
     1
  3
ACAD_XREC_ROUNDTRIP
360
63F
  0
XRECORD
  5
63D
102
{ACAD_REACTORS
330
63C
102
}
330
63C
100
AcDbXrecord
102
SHADEPLOT
 70
     0
102
SHADEPLOTRESLEVEL
 70
     2
102
SHADEPLOTCUSTOMDPI
 70
   300
  0
XRECORD
  5
63F
102
{ACAD_REACTORS
330
63E
102
}
330
63E
100
AcDbXrecord
102
SHADEPLOT
 70
     0
102
SHADEPLOTRESLEVEL
 70
     2
102
SHADEPLOTCUSTOMDPI
 70
   300
  0
ENDSEC
  0
EOF
