  0
SECTION
  2
HEADER
  9
$ACADVER
  1
AC1015
  9
$ACADMAINTVER
 70
     6
  9
$DWGCODEPAGE
  3
ANSI_1252
  9
$INSBASE
 10
0.0
 20
0.0
 30
0.0
  9
$EXTMIN
 10
-9.307102681134182
 20
-0.0258883476483184
 30
0.0
  9
$EXTMAX
 10
8.950008427497693
 20
12.52969474194937
 30
0.0
  9
$LIMMIN
 10
0.0
 20
0.0
  9
$LIMMAX
 10
42.0
 20
32.0
  9
$ORTHOMODE
 70
     1
  9
$REGENMODE
 70
     1
  9
$FILLMODE
 70
     1
  9
$QTEXTMODE
 70
     0
  9
$MIRRTEXT
 70
     1
  9
$LTSCALE
 40
0.75
  9
$ATTMODE
 70
     1
  9
$TEXTSIZE
 40
0.27
  9
$TRACEWID
 40
0.05
  9
$TEXTSTYLE
  7
STANDARD
  9
$CLAYER
  8
0
  9
$CELTYPE
  6
BYLAYER
  9
$CECOLOR
 62
   256
  9
$CELTSCALE
 40
1.0
  9
$DISPSILH
 70
     0
  9
$DIMSCALE
 40
1.0
  9
$DIMASZ
 40
0.375
  9
$DIMEXO
 40
0.0625
  9
$DIMDLI
 40
1.25
  9
$DIMRND
 40
0.0
  9
$DIMDLE
 40
0.0
  9
$DIMEXE
 40
0.18
  9
$DIMTP
 40
0.0
  9
$DIMTM
 40
0.0
  9
$DIMTXT
 40
0.27
  9
$DIMCEN
 40
-0.06
  9
$DIMTSZ
 40
0.0
  9
$DIMTOL
 70
     0
  9
$DIMLIM
 70
     0
  9
$DIMTIH
 70
     1
  9
$DIMTOH
 70
     1
  9
$DIMSE1
 70
     0
  9
$DIMSE2
 70
     0
  9
$DIMTAD
 70
     0
  9
$DIMZIN
 70
     0
  9
$DIMBLK
  1

  9
$DIMASO
 70
     0
  9
$DIMSHO
 70
     0
  9
$DIMPOST
  1

  9
$DIMAPOST
  1

  9
$DIMALT
 70
     0
  9
$DIMALTD
 70
     2
  9
$DIMALTF
 40
25.4
  9
$DIMLFAC
 40
1.0
  9
$DIMTOFL
 70
     0
  9
$DIMTVP
 40
0.0
  9
$DIMTIX
 70
     0
  9
$DIMSOXD
 70
     0
  9
$DIMSAH
 70
     0
  9
$DIMBLK1
  1

  9
$DIMBLK2
  1

  9
$DIMSTYLE
  2
STANDARD
  9
$DIMCLRD
 70
     0
  9
$DIMCLRE
 70
     0
  9
$DIMCLRT
 70
     0
  9
$DIMTFAC
 40
1.0
  9
$DIMGAP
 40
0.09
  9
$DIMJUST
 70
     0
  9
$DIMSD1
 70
     0
  9
$DIMSD2
 70
     0
  9
$DIMTOLJ
 70
     1
  9
$DIMTZIN
 70
     0
  9
$DIMALTZ
 70
     0
  9
$DIMALTTZ
 70
     0
  9
$DIMUPT
 70
     0
  9
$DIMDEC
 70
     5
  9
$DIMTDEC
 70
     5
  9
$DIMALTU
 70
     2
  9
$DIMALTTD
 70
     2
  9
$DIMTXSTY
  7
STANDARD
  9
$DIMAUNIT
 70
     0
  9
$DIMADEC
 70
     3
  9
$DIMALTRND
 40
0.0
  9
$DIMAZIN
 70
     0
  9
$DIMDSEP
 70
    46
  9
$DIMATFIT
 70
     3
  9
$DIMFRAC
 70
     2
  9
$DIMLDRBLK
  1

  9
$DIMLUNIT
 70
     5
  9
$DIMLWD
 70
    -2
  9
$DIMLWE
 70
    -2
  9
$DIMTMOVE
 70
     2
  9
$LUNITS
 70
     2
  9
$LUPREC
 70
     4
  9
$SKETCHINC
 40
0.1
  9
$FILLETRAD
 40
0.0
  9
$AUNITS
 70
     0
  9
$AUPREC
 70
     0
  9
$MENU
  1
ACAD
  9
$ELEVATION
 40
0.0
  9
$PELEVATION
 40
0.0
  9
$THICKNESS
 40
0.0
  9
$LIMCHECK
 70
     0
  9
$CHAMFERA
 40
0.0
  9
$CHAMFERB
 40
0.0
  9
$CHAMFERC
 40
0.0
  9
$CHAMFERD
 40
0.0
  9
$SKPOLY
 70
     0
  9
$TDCREATE
 40
2448910.885606945
  9
$TDUCREATE
 40
2448911.218940278
  9
$TDUPDATE
 40
2454175.700020926
  9
$TDUUPDATE
 40
2454176.033354259
  9
$TDINDWG
 40
0.2464751273
  9
$TDUSRTIMER
 40
0.2464751273
  9
$USRTIMER
 70
     1
  9
$ANGBASE
 50
0.0
  9
$ANGDIR
 70
     0
  9
$PDMODE
 70
     0
  9
$PDSIZE
 40
0.0
  9
$PLINEWID
 40
0.0
  9
$SPLFRAME
 70
     0
  9
$SPLINETYPE
 70
     6
  9
$SPLINESEGS
 70
     8
  9
$HANDSEED
  5
640
  9
$SURFTAB1
 70
     6
  9
$SURFTAB2
 70
     6
  9
$SURFTYPE
 70
     6
  9
$SURFU
 70
     6
  9
$SURFV
 70
     6
  9
$UCSBASE
  2

  9
$UCSNAME
  2

  9
$UCSORG
 10
0.0
 20
0.0
 30
0.0
  9
$UCSXDIR
 10
1.0
 20
0.0
 30
0.0
  9
$UCSYDIR
 10
0.0
 20
1.0
 30
0.0
  9
$UCSORTHOREF
  2

  9
$UCSORTHOVIEW
 70
     0
  9
$UCSORGTOP
 10
0.0
 20
0.0
 30
0.0
  9
$UCSORGBOTTOM
 10
0.0
 20
0.0
 30
0.0
  9
$UCSORGLEFT
 10
0.0
 20
0.0
 30
0.0
  9
$UCSORGRIGHT
 10
0.0
 20
0.0
 30
0.0
  9
$UCSORGFRONT
 10
0.0
 20
0.0
 30
0.0
  9
$UCSORGBACK
 10
0.0
 20
0.0
 30
0.0
  9
$PUCSBASE
  2

  9
$PUCSNAME
  2

  9
$PUCSORG
 10
0.0
 20
0.0
 30
0.0
  9
$PUCSXDIR
 10
1.0
 20
0.0
 30
0.0
  9
$PUCSYDIR
 10
0.0
 20
1.0
 30
0.0
  9
$PUCSORTHOREF
  2

  9
$PUCSORTHOVIEW
 70
     0
  9
$PUCSORGTOP
 10
0.0
 20
0.0
 30
0.0
  9
$PUCSORGBOTTOM
 10
0.0
 20
0.0
 30
0.0
  9
$PUCSORGLEFT
 10
0.0
 20
0.0
 30
0.0
  9
$PUCSORGRIGHT
 10
0.0
 20
0.0
 30
0.0
  9
$PUCSORGFRONT
 10
0.0
 20
0.0
 30
0.0
  9
$PUCSORGBACK
 10
0.0
 20
0.0
 30
0.0
  9
$USERI1
 70
     0
  9
$USERI2
 70
     0
  9
$USERI3
 70
     0
  9
$USERI4
 70
     0
  9
$USERI5
 70
     0
  9
$USERR1
 40
0.0
  9
$USERR2
 40
0.0
  9
$USERR3
 40
0.0
  9
$USERR4
 40
0.0
  9
$USERR5
 40
0.0
  9
$WORLDVIEW
 70
     1
  9
$SHADEDGE
 70
     3
  9
$SHADEDIF
 70
    70
  9
$TILEMODE
 70
     1
  9
$MAXACTVP
 70
    16
  9
$PINSBASE
 10
0.0
 20
0.0
 30
0.0
  9
$PLIMCHECK
 70
     0
  9
$PEXTMIN
 10
1.000000000000000E+20
 20
1.000000000000000E+20
 30
1.000000000000000E+20
  9
$PEXTMAX
 10
-1.000000000000000E+20
 20
-1.000000000000000E+20
 30
-1.000000000000000E+20
  9
$PLIMMIN
 10
0.0
 20
0.0
  9
$PLIMMAX
 10
12.0
 20
9.0
  9
$UNITMODE
 70
     0
  9
$VISRETAIN
 70
     0
  9
$PLINEGEN
 70
     0
  9
$PSLTSCALE
 70
     0
  9
$TREEDEPTH
 70
  3020
  9
$CMLSTYLE
  2
STANDARD
  9
$CMLJUST
 70
     0
  9
$CMLSCALE
 40
1.0
  9
$PROXYGRAPHICS
 70
     1
  9
$MEASUREMENT
 70
     0
  9
$CELWEIGHT
370
    -1
  9
$ENDCAPS
280
     0
  9
$JOINSTYLE
280
     0
  9
$LWDISPLAY
290
     0
  9
$INSUNITS
 70
     0
  9
$HYPERLINKBASE
  1

  9
$STYLESHEET
  1

  9
$XEDIT
290
     1
  9
$CEPSNTYPE
380
     0
  9
$PSTYLEMODE
290
     1
  9
$FINGERPRINTGUID
  2
{26C2C90B-331F-11D5-BE3F-00508B5FCD51}
  9
$VERSIONGUID
  2
{B683D494-EFE6-4B80-86C2-A4738E34A5B5}
  9
$EXTNAMES
290
     1
  9
$PSVPSCALE
 40
0.0
  9
$OLESTARTUP
290
     0
  0
ENDSEC
  0
SECTION
  2
CLASSES
  0
CLASS
  1
DICTIONARYVAR
  2
AcDbDictionaryVar
  3
AutoCAD 2000
 90
        0
280
     0
281
     0
  0
CLASS
  1
LWPOLYLINE
  2
AcDbPolyline
  3
AutoCAD 2000
 90
        0
280
     0
281
     1
  0
CLASS
  1
ACDBDICTIONARYWDFLT
  2
AcDbDictionaryWithDefault
  3
AutoCAD 2000
 90
        0
280
     0
281
     0
  0
CLASS
  1
ACDBPLACEHOLDER
  2
AcDbPlaceHolder
  3
ObjectDBX Classes
 90
        0
280
     0
281
     0
  0
CLASS
  1
LAYOUT
  2
AcDbLayout
  3
ObjectDBX Classes
 90
        0
280
     0
281
     0
  0
CLASS
  1
LONG_TRANSACTION
  2
AcDbLongTransaction
  3
ObjectDBX Classes
 90
   -65536
280
     1
281
     0
  0
CLASS
  1
LWPOLYLINE
  2
AcDbPolyline
  3
AutoCAD 2000
 90
        0
280
     0
281
     1
  0
CLASS
  1
HATCH
  2
AcDbHatch
  3
AutoCAD 2000
 90
        0
280
     0
281
     1
  0
CLASS
  1
XRECORD
  2
AcDbXrecord
  3
AutoCAD 2000
 90
        0
280
     0
281
     0
  0
CLASS
  1
LONG_TRANSACTION
  2
AcDbLongTransaction
  3
ObjectDBX Classes
 90
   -65536
280
     1
281
     0
  0
CLASS
  1
LWPOLYLINE
  2
AcDbPolyline
  3
AutoCAD 2000
 90
        0
280
     0
281
     1
  0
CLASS
  1
HATCH
  2
AcDbHatch
  3
AutoCAD 2000
 90
        0
280
     0
281
     1
  0
CLASS
  1
XRECORD
  2
AcDbXrecord
  3
AutoCAD 2000
 90
        0
280
     0
281
     0
  0
CLASS
  1
LONG_TRANSACTION
  2
AcDbLongTransaction
  3
ObjectDBX Classes
 90
   -65536
280
     1
281
     0
  0
CLASS
  1
LWPOLYLINE
  2
AcDbPolyline
  3
AutoCAD 2000
 90
        0
280
     0
281
     1
  0
CLASS
  1
HATCH
  2
AcDbHatch
  3
AutoCAD 2000
 90
        0
280
     0
281
     1
  0
CLASS
  1
XRECORD
  2
AcDbXrecord
  3
AutoCAD 2000
 90
        0
280
     0
281
     0
  0
CLASS
  1
LONG_TRANSACTION
  2
AcDbLongTransaction
  3
ObjectDBX Classes
 90
   -65536
280
     1
281
     0
  0
CLASS
  1
LWPOLYLINE
  2
AcDbPolyline
  3
AutoCAD 2000
 90
        0
280
     0
281
     1
  0
CLASS
  1
HATCH
  2
AcDbHatch
  3
AutoCAD 2000
 90
        0
280
     0
281
     1
  0
CLASS
  1
XRECORD
  2
AcDbXrecord
  3
AutoCAD 2000
 90
        0
280
     0
281
     0
  0
CLASS
  1
LONG_TRANSACTION
  2
AcDbLongTransaction
  3
ObjectDBX Classes
 90
   -65536
280
     1
281
     0
  0
CLASS
  1
LWPOLYLINE
  2
AcDbPolyline
  3
AutoCAD 2000
 90
        0
280
     0
281
     1
  0
CLASS
  1
HATCH
  2
AcDbHatch
  3
AutoCAD 2000
 90
        0
280
     0
281
     1
  0
CLASS
  1
XRECORD
  2
AcDbXrecord
  3
AutoCAD 2000
 90
        0
280
     0
281
     0
  0
CLASS
  1
LONG_TRANSACTION
  2
AcDbLongTransaction
  3
ObjectDBX Classes
 90
   -65536
280
     1
281
     0
  0
CLASS
  1
LWPOLYLINE
  2
AcDbPolyline
  3
AutoCAD 2000
 90
        0
280
     0
281
     1
  0
CLASS
  1
HATCH
  2
AcDbHatch
  3
AutoCAD 2000
 90
        0
280
     0
281
     1
  0
CLASS
  1
XRECORD
  2
AcDbXrecord
  3
AutoCAD 2000
 90
        0
280
     0
281
     0
  0
CLASS
  1
LONG_TRANSACTION
  2
AcDbLongTransaction
  3
ObjectDBX Classes
 90
   -65536
280
     1
281
     0
  0
CLASS
  1
LWPOLYLINE
  2
AcDbPolyline
  3
AutoCAD 2000
 90
        0
280
     0
281
     1
  0
CLASS
  1
HATCH
  2
AcDbHatch
  3
AutoCAD 2000
 90
        0
280
     0
281
     1
  0
CLASS
  1
XRECORD
  2
AcDbXrecord
  3
AutoCAD 2000
 90
        0
280
     0
281
     0
  0
CLASS
  1
LONG_TRANSACTION
  2
AcDbLongTransaction
  3
ObjectDBX Classes
 90
   -65536
280
     1
281
     0
  0
CLASS
  1
LWPOLYLINE
  2
AcDbPolyline
  3
AutoCAD 2000
 90
        0
280
     0
281
     1
  0
CLASS
  1
HATCH
  2
AcDbHatch
  3
AutoCAD 2000
 90
        0
280
     0
281
     1
  0
CLASS
  1
XRECORD
  2
AcDbXrecord
  3
AutoCAD 2000
 90
        0
280
     0
281
     0
  0
CLASS
  1
LONG_TRANSACTION
  2
AcDbLongTransaction
  3
ObjectDBX Classes
 90
   -65536
280
     1
281
     0
  0
CLASS
  1
LWPOLYLINE
  2
AcDbPolyline
  3
AutoCAD 2000
 90
        0
280
     0
281
     1
  0
CLASS
  1
HATCH
  2
AcDbHatch
  3
AutoCAD 2000
 90
        0
280
     0
281
     1
  0
CLASS
  1
XRECORD
  2
AcDbXrecord
  3
AutoCAD 2000
 90
        0
280
     0
281
     0
  0
CLASS
  1
LONG_TRANSACTION
  2
AcDbLongTransaction
  3
ObjectDBX Classes
 90
   -65536
280
     1
281
     0
  0
CLASS
  1
LWPOLYLINE
  2
AcDbPolyline
  3
AutoCAD 2000
 90
        0
280
     0
281
     1
  0
CLASS
  1
HATCH
  2
AcDbHatch
  3
AutoCAD 2000
 90
        0
280
     0
281
     1
  0
CLASS
  1
XRECORD
  2
AcDbXrecord
  3
AutoCAD 2000
 90
        0
280
     0
281
     0
  0
CLASS
  1
LONG_TRANSACTION
  2
AcDbLongTransaction
  3
ObjectDBX Classes
 90
   -65536
280
     1
281
     0
  0
CLASS
  1
LWPOLYLINE
  2
AcDbPolyline
  3
AutoCAD 2000
 90
        0
280
     0
281
     1
  0
CLASS
  1
HATCH
  2
AcDbHatch
  3
AutoCAD 2000
 90
        0
280
     0
281
     1
  0
CLASS
  1
XRECORD
  2
AcDbXrecord
  3
AutoCAD 2000
 90
        0
280
     0
281
     0
  0
CLASS
  1
TABLESTYLE
  2
AcDbTableStyle
  3
ObjectDBX Classes
 90
     2047
280
     1
281
     0
  0
ENDSEC
  0
SECTION
  2
TABLES
  0
TABLE
  2
VPORT
  5
1D
330
0
100
AcDbSymbolTable
 70
     3
  0
VPORT
  5
632
330
1D
100
AcDbSymbolTableRecord
100
AcDbViewportTableRecord
  2
*Active
 70
     0
 10
0.0
 20
0.0
 11
1.0
 21
1.0
 12
4.123406659700162
 22
6.619627820495374
 13
0.0
 23
0.0
 14
0.0625
 24
0.0625
 15
0.5
 25
0.5
 16
0.0
 26
0.0
 36
1.0
 17
0.0
 27
0.0
 37
0.0
 40
18.24044387599351
 41
1.814583333333333
 42
50.0
 43
0.0
 44
0.0
 50
0.0
 51
0.0
 71
     0
 72
   100
 73
     1
 74
     0
 75
     0
 76
     0
 77
     0
 78
     1
281
     0
 65
     1
110
0.0
120
0.0
130
0.0
111
1.0
121
0.0
131
0.0
112
0.0
122
1.0
132
0.0
 79
     0
146
0.0
  0
ENDTAB
  0
TABLE
  2
LTYPE
  5
18
330
0
100
AcDbSymbolTable
 70
     2
  0
LTYPE
  5
19
330
18
100
AcDbSymbolTableRecord
100
AcDbLinetypeTableRecord
  2
BYBLOCK
 70
     0
  3

 72
    65
 73
     0
 40
0.0
  0
LTYPE
  5
1A
330
18
100
AcDbSymbolTableRecord
100
AcDbLinetypeTableRecord
  2
BYLAYER
 70
     0
  3

 72
    65
 73
     0
 40
0.0
  0
LTYPE
  5
A
330
18
100
AcDbSymbolTableRecord
100
AcDbLinetypeTableRecord
  2
CONTINUOUS
 70
     0
  3
Solid line
 72
    65
 73
     0
 40
0.0
  0
LTYPE
  5
29A
330
18
100
AcDbSymbolTableRecord
100
AcDbLinetypeTableRecord
  2
HIDDEN
 70
     0
  3
_ _ _ _ _ _ _ _ _ _ _ _ _ _ _ _ _ _ _ _ _ _ _
 72
    65
 73
     2
 40
0.375
 49
0.25
 74
     0
 49
-0.125
 74
     0
  0
ENDTAB
  0
TABLE
  2
LAYER
  5
14
330
0
100
AcDbSymbolTable
 70
     1
  0
LAYER
  5
6
330
14
100
AcDbSymbolTableRecord
100
AcDbLayerTableRecord
  2
0
 70
     0
 62
     7
  6
CONTINUOUS
370
    -3
390
7
  0
ENDTAB
  0
TABLE
  2
STYLE
  5
15
330
0
100
AcDbSymbolTable
 70
     1
  0
STYLE
  5
16
330
15
100
AcDbSymbolTableRecord
100
AcDbTextStyleTableRecord
  2
STANDARD
 70
     0
 40
0.0
 41
1.0
 50
0.0
 71
     0
 42
0.27
  3
txt
  4

  0
ENDTAB
  0
TABLE
  2
VIEW
  5
1B
330
0
100
AcDbSymbolTable
 70
     0
  0
ENDTAB
  0
TABLE
  2
UCS
  5
1C
330
0
100
AcDbSymbolTable
 70
     0
  0
ENDTAB
  0
TABLE
  2
APPID
  5
1F
330
0
100
AcDbSymbolTable
 70
     1
  0
APPID
  5
20
330
1F
100
AcDbSymbolTableRecord
100
AcDbRegAppTableRecord
  2
ACAD
 70
     0
  0
ENDTAB
  0
TABLE
  2
DIMSTYLE
  5
21
330
0
100
AcDbSymbolTable
 70
     1
100
AcDbDimStyleTable
  0
DIMSTYLE
105
22
330
21
100
AcDbSymbolTableRecord
100
AcDbDimStyleTableRecord
  2
STANDARD
 70
     0
  3

  4

340
16
  0
ENDTAB
  0
TABLE
  2
BLOCK_RECORD
  5
1
330
0
100
AcDbSymbolTable
 70
     0
  0
BLOCK_RECORD
  5
2
330
1
100
AcDbSymbolTableRecord
100
AcDbBlockTableRecord
  2
*MODEL_SPACE
340
C
  0
BLOCK_RECORD
  5
E
330
1
100
AcDbSymbolTableRecord
100
AcDbBlockTableRecord
  2
*PAPER_SPACE
340
13
  0
ENDTAB
  0
ENDSEC
  0
SECTION
  2
BLOCKS
  0
BLOCK
  5
5
330
2
100
AcDbEntity
  8
0
100
AcDbBlockBegin
  2
*MODEL_SPACE
 70
     0
 10
0.0
 20
0.0
 30
0.0
  3
*MODEL_SPACE
  1

  4

  0
ENDBLK
  5
B
330
2
100
AcDbEntity
  8
0
100
AcDbBlockEnd
  0
BLOCK
  5
11
330
E
100
AcDbEntity
 67
     1
  8
0
100
AcDbBlockBegin
  2
*PAPER_SPACE
 70
     0
 10
0.0
 20
0.0
 30
0.0
  3
*PAPER_SPACE
  1

  4

  0
ENDBLK
  5
12
330
E
100
AcDbEntity
 67
     1
  8
0
100
AcDbBlockEnd
  0
ENDSEC
  0
SECTION
  2
ENTITIES
  0
LINE
  5
69
330
2
100
AcDbEntity
  8
0
100
AcDbLine
 10
-0.0975356548087589
 20
4.043816889916901
 30
0.0
 11
-0.0975356548087589
 21
4.668816889916901
 31
0.0
  0
LINE
  5
6A
330
2
100
AcDbEntity
  8
0
100
AcDbLine
 10
0.8399643451912411
 20
0.3409307248813462
 30
0.0
 11
0.8399643451912411
 21
6.356316889916901
 31
0.0
  0
LINE
  5
6B
330
2
100
AcDbEntity
  8
0
100
AcDbLine
 10
0.9024643451912375
 20
0.4301899753027385
 30
0.0
 11
0.9024643451912411
 21
6.356316889916901
 31
0.0
  0
LINE
  5
AC
330
2
100
AcDbEntity
  8
0
100
AcDbLine
 10
-0.0975356548087589
 20
1.901847893720227
 30
0.0
 11
-0.0975356548087589
 21
2.668816889916901
 31
0.0
  0
ARC
  5
AD
330
2
100
AcDbEntity
  8
0
100
AcDbCircle
 10
0.8399643451912375
 20
2.106846889916898
 30
0.0
 40
0.156
100
AcDbArc
 50
90.0
 51
270.0
  0
LINE
  5
AE
330
2
100
AcDbEntity
  8
0
100
AcDbLine
 10
-1.348122416153437
 20
0.0
 30
0.0
 11
0.6518775838465629
 21
0.0
 31
0.0
  0
LINE
  5
AF
330
2
100
AcDbEntity
  8
0
100
AcDbLine
 10
-1.32551642168956
 20
0.1045996975063623
 30
0.0
 11
-0.1361111301068902
 21
1.795742157869331
 31
0.0
  0
ARC
  5
B0
330
2
100
AcDbEntity
  8
0
100
AcDbCircle
 10
-1.223122416153437
 20
0.0329026429624832
 30
0.0
 40
0.125
100
AcDbArc
 50
145.0000000000001
 51
180.0
  0
LINE
  5
B1
330
2
100
AcDbEntity
  8
0
100
AcDbLine
 10
-1.348122416153437
 20
0.0
 30
0.0
 11
-1.348122416153437
 21
0.0329026429624903
 31
0.0
  0
LINE
  5
B2
330
2
100
AcDbEntity
  8
0
100
AcDbLine
 10
-0.1600356548087589
 20
1.131781585209559
 30
0.0
 11
-0.1600356548087589
 21
1.565781585209556
 31
0.0
  0
LINE
  5
B5
330
2
100
AcDbEntity
  8
0
100
AcDbLine
 10
0.6744835783104364
 20
0.104599697506373
 30
0.0
 11
0.9030511065359121
 21
0.4310279573475668
 31
0.0
  0
ARC
  5
B6
330
2
100
AcDbEntity
  8
0
100
AcDbCircle
 10
0.7768775838465629
 20
0.0329026429624832
 30
0.0
 40
0.125
100
AcDbArc
 50
145.0000000000001
 51
180.0
  0
LINE
  5
B7
330
2
100
AcDbEntity
  8
0
100
AcDbLine
 10
0.6518775838465629
 20
0.0
 30
0.0
 11
0.6518775838465629
 21
0.0329028366059418
 31
0.0
  0
LINE
  5
B8
330
2
100
AcDbEntity
  8
0
100
AcDbLine
 10
0.6518775838465629
 20
-0.0000000000000142
 30
0.0
 11
0.6518775838465629
 21
0.0329026429624903
 31
0.0
  0
ARC
  5
C6
330
2
100
AcDbEntity
  8
0
100
AcDbCircle
 10
-0.75669607431605
 20
2.081425171894107
 30
0.0
 40
0.6831840582751946
100
AcDbArc
 50
335.2812694330467
 51
344.760557365782
  0
ARC
  5
C7
330
2
100
AcDbEntity
  8
0
100
AcDbCircle
 10
-0.2220356548087672
 20
3.674016889916903
 30
0.0
 40
0.1875
100
AcDbArc
 50
90.0
 51
180.0
  0
ARC
  5
C8
330
2
100
AcDbEntity
  8
0
100
AcDbCircle
 10
-0.2850356548087625
 20
2.668816889916901
 30
0.0
 40
0.1875
100
AcDbArc
 50
0.0
 51
90.0
  0
LINE
  5
C9
330
2
100
AcDbEntity
  8
0
100
AcDbLine
 10
-0.4095356548087636
 20
3.674016889916903
 30
0.0
 11
-0.4095356548087636
 21
3.038616889916906
 31
0.0
  0
ARC
  5
CA
330
2
100
AcDbEntity
  8
0
100
AcDbCircle
 10
-0.2220356548087672
 20
3.038616889916906
 30
0.0
 40
0.1875
100
AcDbArc
 50
180.0
 51
250.3666411024315
  0
LINE
  5
CE
330
2
100
AcDbEntity
  8
0
100
AcDbLine
 10
-0.1600356548087589
 20
2.932103589546824
 30
0.0
 11
-0.1600356548087589
 21
3.366103589546821
 31
0.0
  0
LINE
  5
D6
330
2
100
AcDbEntity
  8
0
100
AcDbLine
 10
0.8399643451912411
 20
2.731316889916901
 30
0.0
 11
0.8399643451912411
 21
2.793816889916901
 31
0.0
  0
ARC
  5
D7
330
2
100
AcDbEntity
  8
0
100
AcDbCircle
 10
-0.2850356548087625
 20
4.043816889916901
 30
0.0
 40
0.1875
100
AcDbArc
 50
289.6333588975897
 51
0.0
  0
ARC
  5
12A
330
2
100
AcDbEntity
  8
0
100
AcDbCircle
 10
-0.2850356548087625
 20
4.668816889916901
 30
0.0
 40
0.1875
100
AcDbArc
 50
0.0
 51
90.0
  0
ARC
  5
12B
330
2
100
AcDbEntity
  8
0
100
AcDbCircle
 10
-0.2220356548087672
 20
5.674016889916903
 30
0.0
 40
0.1875
100
AcDbArc
 50
90.0
 51
180.0
  0
LINE
  5
12C
330
2
100
AcDbEntity
  8
0
100
AcDbLine
 10
-0.4095356548087636
 20
5.038616678131607
 30
0.0
 11
-0.4095356548087636
 21
5.674016889916903
 31
0.0
  0
ARC
  5
12D
330
2
100
AcDbEntity
  8
0
100
AcDbCircle
 10
-0.2220356548087672
 20
5.038616889916906
 30
0.0
 40
0.1875
100
AcDbArc
 50
180.0
 51
250.3666411024315
  0
LINE
  5
12E
330
2
100
AcDbEntity
  8
0
100
AcDbLine
 10
0.6185543451912388
 20
5.467323167552909
 30
0.0
 11
0.8399643451912411
 21
5.650433167552908
 31
0.0
  0
LINE
  5
12F
330
2
100
AcDbEntity
  8
0
100
AcDbLine
 10
0.8399643451912411
 20
5.712933167552908
 30
0.0
 11
0.5274643451912411
 21
5.462933167552908
 31
0.0
  0
LINE
  5
130
330
2
100
AcDbEntity
  8
0
100
AcDbLine
 10
0.8399643451912411
 20
5.337933167552908
 30
0.0
 11
0.6185543451912388
 21
5.467323167552909
 31
0.0
  0
LINE
  5
131
330
2
100
AcDbEntity
  8
0
100
AcDbLine
 10
0.5274643451912411
 20
5.462933167552908
 30
0.0
 11
0.8399643451912411
 21
5.275433167552908
 31
0.0
  0
LINE
  5
132
330
2
100
AcDbEntity
  8
0
100
AcDbLine
 10
-0.0975356548087589
 20
6.356316889916901
 30
0.0
 11
0.9024643451912411
 21
6.356316889916901
 31
0.0
  0
LINE
  5
133
330
2
100
AcDbEntity
  8
0
100
AcDbLine
 10
-0.0975356548087589
 20
6.043816889916901
 30
0.0
 11
-0.0975356548087589
 21
6.356316889916901
 31
0.0
  0
ARC
  5
134
330
2
100
AcDbEntity
  8
0
100
AcDbCircle
 10
-0.2850356548087625
 20
6.043816889916901
 30
0.0
 40
0.1875
100
AcDbArc
 50
289.6333588975897
 51
0.0
  0
ARC
  5
1CB
330
2
100
AcDbEntity
  8
0
100
AcDbCircle
 10
-0.1600356548087589
 20
1.274061194030082
 30
0.0
 40
0.0502796088205244
100
AcDbArc
 50
270.0
 51
303.5108229556709
  0
ARC
  5
1CC
330
2
100
AcDbEntity
  8
0
100
AcDbCircle
 10
-0.1836827427519623
 20
1.30977338793539
 30
0.0
 40
0.0931112041880084
100
AcDbArc
 50
303.5108229556701
 51
327.9718933333913
  0
ARC
  5
1CD
330
2
100
AcDbEntity
  8
0
100
AcDbCircle
 10
-0.221335174945974
 20
1.333326929302874
 30
0.0
 40
0.1375237582811305
100
AcDbArc
 50
327.9718933333911
 51
345.4734521832016
  0
ARC
  5
1CE
330
2
100
AcDbEntity
  8
0
100
AcDbCircle
 10
-0.2809798732614688
 20
1.348781585209561
 30
0.0
 40
0.1991381756389249
100
AcDbArc
 50
345.4734521832018
 51
359.999999999999
  0
ARC
  5
1CF
330
2
100
AcDbEntity
  8
0
100
AcDbCircle
 10
-0.2809798732614688
 20
1.348781585209554
 30
0.0
 40
0.1991381756389252
100
AcDbArc
 50
0.0000000000010222
 51
14.52654781679821
  0
ARC
  5
1D0
330
2
100
AcDbEntity
  8
0
100
AcDbCircle
 10
-0.2213351749459633
 20
1.364236241116248
 30
0.0
 40
0.1375237582811182
100
AcDbArc
 50
14.52654781679661
 51
32.02810666660878
  0
ARC
  5
1D1
330
2
100
AcDbEntity
  8
0
100
AcDbCircle
 10
-0.1836827427519623
 20
1.387789782483725
 30
0.0
 40
0.0931112041880092
100
AcDbArc
 50
32.02810666660869
 51
56.48917704432994
  0
ARC
  5
1D2
330
2
100
AcDbEntity
  8
0
100
AcDbCircle
 10
-0.1600356548087589
 20
1.423501976389029
 30
0.0
 40
0.050279608820527
100
AcDbArc
 50
56.48917704433129
 51
90.0
  0
ARC
  5
1D3
330
2
100
AcDbEntity
  8
0
100
AcDbCircle
 10
-0.1600356548087483
 20
1.251207111588744
 30
0.0
 40
0.0734255263791788
100
AcDbArc
 50
269.9999999999917
 51
302.6079210151868
  0
ARC
  5
1D4
330
2
100
AcDbEntity
  8
0
100
AcDbCircle
 10
-0.1899062497762643
 20
1.297900235893191
 30
0.0
 40
0.1288556653021863
100
AcDbArc
 50
302.6079210151953
 51
327.0773280975511
  0
ARC
  5
1D5
330
2
100
AcDbEntity
  8
0
100
AcDbCircle
 10
-0.2373696400712184
 20
1.328632328436366
 30
0.0
 40
0.1853997625217313
100
AcDbArc
 50
327.0773280975416
 51
344.9866289979941
  0
ARC
  5
1D6
330
2
100
AcDbEntity
  8
0
100
AcDbCircle
 10
-0.3124975558882319
 20
1.348781585209543
 30
0.0
 40
0.2631827702002704
100
AcDbArc
 50
344.986628998006
 51
0.0000000000030938
  0
ARC
  5
1D7
330
2
100
AcDbEntity
  8
0
100
AcDbCircle
 10
-0.3124975558882248
 20
1.348781585209575
 30
0.0
 40
0.2631827702002632
100
AcDbArc
 50
359.9999999999961
 51
15.01337100199369
  0
ARC
  5
1D8
330
2
100
AcDbEntity
  8
0
100
AcDbCircle
 10
-0.2373696400712113
 20
1.368930841982752
 30
0.0
 40
0.1853997625217234
100
AcDbArc
 50
15.01337100200542
 51
32.92267190245869
  0
ARC
  5
1D9
330
2
100
AcDbEntity
  8
0
100
AcDbCircle
 10
-0.1899062497762678
 20
1.399662934525924
 30
0.0
 40
0.1288556653021885
100
AcDbArc
 50
32.92267190244809
 51
57.39207898480337
  0
ARC
  5
1DA
330
2
100
AcDbEntity
  8
0
100
AcDbCircle
 10
-0.1600356548087731
 20
1.446356058830378
 30
0.0
 40
0.0734255263791859
100
AcDbArc
 50
57.39207898479391
 51
89.99999999998892
  0
ARC
  5
1DB
330
2
100
AcDbEntity
  8
0
100
AcDbCircle
 10
-0.1600356548087589
 20
1.581190683620789
 30
0.0
 40
0.4494090984112305
100
AcDbArc
 50
270.0
 51
284.3044795065292
  0
ARC
  5
1DC
330
2
100
AcDbEntity
  8
0
100
AcDbCircle
 10
-0.1600356548088442
 20
1.662523089721975
 30
0.0
 40
0.4387415045124276
100
AcDbArc
 50
276.2600106502603
 51
282.4484734234336
  0
ARC
  5
1DD
330
2
100
AcDbEntity
  8
0
100
AcDbCircle
 10
-0.1257683777949552
 20
1.507292880716842
 30
0.0
 40
0.2797740107858051
100
AcDbArc
 50
282.4484734233885
 51
285.9263432329422
  0
ARC
  5
1DE
330
2
100
AcDbEntity
  8
0
100
AcDbCircle
 10
-0.1271854836925783
 20
1.466862294699875
 30
0.0
 40
0.3304548456263142
100
AcDbArc
 50
295.3310792578577
 51
304.7482755454233
  0
ARC
  5
1DF
330
2
100
AcDbEntity
  8
0
100
AcDbCircle
 10
-0.076995276995099
 20
1.394508761046399
 30
0.0
 40
0.2423975308791534
100
AcDbArc
 50
304.7482755454461
 51
309.5636078296334
  0
ARC
  5
1E0
330
2
100
AcDbEntity
  8
0
100
AcDbCircle
 10
-0.1280501109050931
 20
1.472863679611666
 30
0.0
 40
0.2909127378596742
100
AcDbArc
 50
285.7677266530063
 51
299.2732525888151
  0
ARC
  5
1E1
330
2
100
AcDbEntity
  8
0
100
AcDbCircle
 10
-0.1600356548086879
 20
1.593468798723183
 30
0.0
 40
0.4156872135136176
100
AcDbArc
 50
269.9999999999902
 51
276.6087016770762
  0
ARC
  5
1E2
330
2
100
AcDbEntity
  8
0
100
AcDbCircle
 10
-0.0792776304243255
 20
1.39668890813407
 30
0.0
 40
0.2004619188367855
100
AcDbArc
 50
321.4039402110134
 51
327.0997591593994
  0
ARC
  5
1E3
330
2
100
AcDbEntity
  8
0
100
AcDbCircle
 10
-0.0052248666207575
 20
1.348781585209575
 30
0.0
 40
0.1122637135447343
100
AcDbArc
 50
327.0997591593915
 51
359.999999999991
  0
ARC
  5
1E4
330
2
100
AcDbEntity
  8
0
100
AcDbCircle
 10
-0.0052248666207575
 20
1.34878158520954
 30
0.0
 40
0.1122637135447349
100
AcDbArc
 50
0.000000000009066
 51
32.90024084060858
  0
ARC
  5
1E5
330
2
100
AcDbEntity
  8
0
100
AcDbCircle
 10
-0.0792776304243432
 20
1.300874262285031
 30
0.0
 40
0.2004619188368083
100
AcDbArc
 50
32.90024084060128
 51
38.59605978898663
  0
ARC
  5
1E6
330
2
100
AcDbEntity
  8
0
100
AcDbCircle
 10
-0.0004163454032522
 20
1.348781585209586
 30
0.0
 40
0.153205001069999
100
AcDbArc
 50
336.9842081995419
 51
359.9999999999894
  0
ARC
  5
1E7
330
2
100
AcDbEntity
  8
0
100
AcDbCircle
 10
-0.0004163454032522
 20
1.348781585209529
 30
0.0
 40
0.153205001069999
100
AcDbArc
 50
0.0000000000106292
 51
23.01579180045814
  0
ARC
  5
1E8
330
2
100
AcDbEntity
  8
0
100
AcDbCircle
 10
-0.0736993672908994
 20
1.409591593381335
 30
0.0
 40
0.1690639236126234
100
AcDbArc
 50
301.3263623424938
 51
322.1448505749833
  0
ARC
  5
1E9
330
2
100
AcDbEntity
  8
0
100
AcDbCircle
 10
0.004540802743815
 20
1.348781585209561
 30
0.0
 40
0.0699711322455806
100
AcDbArc
 50
322.1448505749818
 51
359.9999999999971
  0
ARC
  5
1EA
330
2
100
AcDbEntity
  8
0
100
AcDbCircle
 10
0.004540802743815
 20
1.348781585209554
 30
0.0
 40
0.0699711322455805
100
AcDbArc
 50
0.0000000000029091
 51
37.85514942501825
  0
ARC
  5
1EB
330
2
100
AcDbEntity
  8
0
100
AcDbCircle
 10
-0.0736993672908994
 20
1.287971577037776
 30
0.0
 40
0.1690639236126257
100
AcDbArc
 50
37.85514942501775
 51
58.6736376575068
  0
ARC
  5
1EC
330
2
100
AcDbEntity
  8
0
100
AcDbCircle
 10
-0.1600356548088158
 20
1.116372486798336
 30
0.0
 40
0.4494090984112342
100
AcDbArc
 50
75.69552049346343
 51
89.99999999999277
  0
ARC
  5
1ED
330
2
100
AcDbEntity
  8
0
100
AcDbCircle
 10
-0.1257683777951897
 20
1.190270289702279
 30
0.0
 40
0.2797740107858626
100
AcDbArc
 50
74.07365676701126
 51
77.55152657656498
  0
ARC
  5
1EE
330
2
100
AcDbEntity
  8
0
100
AcDbCircle
 10
-0.1600356548087127
 20
1.035040080697147
 30
0.0
 40
0.4387415045124062
100
AcDbArc
 50
77.55152657658339
 51
83.7399893497567
  0
ARC
  5
1EF
330
2
100
AcDbEntity
  8
0
100
AcDbCircle
 10
-0.1600356548088122
 20
1.104094371695907
 30
0.0
 40
0.4156872135136568
100
AcDbArc
 50
83.39129832290711
 51
89.99999999999265
  0
ARC
  5
1F0
330
2
100
AcDbEntity
  8
0
100
AcDbCircle
 10
-0.1280501109051535
 20
1.224699490807459
 30
0.0
 40
0.2909127378596942
100
AcDbArc
 50
60.72674741117345
 51
74.23227334698238
  0
ARC
  5
1F1
330
2
100
AcDbEntity
  8
0
100
AcDbCircle
 10
-0.0769952769951168
 20
1.303054409372776
 30
0.0
 40
0.242397530879118
100
AcDbArc
 50
50.43639217035425
 51
55.25172445454089
  0
ARC
  5
1F2
330
2
100
AcDbEntity
  8
0
100
AcDbCircle
 10
-0.12718548369266
 20
1.230700875719211
 30
0.0
 40
0.3304548456263878
100
AcDbArc
 50
55.25172445456686
 51
64.66892074213267
  0
ARC
  5
1F3
330
2
100
AcDbEntity
  8
0
100
AcDbCircle
 10
-0.0736993672908994
 20
3.2099135977186
 30
0.0
 40
0.1690639236126234
100
AcDbArc
 50
301.3263623424938
 51
322.1448505749833
  0
ARC
  5
1F4
330
2
100
AcDbEntity
  8
0
100
AcDbCircle
 10
0.004540802743815
 20
3.149103589546826
 30
0.0
 40
0.0699711322455806
100
AcDbArc
 50
322.1448505749818
 51
359.9999999999971
  0
ARC
  5
1F5
330
2
100
AcDbEntity
  8
0
100
AcDbCircle
 10
0.004540802743815
 20
3.149103589546819
 30
0.0
 40
0.0699711322455805
100
AcDbArc
 50
0.0000000000029091
 51
37.85514942501825
  0
ARC
  5
1F6
330
2
100
AcDbEntity
  8
0
100
AcDbCircle
 10
-0.0736993672908994
 20
3.088293581375041
 30
0.0
 40
0.1690639236126257
100
AcDbArc
 50
37.85514942501775
 51
58.6736376575068
  0
ARC
  5
1F7
330
2
100
AcDbEntity
  8
0
100
AcDbCircle
 10
-0.1600356548087483
 20
3.051529115926009
 30
0.0
 40
0.0734255263791788
100
AcDbArc
 50
269.9999999999917
 51
302.6079210151868
  0
ARC
  5
1F8
330
2
100
AcDbEntity
  8
0
100
AcDbCircle
 10
-0.1899062497762643
 20
3.098222240230456
 30
0.0
 40
0.1288556653021863
100
AcDbArc
 50
302.6079210151953
 51
327.0773280975511
  0
ARC
  5
1F9
330
2
100
AcDbEntity
  8
0
100
AcDbCircle
 10
-0.2373696400712184
 20
3.128954332773631
 30
0.0
 40
0.1853997625217313
100
AcDbArc
 50
327.0773280975416
 51
344.9866289979941
  0
ARC
  5
1FA
330
2
100
AcDbEntity
  8
0
100
AcDbCircle
 10
-0.3124975558882319
 20
3.149103589546808
 30
0.0
 40
0.2631827702002704
100
AcDbArc
 50
344.986628998006
 51
0.0000000000030938
  0
ARC
  5
1FB
330
2
100
AcDbEntity
  8
0
100
AcDbCircle
 10
-0.3124975558882248
 20
3.14910358954684
 30
0.0
 40
0.2631827702002632
100
AcDbArc
 50
359.9999999999961
 51
15.01337100199369
  0
ARC
  5
1FC
330
2
100
AcDbEntity
  8
0
100
AcDbCircle
 10
-0.2373696400712113
 20
3.169252846320017
 30
0.0
 40
0.1853997625217234
100
AcDbArc
 50
15.01337100200542
 51
32.92267190245869
  0
ARC
  5
1FD
330
2
100
AcDbEntity
  8
0
100
AcDbCircle
 10
-0.1899062497762678
 20
3.199984938863189
 30
0.0
 40
0.1288556653021885
100
AcDbArc
 50
32.92267190244809
 51
57.39207898480337
  0
ARC
  5
1FE
330
2
100
AcDbEntity
  8
0
100
AcDbCircle
 10
-0.1600356548087731
 20
3.246678063167643
 30
0.0
 40
0.0734255263791859
100
AcDbArc
 50
57.39207898479391
 51
89.99999999998892
  0
ARC
  5
1FF
330
2
100
AcDbEntity
  8
0
100
AcDbCircle
 10
-0.1600356548087589
 20
3.074383198367347
 30
0.0
 40
0.0502796088205244
100
AcDbArc
 50
270.0
 51
303.5108229556709
  0
ARC
  5
200
330
2
100
AcDbEntity
  8
0
100
AcDbCircle
 10
-0.1836827427519623
 20
3.110095392272655
 30
0.0
 40
0.0931112041880084
100
AcDbArc
 50
303.5108229556701
 51
327.9718933333913
  0
ARC
  5
201
330
2
100
AcDbEntity
  8
0
100
AcDbCircle
 10
-0.221335174945974
 20
3.133648933640139
 30
0.0
 40
0.1375237582811305
100
AcDbArc
 50
327.9718933333911
 51
345.4734521832016
  0
ARC
  5
202
330
2
100
AcDbEntity
  8
0
100
AcDbCircle
 10
-0.2809798732614688
 20
3.149103589546826
 30
0.0
 40
0.1991381756389249
100
AcDbArc
 50
345.4734521832018
 51
359.999999999999
  0
ARC
  5
203
330
2
100
AcDbEntity
  8
0
100
AcDbCircle
 10
-0.2809798732614688
 20
3.149103589546819
 30
0.0
 40
0.1991381756389252
100
AcDbArc
 50
0.0000000000010222
 51
14.52654781679821
  0
ARC
  5
204
330
2
100
AcDbEntity
  8
0
100
AcDbCircle
 10
-0.2213351749459633
 20
3.164558245453513
 30
0.0
 40
0.1375237582811182
100
AcDbArc
 50
14.52654781679661
 51
32.02810666660878
  0
ARC
  5
205
330
2
100
AcDbEntity
  8
0
100
AcDbCircle
 10
-0.1836827427519623
 20
3.18811178682099
 30
0.0
 40
0.0931112041880092
100
AcDbArc
 50
32.02810666660869
 51
56.48917704432994
  0
ARC
  5
206
330
2
100
AcDbEntity
  8
0
100
AcDbCircle
 10
-0.1600356548087589
 20
3.223823980726294
 30
0.0
 40
0.050279608820527
100
AcDbArc
 50
56.48917704433129
 51
90.0
  0
ARC
  5
207
330
2
100
AcDbEntity
  8
0
100
AcDbCircle
 10
-0.1600356548086879
 20
3.393790803060448
 30
0.0
 40
0.4156872135136176
100
AcDbArc
 50
269.9999999999902
 51
276.6087016770762
  0
ARC
  5
208
330
2
100
AcDbEntity
  8
0
100
AcDbCircle
 10
-0.1280501109050931
 20
3.273185683948931
 30
0.0
 40
0.2909127378596742
100
AcDbArc
 50
285.7677266530063
 51
299.2732525888151
  0
ARC
  5
209
330
2
100
AcDbEntity
  8
0
100
AcDbCircle
 10
-0.1271854836925783
 20
3.26718429903714
 30
0.0
 40
0.3304548456263142
100
AcDbArc
 50
295.3310792578577
 51
304.7482755454233
  0
ARC
  5
20A
330
2
100
AcDbEntity
  8
0
100
AcDbCircle
 10
-0.076995276995099
 20
3.194830765383664
 30
0.0
 40
0.2423975308791534
100
AcDbArc
 50
304.7482755454461
 51
309.5636078296334
  0
ARC
  5
20B
330
2
100
AcDbEntity
  8
0
100
AcDbCircle
 10
-0.1600356548088442
 20
3.46284509405924
 30
0.0
 40
0.4387415045124276
100
AcDbArc
 50
276.2600106502603
 51
282.4484734234336
  0
ARC
  5
20C
330
2
100
AcDbEntity
  8
0
100
AcDbCircle
 10
-0.1257683777949552
 20
3.307614885054107
 30
0.0
 40
0.2797740107858051
100
AcDbArc
 50
282.4484734233885
 51
285.9263432329422
  0
ARC
  5
20D
330
2
100
AcDbEntity
  8
0
100
AcDbCircle
 10
-0.1600356548087589
 20
3.381512687958054
 30
0.0
 40
0.4494090984112305
100
AcDbArc
 50
270.0
 51
284.3044795065292
  0
ARC
  5
20E
330
2
100
AcDbEntity
  8
0
100
AcDbCircle
 10
-0.0004163454032522
 20
3.149103589546851
 30
0.0
 40
0.153205001069999
100
AcDbArc
 50
336.9842081995419
 51
359.9999999999894
  0
ARC
  5
20F
330
2
100
AcDbEntity
  8
0
100
AcDbCircle
 10
-0.0004163454032522
 20
3.149103589546794
 30
0.0
 40
0.153205001069999
100
AcDbArc
 50
0.0000000000106292
 51
23.01579180045814
  0
ARC
  5
210
330
2
100
AcDbEntity
  8
0
100
AcDbCircle
 10
-0.0792776304243255
 20
3.197010912471335
 30
0.0
 40
0.2004619188367855
100
AcDbArc
 50
321.4039402110134
 51
327.0997591593994
  0
ARC
  5
211
330
2
100
AcDbEntity
  8
0
100
AcDbCircle
 10
-0.0052248666207575
 20
3.14910358954684
 30
0.0
 40
0.1122637135447343
100
AcDbArc
 50
327.0997591593915
 51
359.999999999991
  0
ARC
  5
212
330
2
100
AcDbEntity
  8
0
100
AcDbCircle
 10
-0.0052248666207575
 20
3.149103589546805
 30
0.0
 40
0.1122637135447349
100
AcDbArc
 50
0.000000000009066
 51
32.90024084060858
  0
ARC
  5
213
330
2
100
AcDbEntity
  8
0
100
AcDbCircle
 10
-0.0792776304243432
 20
3.101196266622296
 30
0.0
 40
0.2004619188368083
100
AcDbArc
 50
32.90024084060128
 51
38.59605978898663
  0
ARC
  5
214
330
2
100
AcDbEntity
  8
0
100
AcDbCircle
 10
-0.1600356548088122
 20
2.904416376033172
 30
0.0
 40
0.4156872135136568
100
AcDbArc
 50
83.39129832290711
 51
89.99999999999265
  0
ARC
  5
215
330
2
100
AcDbEntity
  8
0
100
AcDbCircle
 10
-0.1280501109051535
 20
3.025021495144724
 30
0.0
 40
0.2909127378596942
100
AcDbArc
 50
60.72674741117345
 51
74.23227334698238
  0
ARC
  5
216
330
2
100
AcDbEntity
  8
0
100
AcDbCircle
 10
-0.0769952769951168
 20
3.103376413710041
 30
0.0
 40
0.242397530879118
100
AcDbArc
 50
50.43639217035425
 51
55.25172445454089
  0
ARC
  5
217
330
2
100
AcDbEntity
  8
0
100
AcDbCircle
 10
-0.12718548369266
 20
3.031022880056476
 30
0.0
 40
0.3304548456263878
100
AcDbArc
 50
55.25172445456686
 51
64.66892074213267
  0
ARC
  5
218
330
2
100
AcDbEntity
  8
0
100
AcDbCircle
 10
-0.1257683777951897
 20
2.990592294039544
 30
0.0
 40
0.2797740107858626
100
AcDbArc
 50
74.07365676701126
 51
77.55152657656498
  0
ARC
  5
219
330
2
100
AcDbEntity
  8
0
100
AcDbCircle
 10
-0.1600356548087127
 20
2.835362085034412
 30
0.0
 40
0.4387415045124062
100
AcDbArc
 50
77.55152657658339
 51
83.7399893497567
  0
ARC
  5
21A
330
2
100
AcDbEntity
  8
0
100
AcDbCircle
 10
-0.1600356548088158
 20
2.916694491135601
 30
0.0
 40
0.4494090984112342
100
AcDbArc
 50
75.69552049346343
 51
89.99999999999277
  0
LINE
  5
61F
330
2
100
AcDbEntity
  8
0
  6
HIDDEN
100
AcDbLine
 10
-1.344567862574428
 20
0.0625
 30
0.0
 11
0.6554321374255725
 21
0.0625
 31
0.0
  0
ENDSEC
  0
SECTION
  2
OBJECTS
  0
DICTIONARY
  5
9
330
0
100
AcDbDictionary
281
     1
  3
ACAD_COLOR
350
619
  3
ACAD_GROUP
350
24
  3
ACAD_LAYOUT
350
D
  3
ACAD_MATERIAL
350
618
  3
ACAD_MLINESTYLE
350
25
  3
ACAD_PLOTSETTINGS
350
26
  3
ACAD_PLOTSTYLENAME
350
8
  3
ACAD_TABLESTYLE
350
61A
  3
ACDBHEADERROUNDTRIPXREC
350
639
  3
AcDbVariableDictionary
350
135
  0
DICTIONARY
  5
619
102
{ACAD_REACTORS
330
9
102
}
330
9
100
AcDbDictionary
281
     1
  0
DICTIONARY
  5
24
102
{ACAD_REACTORS
330
9
102
}
330
9
100
AcDbDictionary
281
     1
  0
DICTIONARY
  5
D
102
{ACAD_REACTORS
330
9
102
}
330
9
100
AcDbDictionary
281
     1
  3
Layout1
350
13
  3
Model
350
C
  0
DICTIONARY
  5
618
102
{ACAD_REACTORS
330
9
102
}
330
9
100
AcDbDictionary
281
     1
  0
DICTIONARY
  5
25
102
{ACAD_REACTORS
330
9
102
}
330
9
100
AcDbDictionary
281
     1
  3
STANDARD
350
28
  0
DICTIONARY
  5
26
102
{ACAD_REACTORS
330
9
102
}
330
9
100
AcDbDictionary
281
     1
  0
ACDBDICTIONARYWDFLT
  5
8
102
{ACAD_REACTORS
330
9
102
}
330
9
100
AcDbDictionary
281
     1
  3
Normal
350
7
100
AcDbDictionaryWithDefault
340
7
  0
DICTIONARY
  5
61A
102
{ACAD_REACTORS
330
9
102
}
330
9
100
AcDbDictionary
281
     1
  3
Standard
350
61B
  0
DICTIONARY
  5
639
102
{ACAD_REACTORS
330
9
102
}
330
9
100
AcDbDictionary
281
     1
  3
COLORDICT
350
63A
  3
MATERIALDICT
350
63B
  0
DICTIONARY
  5
135
102
{ACAD_REACTORS
330
9
102
}
330
9
100
AcDbDictionary
281
     1
  3
CTABLESTYLE
350
627
  3
HIDETEXT
350
638
  0
LAYOUT
  5
13
102
{ACAD_REACTORS
330
D
102
}
102
{ACAD_XDICTIONARY
360
63C
102
}
330
D
100
AcDbPlotSettings
  1

  2
HP LaserJet 2100 Series PS
  4

  6

 40
0.0
 41
0.0
 42
0.0
 43
0.0
 44
0.0
 45
0.0
 46
0.0
 47
0.0
 48
0.0
 49
0.0
140
0.0
141
0.0
142
1.0
143
1.0
 70
   688
 72
     0
 73
     0
 74
     5
  7

 75
    16
147
1.0
148
0.0
149
0.0
100
AcDbLayout
  1
Layout1
 70
     0
 71
     1
 10
0.0
 20
0.0
 11
12.0
 21
9.0
 12
0.0
 22
0.0
 32
0.0
 14
1.000000000000000E+20
 24
1.000000000000000E+20
 34
1.000000000000000E+20
 15
-1.000000000000000E+20
 25
-1.000000000000000E+20
 35
-1.000000000000000E+20
146
0.0
 13
0.0
 23
0.0
 33
0.0
 16
1.0
 26
0.0
 36
0.0
 17
0.0
 27
1.0
 37
0.0
 76
     0
330
E
  0
LAYOUT
  5
C
102
{ACAD_REACTORS
330
D
102
}
102
{ACAD_XDICTIONARY
360
63E
102
}
330
D
100
AcDbPlotSettings
  1

  2
HP LaserJet 2100 Series PS
  4
Letter
  6

 40
5.365749835968018
 41
5.386905193328857
 42
5.386917114257813
 43
5.365753173828125
 44
215.8999938964844
 45
279.3999938964844
 46
0.0
 47
0.0
 48
0.0
 49
0.0
140
0.0
141
0.0
142
1.0
143
3.971005325245599
 70
 11952
 72
     0
 73
     1
 74
     2
  7

 75
     0
147
0.2518253988838839
148
0.0
149
0.0
100
AcDbLayout
  1
Model
 70
     1
 71
     0
 10
0.0
 20
0.0
 11
12.0
 21
9.0
 12
0.0
 22
0.0
 32
0.0
 14
0.0
 24
0.0
 34
0.0
 15
0.0
 25
0.0
 35
0.0
146
0.0
 13
0.0
 23
0.0
 33
0.0
 16
1.0
 26
0.0
 36
0.0
 17
0.0
 27
1.0
 37
0.0
 76
     0
330
2
  0
MLINESTYLE
  5
28
102
{ACAD_REACTORS
330
25
102
}
330
25
100
AcDbMlineStyle
  2
STANDARD
 70
     0
  3

 62
   256
 51
90.0
 52
90.0
 71
     2
 49
0.5
 62
   256
  6
BYLAYER
 49
-0.5
 62
   256
  6
BYLAYER
  0
ACDBPLACEHOLDER
  5
7
102
{ACAD_REACTORS
330
8
102
}
330
8
  0
ACAD_PROXY_OBJECT
  5
61B
102
{ACAD_REACTORS
330
61A
102
}
330
61A
100
AcDbProxyObject
 90
      499
 91
      549
 95
   983063
 70
     0
 93
     1841
310
4214DD185B99185C9928B81E85EB51B8AE3F2E07A17AD46E2B8FC02B5E8DC0F42B1CFD028000000C1008070000C3001FDFF8000000C1003FBFF000000182007F7FE00000030400FEFFC00000060801FDFF8000000C1003FBFF00000018200000000000000681FA0B0000001820100E000186003FBFF000000182007F7FE000
310
00030400FEFFC00000060801FDFF8000000C1003FBFF000000182007F7FE000000304000AD7A3703D0AC73F4160000003040201C00030C007F7FE00000030400FEFFC00000060801FDFF8000000C1003FBFF000000182007F7FE00000030400FEFFC000000608000
340
16
340
16
340
16
 94
        0
  0
XRECORD
  5
63A
102
{ACAD_REACTORS
330
639
102
}
330
639
100
AcDbXrecord
340
619
  0
XRECORD
  5
63B
102
{ACAD_REACTORS
330
639
102
}
330
639
100
AcDbXrecord
340
618
  0
DICTIONARYVAR
  5
627
102
{ACAD_REACTORS
330
135
102
}
330
135
100
DictionaryVariables
280
     0
  1
STANDARD
  0
DICTIONARYVAR
  5
638
102
{ACAD_REACTORS
330
135
102
}
330
135
100
DictionaryVariables
280
     0
  1
0
  0
DICTIONARY
  5
63C
330
13
100
AcDbDictionary
280
     1
281
     1
  3
ACAD_XREC_ROUNDTRIP
360
63D
  0
DICTIONARY
  5
63E
330
C
100
AcDbDictionary
280
     1
281
     1
  3
ACAD_XREC_ROUNDTRIP
360
63F
  0
XRECORD
  5
63D
102
{ACAD_REACTORS
330
63C
102
}
330
63C
100
AcDbXrecord
102
SHADEPLOT
 70
     0
102
SHADEPLOTRESLEVEL
 70
     2
102
SHADEPLOTCUSTOMDPI
 70
   300
  0
XRECORD
  5
63F
102
{ACAD_REACTORS
330
63E
102
}
330
63E
100
AcDbXrecord
102
SHADEPLOT
 70
     0
102
SHADEPLOTRESLEVEL
 70
     2
102
SHADEPLOTCUSTOMDPI
 70
   300
  0
ENDSEC
  0
EOF
