  0
SECTION
  2
HEADER
  9
$ACADVER
  1
AC1015
  9
$ACADMAINTVER
 70
     6
  9
$DWGCODEPAGE
  3
ANSI_1252
  9
$INSBASE
 10
0.0
 20
0.0
 30
0.0
  9
$EXTMIN
 10
-7.42103511386188
 20
-0.0258883476483184
 30
0.0
  9
$EXTMAX
 10
7.42103511386188
 20
11.39419059000624
 30
0.0
  9
$LIMMIN
 10
0.0
 20
0.0
  9
$LIMMAX
 10
16.0
 20
21.0
  9
$ORTHOMODE
 70
     1
  9
$REGENMODE
 70
     1
  9
$FILLMODE
 70
     1
  9
$QTEXTMODE
 70
     0
  9
$MIRRTEXT
 70
     0
  9
$LTSCALE
 40
0.5
  9
$ATTMODE
 70
     1
  9
$TEXTSIZE
 40
0.18
  9
$TRACEWID
 40
0.05
  9
$TEXTSTYLE
  7
STANDARD
  9
$CLAYER
  8
0
  9
$CELTYPE
  6
BYLAYER
  9
$CECOLOR
 62
   256
  9
$CELTSCALE
 40
1.0
  9
$DISPSILH
 70
     0
  9
$DIMSCALE
 40
2.0
  9
$DIMASZ
 40
0.125
  9
$DIMEXO
 40
0.062
  9
$DIMDLI
 40
0.375
  9
$DIMRND
 40
0.0
  9
$DIMDLE
 40
0.0
  9
$DIMEXE
 40
0.08
  9
$DIMTP
 40
0.0
  9
$DIMTM
 40
0.0
  9
$DIMTXT
 40
0.09
  9
$DIMCEN
 40
-0.06
  9
$DIMTSZ
 40
0.0
  9
$DIMTOL
 70
     0
  9
$DIMLIM
 70
     0
  9
$DIMTIH
 70
     1
  9
$DIMTOH
 70
     1
  9
$DIMSE1
 70
     0
  9
$DIMSE2
 70
     0
  9
$DIMTAD
 70
     0
  9
$DIMZIN
 70
     0
  9
$DIMBLK
  1

  9
$DIMASO
 70
     0
  9
$DIMSHO
 70
     1
  9
$DIMPOST
  1

  9
$DIMAPOST
  1

  9
$DIMALT
 70
     0
  9
$DIMALTD
 70
     2
  9
$DIMALTF
 40
25.4
  9
$DIMLFAC
 40
1.0
  9
$DIMTOFL
 70
     0
  9
$DIMTVP
 40
0.0
  9
$DIMTIX
 70
     0
  9
$DIMSOXD
 70
     0
  9
$DIMSAH
 70
     0
  9
$DIMBLK1
  1

  9
$DIMBLK2
  1

  9
$DIMSTYLE
  2
STANDARD
  9
$DIMCLRD
 70
     0
  9
$DIMCLRE
 70
     0
  9
$DIMCLRT
 70
     0
  9
$DIMTFAC
 40
1.0
  9
$DIMGAP
 40
0.09
  9
$DIMJUST
 70
     0
  9
$DIMSD1
 70
     0
  9
$DIMSD2
 70
     0
  9
$DIMTOLJ
 70
     1
  9
$DIMTZIN
 70
     0
  9
$DIMALTZ
 70
     0
  9
$DIMALTTZ
 70
     0
  9
$DIMUPT
 70
     0
  9
$DIMDEC
 70
     5
  9
$DIMTDEC
 70
     5
  9
$DIMALTU
 70
     5
  9
$DIMALTTD
 70
     2
  9
$DIMTXSTY
  7
STANDARD
  9
$DIMAUNIT
 70
     0
  9
$DIMADEC
 70
     0
  9
$DIMALTRND
 40
0.0
  9
$DIMAZIN
 70
     0
  9
$DIMDSEP
 70
    46
  9
$DIMATFIT
 70
     3
  9
$DIMFRAC
 70
     0
  9
$DIMLDRBLK
  1

  9
$DIMLUNIT
 70
     5
  9
$DIMLWD
 70
    -2
  9
$DIMLWE
 70
    -2
  9
$DIMTMOVE
 70
     2
  9
$LUNITS
 70
     5
  9
$LUPREC
 70
     5
  9
$SKETCHINC
 40
0.1
  9
$FILLETRAD
 40
0.0
  9
$AUNITS
 70
     0
  9
$AUPREC
 70
     0
  9
$MENU
  1
acad
  9
$ELEVATION
 40
0.0
  9
$PELEVATION
 40
0.0
  9
$THICKNESS
 40
0.0
  9
$LIMCHECK
 70
     0
  9
$CHAMFERA
 40
0.0
  9
$CHAMFERB
 40
0.0
  9
$CHAMFERC
 40
0.0
  9
$CHAMFERD
 40
0.0
  9
$SKPOLY
 70
     0
  9
$TDCREATE
 40
2450717.67620162
  9
$TDUCREATE
 40
2450718.009534954
  9
$TDUPDATE
 40
2454175.696298183
  9
$TDUUPDATE
 40
2454176.029631516
  9
$TDINDWG
 40
0.2232925694
  9
$TDUSRTIMER
 40
0.2232925694
  9
$USRTIMER
 70
     1
  9
$ANGBASE
 50
0.0
  9
$ANGDIR
 70
     0
  9
$PDMODE
 70
     0
  9
$PDSIZE
 40
0.0
  9
$PLINEWID
 40
0.0
  9
$SPLFRAME
 70
     0
  9
$SPLINETYPE
 70
     6
  9
$SPLINESEGS
 70
     8
  9
$HANDSEED
  5
321
  9
$SURFTAB1
 70
     6
  9
$SURFTAB2
 70
     6
  9
$SURFTYPE
 70
     6
  9
$SURFU
 70
     6
  9
$SURFV
 70
     6
  9
$UCSBASE
  2

  9
$UCSNAME
  2

  9
$UCSORG
 10
0.0
 20
0.0
 30
0.0
  9
$UCSXDIR
 10
1.0
 20
0.0
 30
0.0
  9
$UCSYDIR
 10
0.0
 20
1.0
 30
0.0
  9
$UCSORTHOREF
  2

  9
$UCSORTHOVIEW
 70
     0
  9
$UCSORGTOP
 10
0.0
 20
0.0
 30
0.0
  9
$UCSORGBOTTOM
 10
0.0
 20
0.0
 30
0.0
  9
$UCSORGLEFT
 10
0.0
 20
0.0
 30
0.0
  9
$UCSORGRIGHT
 10
0.0
 20
0.0
 30
0.0
  9
$UCSORGFRONT
 10
0.0
 20
0.0
 30
0.0
  9
$UCSORGBACK
 10
0.0
 20
0.0
 30
0.0
  9
$PUCSBASE
  2

  9
$PUCSNAME
  2

  9
$PUCSORG
 10
0.0
 20
0.0
 30
0.0
  9
$PUCSXDIR
 10
1.0
 20
0.0
 30
0.0
  9
$PUCSYDIR
 10
0.0
 20
1.0
 30
0.0
  9
$PUCSORTHOREF
  2

  9
$PUCSORTHOVIEW
 70
     0
  9
$PUCSORGTOP
 10
0.0
 20
0.0
 30
0.0
  9
$PUCSORGBOTTOM
 10
0.0
 20
0.0
 30
0.0
  9
$PUCSORGLEFT
 10
0.0
 20
0.0
 30
0.0
  9
$PUCSORGRIGHT
 10
0.0
 20
0.0
 30
0.0
  9
$PUCSORGFRONT
 10
0.0
 20
0.0
 30
0.0
  9
$PUCSORGBACK
 10
0.0
 20
0.0
 30
0.0
  9
$USERI1
 70
     0
  9
$USERI2
 70
     0
  9
$USERI3
 70
     0
  9
$USERI4
 70
     0
  9
$USERI5
 70
     0
  9
$USERR1
 40
0.0
  9
$USERR2
 40
0.0
  9
$USERR3
 40
0.0
  9
$USERR4
 40
0.0
  9
$USERR5
 40
0.0
  9
$WORLDVIEW
 70
     1
  9
$SHADEDGE
 70
     3
  9
$SHADEDIF
 70
    70
  9
$TILEMODE
 70
     1
  9
$MAXACTVP
 70
    16
  9
$PINSBASE
 10
0.0
 20
0.0
 30
0.0
  9
$PLIMCHECK
 70
     0
  9
$PEXTMIN
 10
1.000000000000000E+20
 20
1.000000000000000E+20
 30
1.000000000000000E+20
  9
$PEXTMAX
 10
-1.000000000000000E+20
 20
-1.000000000000000E+20
 30
-1.000000000000000E+20
  9
$PLIMMIN
 10
0.0
 20
0.0
  9
$PLIMMAX
 10
12.0
 20
9.0
  9
$UNITMODE
 70
     0
  9
$VISRETAIN
 70
     0
  9
$PLINEGEN
 70
     0
  9
$PSLTSCALE
 70
     0
  9
$TREEDEPTH
 70
  3020
  9
$CMLSTYLE
  2
STANDARD
  9
$CMLJUST
 70
     0
  9
$CMLSCALE
 40
1.0
  9
$PROXYGRAPHICS
 70
     1
  9
$MEASUREMENT
 70
     0
  9
$CELWEIGHT
370
    -1
  9
$ENDCAPS
280
     0
  9
$JOINSTYLE
280
     0
  9
$LWDISPLAY
290
     0
  9
$INSUNITS
 70
     0
  9
$HYPERLINKBASE
  1

  9
$STYLESHEET
  1

  9
$XEDIT
290
     1
  9
$CEPSNTYPE
380
     0
  9
$PSTYLEMODE
290
     1
  9
$FINGERPRINTGUID
  2
{A56850FF-C481-11D5-BE3F-00508B5FCD51}
  9
$VERSIONGUID
  2
{3DE24BEF-A259-4E00-9E33-292AB03AFBF2}
  9
$EXTNAMES
290
     1
  9
$PSVPSCALE
 40
0.0
  9
$OLESTARTUP
290
     0
  0
ENDSEC
  0
SECTION
  2
CLASSES
  0
CLASS
  1
DICTIONARYVAR
  2
AcDbDictionaryVar
  3
AutoCAD 2000
 90
        0
280
     0
281
     0
  0
CLASS
  1
LWPOLYLINE
  2
AcDbPolyline
  3
AutoCAD 2000
 90
        0
280
     0
281
     1
  0
CLASS
  1
ACDBDICTIONARYWDFLT
  2
AcDbDictionaryWithDefault
  3
AutoCAD 2000
 90
        0
280
     0
281
     0
  0
CLASS
  1
ACDBPLACEHOLDER
  2
AcDbPlaceHolder
  3
ObjectDBX Classes
 90
        0
280
     0
281
     0
  0
CLASS
  1
LAYOUT
  2
AcDbLayout
  3
ObjectDBX Classes
 90
        0
280
     0
281
     0
  0
CLASS
  1
LONG_TRANSACTION
  2
AcDbLongTransaction
  3
ObjectDBX Classes
 90
   -65536
280
     1
281
     0
  0
CLASS
  1
LWPOLYLINE
  2
AcDbPolyline
  3
AutoCAD 2000
 90
        0
280
     0
281
     1
  0
CLASS
  1
HATCH
  2
AcDbHatch
  3
AutoCAD 2000
 90
        0
280
     0
281
     1
  0
CLASS
  1
XRECORD
  2
AcDbXrecord
  3
AutoCAD 2000
 90
        0
280
     0
281
     0
  0
CLASS
  1
LONG_TRANSACTION
  2
AcDbLongTransaction
  3
ObjectDBX Classes
 90
   -65536
280
     1
281
     0
  0
CLASS
  1
LWPOLYLINE
  2
AcDbPolyline
  3
AutoCAD 2000
 90
        0
280
     0
281
     1
  0
CLASS
  1
HATCH
  2
AcDbHatch
  3
AutoCAD 2000
 90
        0
280
     0
281
     1
  0
CLASS
  1
XRECORD
  2
AcDbXrecord
  3
AutoCAD 2000
 90
        0
280
     0
281
     0
  0
CLASS
  1
LONG_TRANSACTION
  2
AcDbLongTransaction
  3
ObjectDBX Classes
 90
   -65536
280
     1
281
     0
  0
CLASS
  1
LWPOLYLINE
  2
AcDbPolyline
  3
AutoCAD 2000
 90
        0
280
     0
281
     1
  0
CLASS
  1
HATCH
  2
AcDbHatch
  3
AutoCAD 2000
 90
        0
280
     0
281
     1
  0
CLASS
  1
XRECORD
  2
AcDbXrecord
  3
AutoCAD 2000
 90
        0
280
     0
281
     0
  0
CLASS
  1
LONG_TRANSACTION
  2
AcDbLongTransaction
  3
ObjectDBX Classes
 90
   -65536
280
     1
281
     0
  0
CLASS
  1
LWPOLYLINE
  2
AcDbPolyline
  3
AutoCAD 2000
 90
        0
280
     0
281
     1
  0
CLASS
  1
HATCH
  2
AcDbHatch
  3
AutoCAD 2000
 90
        0
280
     0
281
     1
  0
CLASS
  1
XRECORD
  2
AcDbXrecord
  3
AutoCAD 2000
 90
        0
280
     0
281
     0
  0
CLASS
  1
LONG_TRANSACTION
  2
AcDbLongTransaction
  3
ObjectDBX Classes
 90
   -65536
280
     1
281
     0
  0
CLASS
  1
LWPOLYLINE
  2
AcDbPolyline
  3
AutoCAD 2000
 90
        0
280
     0
281
     1
  0
CLASS
  1
HATCH
  2
AcDbHatch
  3
AutoCAD 2000
 90
        0
280
     0
281
     1
  0
CLASS
  1
XRECORD
  2
AcDbXrecord
  3
AutoCAD 2000
 90
        0
280
     0
281
     0
  0
CLASS
  1
LONG_TRANSACTION
  2
AcDbLongTransaction
  3
ObjectDBX Classes
 90
   -65536
280
     1
281
     0
  0
CLASS
  1
LWPOLYLINE
  2
AcDbPolyline
  3
AutoCAD 2000
 90
        0
280
     0
281
     1
  0
CLASS
  1
HATCH
  2
AcDbHatch
  3
AutoCAD 2000
 90
        0
280
     0
281
     1
  0
CLASS
  1
XRECORD
  2
AcDbXrecord
  3
AutoCAD 2000
 90
        0
280
     0
281
     0
  0
CLASS
  1
LONG_TRANSACTION
  2
AcDbLongTransaction
  3
ObjectDBX Classes
 90
   -65536
280
     1
281
     0
  0
CLASS
  1
LWPOLYLINE
  2
AcDbPolyline
  3
AutoCAD 2000
 90
        0
280
     0
281
     1
  0
CLASS
  1
HATCH
  2
AcDbHatch
  3
AutoCAD 2000
 90
        0
280
     0
281
     1
  0
CLASS
  1
XRECORD
  2
AcDbXrecord
  3
AutoCAD 2000
 90
        0
280
     0
281
     0
  0
CLASS
  1
LONG_TRANSACTION
  2
AcDbLongTransaction
  3
ObjectDBX Classes
 90
   -65536
280
     1
281
     0
  0
CLASS
  1
LWPOLYLINE
  2
AcDbPolyline
  3
AutoCAD 2000
 90
        0
280
     0
281
     1
  0
CLASS
  1
HATCH
  2
AcDbHatch
  3
AutoCAD 2000
 90
        0
280
     0
281
     1
  0
CLASS
  1
XRECORD
  2
AcDbXrecord
  3
AutoCAD 2000
 90
        0
280
     0
281
     0
  0
CLASS
  1
LONG_TRANSACTION
  2
AcDbLongTransaction
  3
ObjectDBX Classes
 90
   -65536
280
     1
281
     0
  0
CLASS
  1
LWPOLYLINE
  2
AcDbPolyline
  3
AutoCAD 2000
 90
        0
280
     0
281
     1
  0
CLASS
  1
HATCH
  2
AcDbHatch
  3
AutoCAD 2000
 90
        0
280
     0
281
     1
  0
CLASS
  1
XRECORD
  2
AcDbXrecord
  3
AutoCAD 2000
 90
        0
280
     0
281
     0
  0
CLASS
  1
LONG_TRANSACTION
  2
AcDbLongTransaction
  3
ObjectDBX Classes
 90
   -65536
280
     1
281
     0
  0
CLASS
  1
LWPOLYLINE
  2
AcDbPolyline
  3
AutoCAD 2000
 90
        0
280
     0
281
     1
  0
CLASS
  1
HATCH
  2
AcDbHatch
  3
AutoCAD 2000
 90
        0
280
     0
281
     1
  0
CLASS
  1
XRECORD
  2
AcDbXrecord
  3
AutoCAD 2000
 90
        0
280
     0
281
     0
  0
CLASS
  1
LONG_TRANSACTION
  2
AcDbLongTransaction
  3
ObjectDBX Classes
 90
   -65536
280
     1
281
     0
  0
CLASS
  1
LWPOLYLINE
  2
AcDbPolyline
  3
AutoCAD 2000
 90
        0
280
     0
281
     1
  0
CLASS
  1
HATCH
  2
AcDbHatch
  3
AutoCAD 2000
 90
        0
280
     0
281
     1
  0
CLASS
  1
XRECORD
  2
AcDbXrecord
  3
AutoCAD 2000
 90
        0
280
     0
281
     0
  0
CLASS
  1
LONG_TRANSACTION
  2
AcDbLongTransaction
  3
ObjectDBX Classes
 90
   -65536
280
     1
281
     0
  0
CLASS
  1
LWPOLYLINE
  2
AcDbPolyline
  3
AutoCAD 2000
 90
        0
280
     0
281
     1
  0
CLASS
  1
HATCH
  2
AcDbHatch
  3
AutoCAD 2000
 90
        0
280
     0
281
     1
  0
CLASS
  1
XRECORD
  2
AcDbXrecord
  3
AutoCAD 2000
 90
        0
280
     0
281
     0
  0
CLASS
  1
LONG_TRANSACTION
  2
AcDbLongTransaction
  3
ObjectDBX Classes
 90
   -65536
280
     1
281
     0
  0
CLASS
  1
LWPOLYLINE
  2
AcDbPolyline
  3
AutoCAD 2000
 90
        0
280
     0
281
     1
  0
CLASS
  1
HATCH
  2
AcDbHatch
  3
AutoCAD 2000
 90
        0
280
     0
281
     1
  0
CLASS
  1
XRECORD
  2
AcDbXrecord
  3
AutoCAD 2000
 90
        0
280
     0
281
     0
  0
CLASS
  1
LONG_TRANSACTION
  2
AcDbLongTransaction
  3
ObjectDBX Classes
 90
   -65536
280
     1
281
     0
  0
CLASS
  1
LWPOLYLINE
  2
AcDbPolyline
  3
AutoCAD 2000
 90
        0
280
     0
281
     1
  0
CLASS
  1
HATCH
  2
AcDbHatch
  3
AutoCAD 2000
 90
        0
280
     0
281
     1
  0
CLASS
  1
XRECORD
  2
AcDbXrecord
  3
AutoCAD 2000
 90
        0
280
     0
281
     0
  0
CLASS
  1
LONG_TRANSACTION
  2
AcDbLongTransaction
  3
ObjectDBX Classes
 90
   -65536
280
     1
281
     0
  0
CLASS
  1
LWPOLYLINE
  2
AcDbPolyline
  3
AutoCAD 2000
 90
        0
280
     0
281
     1
  0
CLASS
  1
HATCH
  2
AcDbHatch
  3
AutoCAD 2000
 90
        0
280
     0
281
     1
  0
CLASS
  1
XRECORD
  2
AcDbXrecord
  3
AutoCAD 2000
 90
        0
280
     0
281
     0
  0
CLASS
  1
LONG_TRANSACTION
  2
AcDbLongTransaction
  3
ObjectDBX Classes
 90
   -65536
280
     1
281
     0
  0
CLASS
  1
LWPOLYLINE
  2
AcDbPolyline
  3
AutoCAD 2000
 90
        0
280
     0
281
     1
  0
CLASS
  1
HATCH
  2
AcDbHatch
  3
AutoCAD 2000
 90
        0
280
     0
281
     1
  0
CLASS
  1
XRECORD
  2
AcDbXrecord
  3
AutoCAD 2000
 90
        0
280
     0
281
     0
  0
CLASS
  1
LONG_TRANSACTION
  2
AcDbLongTransaction
  3
ObjectDBX Classes
 90
   -65536
280
     1
281
     0
  0
CLASS
  1
LWPOLYLINE
  2
AcDbPolyline
  3
AutoCAD 2000
 90
        0
280
     0
281
     1
  0
CLASS
  1
HATCH
  2
AcDbHatch
  3
AutoCAD 2000
 90
        0
280
     0
281
     1
  0
CLASS
  1
XRECORD
  2
AcDbXrecord
  3
AutoCAD 2000
 90
        0
280
     0
281
     0
  0
CLASS
  1
LONG_TRANSACTION
  2
AcDbLongTransaction
  3
ObjectDBX Classes
 90
   -65536
280
     1
281
     0
  0
CLASS
  1
LWPOLYLINE
  2
AcDbPolyline
  3
AutoCAD 2000
 90
        0
280
     0
281
     1
  0
CLASS
  1
HATCH
  2
AcDbHatch
  3
AutoCAD 2000
 90
        0
280
     0
281
     1
  0
CLASS
  1
XRECORD
  2
AcDbXrecord
  3
AutoCAD 2000
 90
        0
280
     0
281
     0
  0
CLASS
  1
LONG_TRANSACTION
  2
AcDbLongTransaction
  3
ObjectDBX Classes
 90
   -65536
280
     1
281
     0
  0
CLASS
  1
LWPOLYLINE
  2
AcDbPolyline
  3
AutoCAD 2000
 90
        0
280
     0
281
     1
  0
CLASS
  1
HATCH
  2
AcDbHatch
  3
AutoCAD 2000
 90
        0
280
     0
281
     1
  0
CLASS
  1
XRECORD
  2
AcDbXrecord
  3
AutoCAD 2000
 90
        0
280
     0
281
     0
  0
CLASS
  1
LONG_TRANSACTION
  2
AcDbLongTransaction
  3
ObjectDBX Classes
 90
   -65536
280
     1
281
     0
  0
CLASS
  1
LWPOLYLINE
  2
AcDbPolyline
  3
AutoCAD 2000
 90
        0
280
     0
281
     1
  0
CLASS
  1
HATCH
  2
AcDbHatch
  3
AutoCAD 2000
 90
        0
280
     0
281
     1
  0
CLASS
  1
XRECORD
  2
AcDbXrecord
  3
AutoCAD 2000
 90
        0
280
     0
281
     0
  0
CLASS
  1
TABLESTYLE
  2
AcDbTableStyle
  3
ObjectDBX Classes
 90
     2047
280
     1
281
     0
  0
ENDSEC
  0
SECTION
  2
TABLES
  0
TABLE
  2
VPORT
  5
1D
330
0
100
AcDbSymbolTable
 70
     3
  0
VPORT
  5
313
330
1D
100
AcDbSymbolTableRecord
100
AcDbViewportTableRecord
  2
*Active
 70
     0
 10
0.0
 20
0.0
 11
1.0
 21
1.0
 12
4.466229795661125
 22
9.156508127167815
 13
0.0
 23
0.0
 14
0.03125
 24
0.03125
 15
0.25
 25
0.25
 16
0.0
 26
0.0
 36
1.0
 17
0.0
 27
0.0
 37
0.0
 40
21.28823263344733
 41
1.814583333333333
 42
50.0
 43
0.0
 44
0.0
 50
0.0
 51
0.0
 71
     0
 72
   100
 73
     1
 74
     0
 75
     0
 76
     0
 77
     0
 78
     0
281
     0
 65
     1
110
0.0
120
0.0
130
0.0
111
1.0
121
0.0
131
0.0
112
0.0
122
1.0
132
0.0
 79
     0
146
0.0
  0
ENDTAB
  0
TABLE
  2
LTYPE
  5
18
330
0
100
AcDbSymbolTable
 70
     2
  0
LTYPE
  5
19
330
18
100
AcDbSymbolTableRecord
100
AcDbLinetypeTableRecord
  2
BYBLOCK
 70
     0
  3

 72
    65
 73
     0
 40
0.0
  0
LTYPE
  5
1A
330
18
100
AcDbSymbolTableRecord
100
AcDbLinetypeTableRecord
  2
BYLAYER
 70
     0
  3

 72
    65
 73
     0
 40
0.0
  0
LTYPE
  5
A
330
18
100
AcDbSymbolTableRecord
100
AcDbLinetypeTableRecord
  2
CONTINUOUS
 70
     0
  3
Solid line
 72
    65
 73
     0
 40
0.0
  0
LTYPE
  5
301
330
18
100
AcDbSymbolTableRecord
100
AcDbLinetypeTableRecord
  2
HIDDEN
 70
     0
  3
Hidden __ __ __ __ __ __ __ __ __ __ __ __ __ _
 72
    65
 73
     2
 40
0.375
 49
0.25
 74
     0
 49
-0.125
 74
     0
  0
ENDTAB
  0
TABLE
  2
LAYER
  5
14
330
0
100
AcDbSymbolTable
 70
     1
  0
LAYER
  5
6
330
14
100
AcDbSymbolTableRecord
100
AcDbLayerTableRecord
  2
0
 70
     0
 62
     7
  6
CONTINUOUS
370
    -3
390
7
  0
ENDTAB
  0
TABLE
  2
STYLE
  5
15
330
0
100
AcDbSymbolTable
 70
     1
  0
STYLE
  5
16
330
15
100
AcDbSymbolTableRecord
100
AcDbTextStyleTableRecord
  2
STANDARD
 70
     0
 40
0.0
 41
1.0
 50
0.0
 71
     0
 42
0.18
  3
TXT
  4

  0
ENDTAB
  0
TABLE
  2
VIEW
  5
1B
330
0
100
AcDbSymbolTable
 70
     0
  0
ENDTAB
  0
TABLE
  2
UCS
  5
1C
330
0
100
AcDbSymbolTable
 70
     0
  0
ENDTAB
  0
TABLE
  2
APPID
  5
1F
330
0
100
AcDbSymbolTable
 70
     1
  0
APPID
  5
20
330
1F
100
AcDbSymbolTableRecord
100
AcDbRegAppTableRecord
  2
ACAD
 70
     0
  0
ENDTAB
  0
TABLE
  2
DIMSTYLE
  5
21
330
0
100
AcDbSymbolTable
 70
     1
100
AcDbDimStyleTable
  0
DIMSTYLE
105
28
330
21
100
AcDbSymbolTableRecord
100
AcDbDimStyleTableRecord
  2
STANDARD
 70
     0
  3

  4

340
16
  0
ENDTAB
  0
TABLE
  2
BLOCK_RECORD
  5
1
330
0
100
AcDbSymbolTable
 70
     0
  0
BLOCK_RECORD
  5
2
330
1
100
AcDbSymbolTableRecord
100
AcDbBlockTableRecord
  2
*MODEL_SPACE
340
C
  0
BLOCK_RECORD
  5
E
330
1
100
AcDbSymbolTableRecord
100
AcDbBlockTableRecord
  2
*PAPER_SPACE
340
13
  0
ENDTAB
  0
ENDSEC
  0
SECTION
  2
BLOCKS
  0
BLOCK
  5
5
330
2
100
AcDbEntity
  8
0
100
AcDbBlockBegin
  2
*MODEL_SPACE
 70
     0
 10
0.0
 20
0.0
 30
0.0
  3
*MODEL_SPACE
  1

  4

  0
ENDBLK
  5
B
330
2
100
AcDbEntity
  8
0
100
AcDbBlockEnd
  0
BLOCK
  5
11
330
E
100
AcDbEntity
 67
     1
  8
0
100
AcDbBlockBegin
  2
*PAPER_SPACE
 70
     0
 10
0.0
 20
0.0
 30
0.0
  3
*PAPER_SPACE
  1

  4

  0
ENDBLK
  5
12
330
E
100
AcDbEntity
 67
     1
  8
0
100
AcDbBlockEnd
  0
ENDSEC
  0
SECTION
  2
ENTITIES
  0
ARC
  5
28C
330
2
100
AcDbEntity
  8
0
100
AcDbCircle
 10
-0.3691037293837525
 20
5.940379853466096
 30
0.0
 40
0.14765625
100
AcDbArc
 50
280.0
 51
39.99999999999991
  0
ARC
  5
28D
330
2
100
AcDbEntity
  8
0
100
AcDbCircle
 10
-0.3437786407385666
 20
5.963907170999269
 30
0.0
 40
0.0984375
100
AcDbArc
 50
280.0
 51
39.99999999999996
  0
ARC
  5
28E
330
2
100
AcDbEntity
  8
0
100
AcDbCircle
 10
-0.3348256642894327
 20
5.961087755792169
 30
0.0
 40
0.047053125
100
AcDbArc
 50
280.0
 51
40.00000000000006
  0
LINE
  5
28F
330
2
100
AcDbEntity
  8
0
100
AcDbLine
 10
0.1693073209163565
 20
6.687500000000002
 30
0.0
 11
-0.5806926790836435
 21
6.687500000000002
 31
0.0
  0
LINE
  5
290
330
2
100
AcDbEntity
  8
0
100
AcDbLine
 10
-0.255992479579465
 20
6.035291461458874
 30
0.0
 11
-0.5669387508386166
 21
6.405862797335741
 31
0.0
  0
LINE
  5
291
330
2
100
AcDbEntity
  8
0
100
AcDbLine
 10
-0.5669387508386166
 20
6.383000598141292
 30
0.0
 11
-0.2683711408690428
 21
6.027181576327786
 31
0.0
  0
LINE
  5
292
330
2
100
AcDbEntity
  8
0
  6
HIDDEN
100
AcDbLine
 10
-0.3231096790836396
 20
0.0624999999999982
 30
0.0
 11
1.286724320916357
 21
0.0624999999999982
 31
0.0
  0
LINE
  5
293
330
2
100
AcDbEntity
  8
0
100
AcDbLine
 10
-0.3231096790836396
 20
-0.0000000000000018
 30
0.0
 11
1.419307320916361
 21
-0.0000000000000018
 31
0.0
  0
LINE
  5
294
330
2
100
AcDbEntity
  8
0
100
AcDbLine
 10
0.5443073209163565
 20
3.437499999999998
 30
0.0
 11
0.5443073209163565
 21
3.999999999999998
 31
0.0
  0
LINE
  5
295
330
2
100
AcDbEntity
  8
0
100
AcDbLine
 10
1.220433320916357
 20
0.2613739999999982
 30
0.0
 11
0.1693073209163565
 21
1.3125
 31
0.0
  0
ARC
  5
296
330
2
100
AcDbEntity
  8
0
100
AcDbCircle
 10
1.286724721866889
 20
0.1950824999999981
 30
0.0
 40
0.0937502683315312
100
AcDbArc
 50
134.999957195713
 51
225.000042804287
  0
LINE
  5
297
330
2
100
AcDbEntity
  8
0
100
AcDbLine
 10
1.349224320916357
 20
0.0
 30
0.0
 11
1.220433320916357
 21
0.1287909999999979
 31
0.0
  0
LINE
  5
298
330
2
100
AcDbEntity
  8
0
100
AcDbLine
 10
1.419307320916361
 20
-0.0000000000000018
 30
0.0
 11
1.419307320916361
 21
0.0624999999999982
 31
0.0
  0
LINE
  5
299
330
2
100
AcDbEntity
  8
0
100
AcDbLine
 10
1.419307320916361
 20
0.0624999999999982
 30
0.0
 11
1.286724320916357
 21
0.0624999999999982
 31
0.0
  0
LINE
  5
29A
330
2
100
AcDbEntity
  8
0
100
AcDbLine
 10
0.5443073209163565
 20
1.8125
 30
0.0
 11
0.5443073209163565
 21
2.374999999999998
 31
0.0
  0
LINE
  5
29B
330
2
100
AcDbEntity
  8
0
100
AcDbLine
 10
0.2943073209163565
 20
1.6875
 30
0.0
 11
0.4193073209163565
 21
1.6875
 31
0.0
  0
ARC
  5
29C
330
2
100
AcDbEntity
  8
0
100
AcDbCircle
 10
0.4193073209163565
 20
1.8125
 30
0.0
 40
0.125
100
AcDbArc
 50
270.0
 51
0.000000000000007
  0
LINE
  5
29D
330
2
100
AcDbEntity
  8
0
100
AcDbLine
 10
0.1693073209163565
 20
1.5625
 30
0.0
 11
0.1693073209163565
 21
1.3125
 31
0.0
  0
ARC
  5
29E
330
2
100
AcDbEntity
  8
0
100
AcDbCircle
 10
0.2943073209163565
 20
1.5625
 30
0.0
 40
0.125
100
AcDbArc
 50
90.0
 51
180.0
  0
ARC
  5
29F
330
2
100
AcDbEntity
  8
0
100
AcDbCircle
 10
0.3445744113369527
 20
2.268152983097393
 30
0.0
 40
0.1205098456391156
100
AcDbArc
 50
195.0133710020002
 51
212.9226719024527
  0
ARC
  5
2A0
330
2
100
AcDbEntity
  8
0
100
AcDbCircle
 10
0.3445744113369598
 20
2.294347016902568
 30
0.0
 40
0.1205098456391219
100
AcDbArc
 50
147.0773280975492
 51
164.9866289980023
  0
ARC
  5
2A1
330
2
100
AcDbEntity
  8
0
100
AcDbCircle
 10
0.2943073209163698
 20
2.432315913967274
 30
0.0
 40
0.2921159139672973
100
AcDbArc
 50
255.695520493468
 51
269.9999999999973
  0
ARC
  5
2A2
330
2
100
AcDbEntity
  8
0
100
AcDbCircle
 10
0.2943073209163911
 20
2.13018408603269
 30
0.0
 40
0.2921159139672991
100
AcDbArc
 50
90.00000000000696
 51
104.3044795065363
  0
LINE
  5
2A3
330
2
100
AcDbEntity
  8
0
100
AcDbLine
 10
0.2943073209163556
 20
2.140199999999981
 30
0.0
 11
0.2943073209163556
 21
2.42229999999998
 31
0.0
  0
ARC
  5
2A4
330
2
100
AcDbEntity
  8
0
100
AcDbCircle
 10
0.2943073209163556
 20
2.217826592146444
 30
0.0
 40
0.0477265921464642
100
AcDbArc
 50
237.392078984805
 51
270.0
  0
ARC
  5
2A5
330
2
100
AcDbEntity
  8
0
100
AcDbCircle
 10
0.3137232076452454
 20
2.248177122944346
 30
0.0
 40
0.0837561824464313
100
AcDbArc
 50
212.922671902446
 51
237.3920789848017
  0
ARC
  5
2A6
330
2
100
AcDbEntity
  8
0
100
AcDbCircle
 10
0.313723207645249
 20
2.314322877055615
 30
0.0
 40
0.0837561824464359
100
AcDbArc
 50
122.6079210152007
 51
147.077328097556
  0
ARC
  5
2A7
330
2
100
AcDbEntity
  8
0
100
AcDbCircle
 10
0.294307320916352
 20
2.344673407853517
 30
0.0
 40
0.0477265921464639
100
AcDbArc
 50
89.99999999999575
 51
122.6079210151902
  0
ARC
  5
2A8
330
2
100
AcDbEntity
  8
0
100
AcDbCircle
 10
0.2943073209163556
 20
2.232681745733318
 30
0.0
 40
0.0326817457333384
100
AcDbArc
 50
236.4891770443305
 51
270.0
  0
ARC
  5
2A9
330
2
100
AcDbEntity
  8
0
100
AcDbCircle
 10
0.3096779280794406
 20
2.255894671771772
 30
0.0
 40
0.0605222827222085
100
AcDbArc
 50
212.0281066666072
 51
236.489177044329
  0
ARC
  5
2AA
330
2
100
AcDbEntity
  8
0
100
AcDbCircle
 10
0.3341520090055523
 20
2.271204473660637
 30
0.0
 40
0.0893904428827397
100
AcDbArc
 50
194.5265478167965
 51
212.0281066666074
  0
ARC
  5
2AB
330
2
100
AcDbEntity
  8
0
100
AcDbCircle
 10
0.3729210629105983
 20
2.281249999999995
 30
0.0
 40
0.1294398141652858
100
AcDbArc
 50
180.0000000000071
 51
194.5265478168043
  0
ARC
  5
2AC
330
2
100
AcDbEntity
  8
0
100
AcDbCircle
 10
0.3729210629105983
 20
2.281249999999963
 30
0.0
 40
0.1294398141652859
100
AcDbArc
 50
165.4734521831957
 51
179.9999999999929
  0
ARC
  5
2AD
330
2
100
AcDbEntity
  8
0
100
AcDbCircle
 10
0.334152009005563
 20
2.291295526339326
 30
0.0
 40
0.0893904428827503
100
AcDbArc
 50
147.9718933333969
 51
165.4734521832088
  0
ARC
  5
2AE
330
2
100
AcDbEntity
  8
0
100
AcDbCircle
 10
0.3096779280794371
 20
2.306605328228196
 30
0.0
 40
0.0605222827222014
100
AcDbArc
 50
123.5108229556733
 51
147.9718933333944
  0
ARC
  5
2AF
330
2
100
AcDbEntity
  8
0
100
AcDbCircle
 10
0.294307320916352
 20
2.329818254266636
 30
0.0
 40
0.0326817457333449
100
AcDbArc
 50
89.9999999999969
 51
123.5108229556653
  0
ARC
  5
2B0
330
2
100
AcDbEntity
  8
0
100
AcDbCircle
 10
0.1905547698027759
 20
2.281249999999988
 30
0.0
 40
0.0995832506954977
100
AcDbArc
 50
180.0000000000051
 51
203.0157918004528
  0
ARC
  5
2B1
330
2
100
AcDbEntity
  8
0
100
AcDbCircle
 10
0.190554769802783
 20
2.281249999999972
 30
0.0
 40
0.0995832506955026
100
AcDbArc
 50
156.9842081995485
 51
179.9999999999959
  0
ARC
  5
2B2
330
2
100
AcDbEntity
  8
0
100
AcDbCircle
 10
0.2403310753374504
 20
2.251527335705989
 30
0.0
 40
0.1575583950714709
100
AcDbArc
 50
124.7482755454295
 51
129.5636078296161
  0
ARC
  5
2B3
330
2
100
AcDbEntity
  8
0
100
AcDbCircle
 10
0.2729547096908815
 20
2.204497538831278
 30
0.0
 40
0.2147956496571243
100
AcDbArc
 50
115.331079257868
 51
124.7482755454339
  0
ARC
  5
2B4
330
2
100
AcDbEntity
  8
0
100
AcDbCircle
 10
0.2729547096908851
 20
2.358002461168686
 30
0.0
 40
0.2147956496571283
100
AcDbArc
 50
235.2517244545664
 51
244.6689207421319
  0
ARC
  5
2B5
330
2
100
AcDbEntity
  8
0
100
AcDbCircle
 10
0.2403310753374788
 20
2.310972664293958
 30
0.0
 40
0.1575583950714754
100
AcDbArc
 50
230.4363921703718
 51
235.2517244545591
  0
ARC
  5
2B6
330
2
100
AcDbEntity
  8
0
100
AcDbCircle
 10
0.3934075566180075
 20
2.281249999999988
 30
0.0
 40
0.1710688006301704
100
AcDbArc
 50
180.000000000003
 51
195.013371002
  0
ARC
  5
2B7
330
2
100
AcDbEntity
  8
0
100
AcDbCircle
 10
0.3934075566180004
 20
2.281249999999972
 30
0.0
 40
0.1710688006301648
100
AcDbArc
 50
164.9866289980001
 51
179.9999999999976
  0
LINE
  5
2B8
330
2
100
AcDbEntity
  8
0
100
AcDbLine
 10
0.2943073209163565
 20
3.312499999999998
 30
0.0
 11
0.4193073209163565
 21
3.312499999999998
 31
0.0
  0
LINE
  5
2B9
330
2
100
AcDbEntity
  8
0
100
AcDbLine
 10
0.2943073209163565
 20
2.499999999999998
 30
0.0
 11
0.4193073209163565
 21
2.499999999999998
 31
0.0
  0
ARC
  5
2BA
330
2
100
AcDbEntity
  8
0
100
AcDbCircle
 10
0.4193073209163565
 20
2.374999999999998
 30
0.0
 40
0.125
100
AcDbArc
 50
0.000000000000007
 51
90.0
  0
ARC
  5
2BB
330
2
100
AcDbEntity
  8
0
100
AcDbCircle
 10
0.4193073209163565
 20
3.437499999999998
 30
0.0
 40
0.125
100
AcDbArc
 50
270.0
 51
0.000000000000007
  0
LINE
  5
2BC
330
2
100
AcDbEntity
  8
0
100
AcDbLine
 10
0.1693073209163565
 20
3.187499999999998
 30
0.0
 11
0.1693073209163565
 21
2.624999999999998
 31
0.0
  0
ARC
  5
2BD
330
2
100
AcDbEntity
  8
0
100
AcDbCircle
 10
0.2943073209163565
 20
2.624999999999998
 30
0.0
 40
0.125
100
AcDbArc
 50
180.0
 51
270.0
  0
ARC
  5
2BE
330
2
100
AcDbEntity
  8
0
100
AcDbCircle
 10
0.2943073209163565
 20
3.187499999999998
 30
0.0
 40
0.125
100
AcDbArc
 50
90.0
 51
180.0
  0
ARC
  5
2BF
330
2
100
AcDbEntity
  8
0
100
AcDbCircle
 10
0.3445744113369633
 20
3.893152983097393
 30
0.0
 40
0.1205098456391255
100
AcDbArc
 50
195.0133710019981
 51
212.9226719024507
  0
ARC
  5
2C0
330
2
100
AcDbEntity
  8
0
100
AcDbCircle
 10
0.3445744113369704
 20
3.919347016902568
 30
0.0
 40
0.1205098456391318
100
AcDbArc
 50
147.0773280975512
 51
164.9866289980045
  0
ARC
  5
2C1
330
2
100
AcDbEntity
  8
0
100
AcDbCircle
 10
0.294307320916384
 20
3.755184086032685
 30
0.0
 40
0.2921159139673025
100
AcDbArc
 50
90.00000000000557
 51
104.3044795065347
  0
ARC
  5
2C2
330
2
100
AcDbEntity
  8
0
100
AcDbCircle
 10
0.2943073209163556
 20
4.057315913967278
 30
0.0
 40
0.2921159139672973
100
AcDbArc
 50
255.6955204934708
 51
270.0
  0
LINE
  5
2C3
330
2
100
AcDbEntity
  8
0
100
AcDbLine
 10
0.2943073209163556
 20
3.765199999999981
 30
0.0
 11
0.2943073209163556
 21
4.04729999999998
 31
0.0
  0
ARC
  5
2C4
330
2
100
AcDbEntity
  8
0
100
AcDbCircle
 10
0.2943073209163591
 20
3.842826592146446
 30
0.0
 40
0.0477265921464642
100
AcDbArc
 50
237.3920789848004
 51
269.9999999999957
  0
ARC
  5
2C5
330
2
100
AcDbEntity
  8
0
100
AcDbCircle
 10
0.3137232076452312
 20
3.873177122944346
 30
0.0
 40
0.0837561824464216
100
AcDbArc
 50
212.9226719024517
 51
237.3920789848076
  0
ARC
  5
2C6
330
2
100
AcDbEntity
  8
0
100
AcDbCircle
 10
0.3137232076452419
 20
3.939322877055615
 30
0.0
 40
0.0837561824464294
100
AcDbArc
 50
122.6079210151963
 51
147.0773280975516
  0
ARC
  5
2C7
330
2
100
AcDbEntity
  8
0
100
AcDbCircle
 10
0.294307320916352
 20
3.969673407853515
 30
0.0
 40
0.0477265921464639
100
AcDbArc
 50
89.99999999999575
 51
122.6079210151902
  0
ARC
  5
2C8
330
2
100
AcDbEntity
  8
0
100
AcDbCircle
 10
0.2943073209163556
 20
3.857681745733318
 30
0.0
 40
0.0326817457333384
100
AcDbArc
 50
236.4891770443305
 51
270.0
  0
ARC
  5
2C9
330
2
100
AcDbEntity
  8
0
100
AcDbCircle
 10
0.3096779280794371
 20
3.880894671771772
 30
0.0
 40
0.0605222827222065
100
AcDbArc
 50
212.0281066666105
 51
236.4891770443318
  0
ARC
  5
2CA
330
2
100
AcDbEntity
  8
0
100
AcDbCircle
 10
0.334152009005563
 20
3.896204473660637
 30
0.0
 40
0.0893904428827512
100
AcDbArc
 50
194.5265478167934
 51
212.0281066666042
  0
ARC
  5
2CB
330
2
100
AcDbEntity
  8
0
100
AcDbCircle
 10
0.3729210629105983
 20
3.906249999999998
 30
0.0
 40
0.1294398141652862
100
AcDbArc
 50
180.0000000000079
 51
194.5265478168051
  0
ARC
  5
2CC
330
2
100
AcDbEntity
  8
0
100
AcDbCircle
 10
0.3729210629105983
 20
3.906249999999963
 30
0.0
 40
0.1294398141652859
100
AcDbArc
 50
165.473452183195
 51
179.9999999999921
  0
ARC
  5
2CD
330
2
100
AcDbEntity
  8
0
100
AcDbCircle
 10
0.3341520090055594
 20
3.916295526339328
 30
0.0
 40
0.0893904428827452
100
AcDbArc
 50
147.971893333396
 51
165.473452183208
  0
ARC
  5
2CE
330
2
100
AcDbEntity
  8
0
100
AcDbCircle
 10
0.3096779280794371
 20
3.931605328228196
 30
0.0
 40
0.0605222827222014
100
AcDbArc
 50
123.5108229556733
 51
147.9718933333944
  0
ARC
  5
2CF
330
2
100
AcDbEntity
  8
0
100
AcDbCircle
 10
0.294307320916352
 20
3.954818254266636
 30
0.0
 40
0.0326817457333449
100
AcDbArc
 50
89.9999999999969
 51
123.5108229556653
  0
ARC
  5
2D0
330
2
100
AcDbEntity
  8
0
100
AcDbCircle
 10
0.1905547698027759
 20
3.906249999999989
 30
0.0
 40
0.0995832506954953
100
AcDbArc
 50
180.0000000000051
 51
203.0157918004522
  0
ARC
  5
2D1
330
2
100
AcDbEntity
  8
0
100
AcDbCircle
 10
0.1905547698027794
 20
3.906249999999973
 30
0.0
 40
0.0995832506955008
100
AcDbArc
 50
156.984208199548
 51
179.9999999999959
  0
ARC
  5
2D2
330
2
100
AcDbEntity
  8
0
100
AcDbCircle
 10
0.2403310753374788
 20
3.87652733570598
 30
0.0
 40
0.1575583950714934
100
AcDbArc
 50
124.7482755454356
 51
129.563607829622
  0
ARC
  5
2D3
330
2
100
AcDbEntity
  8
0
100
AcDbCircle
 10
0.2729547096908709
 20
3.829497538831278
 30
0.0
 40
0.2147956496571182
100
AcDbArc
 50
115.3310792578657
 51
124.7482755454315
  0
ARC
  5
2D4
330
2
100
AcDbEntity
  8
0
100
AcDbCircle
 10
0.2729547096908744
 20
3.983002461168686
 30
0.0
 40
0.2147956496571222
100
AcDbArc
 50
235.2517244545686
 51
244.6689207421343
  0
ARC
  5
2D5
330
2
100
AcDbEntity
  8
0
100
AcDbCircle
 10
0.2403310753374717
 20
3.935972664293972
 30
0.0
 40
0.157558395071483
100
AcDbArc
 50
230.4363921703775
 51
235.2517244545641
  0
ARC
  5
2D6
330
2
100
AcDbEntity
  8
0
100
AcDbCircle
 10
0.3934075566180075
 20
3.906249999999988
 30
0.0
 40
0.17106880063017
100
AcDbArc
 50
180.0000000000024
 51
195.0133710019995
  0
ARC
  5
2D7
330
2
100
AcDbEntity
  8
0
100
AcDbCircle
 10
0.3934075566179898
 20
3.906249999999972
 30
0.0
 40
0.1710688006301524
100
AcDbArc
 50
164.9866289979996
 51
179.999999999997
  0
LINE
  5
2D8
330
2
100
AcDbEntity
  8
0
100
AcDbLine
 10
0.1693073209163565
 20
6.687500000000002
 30
0.0
 11
0.1693073209163565
 21
4.249999999999998
 31
0.0
  0
LINE
  5
2D9
330
2
100
AcDbEntity
  8
0
100
AcDbLine
 10
0.2943073209163565
 20
4.124999999999998
 30
0.0
 11
0.4193073209163565
 21
4.124999999999998
 31
0.0
  0
ARC
  5
2DA
330
2
100
AcDbEntity
  8
0
100
AcDbCircle
 10
0.4193073209163565
 20
3.999999999999998
 30
0.0
 40
0.125
100
AcDbArc
 50
0.000000000000007
 51
90.0
  0
ARC
  5
2DB
330
2
100
AcDbEntity
  8
0
100
AcDbCircle
 10
0.2943073209163565
 20
4.249999999999998
 30
0.0
 40
0.125
100
AcDbArc
 50
180.0
 51
270.0
  0
LINE
  5
2DC
330
2
100
AcDbEntity
  8
0
100
AcDbLine
 10
-0.64319267908364
 20
0.3124999999999982
 30
0.0
 11
-0.6431926790836435
 21
6.687500000000002
 31
0.0
  0
LINE
  5
2DD
330
2
100
AcDbEntity
  8
0
100
AcDbLine
 10
-0.5806926790836435
 20
6.687500000000002
 30
0.0
 11
-0.58069267908364
 21
0.3124999999999982
 31
0.0
  0
ARC
  5
2DE
330
2
100
AcDbEntity
  8
0
100
AcDbCircle
 10
-0.58069267908364
 20
3.937499999999998
 30
0.0
 40
0.1875
100
AcDbArc
 50
270.0
 51
89.96944200000003
  0
LINE
  5
2DF
330
2
100
AcDbEntity
  8
0
100
AcDbLine
 10
-0.58069267908364
 20
0.3124999999999982
 30
0.0
 11
-0.64319267908364
 21
0.3124999999999982
 31
0.0
  0
LINE
  5
2E0
330
2
100
AcDbEntity
  8
0
100
AcDbLine
 10
-0.4028666905918605
 20
0.2666162084151988
 30
0.0
 11
-0.3289926905918605
 21
0.1927422084151989
 31
0.0
  0
LINE
  5
2E1
330
2
100
AcDbEntity
  8
0
100
AcDbLine
 10
-0.3231096790836396
 20
0.1874999999999982
 30
0.0
 11
-0.3969836790836396
 21
0.2613739999999982
 31
0.0
  0
LINE
  5
2E2
330
2
100
AcDbEntity
  8
0
100
AcDbLine
 10
-0.3231096790836396
 20
0.0624999999999982
 30
0.0
 11
-0.3231096790836396
 21
-0.0000000000000018
 31
0.0
  0
ARC
  5
2E3
330
2
100
AcDbEntity
  8
0
100
AcDbCircle
 10
-0.3952840915423899
 20
0.1264507084151987
 30
0.0
 40
0.0937502683315312
100
AcDbArc
 50
314.999957195713
 51
45.00004280428698
  0
ARC
  5
2E4
330
2
100
AcDbEntity
  8
0
100
AcDbCircle
 10
-0.463275179083638
 20
0.1950825990494671
 30
0.0
 40
0.0937502683315312
100
AcDbArc
 50
44.99995719571303
 51
135.000042804287
  0
LINE
  5
2E5
330
2
100
AcDbEntity
  8
0
100
AcDbLine
 10
-0.52956667908364
 20
0.2613739999999982
 30
0.0
 11
-0.58069267908364
 21
0.3124999999999982
 31
0.0
  0
LINE
  5
2E6
330
2
100
AcDbEntity
  8
0
100
AcDbLine
 10
-0.3266549748796486
 20
5.914749473488717
 30
0.0
 11
-0.5050008404490356
 21
5.883302285491025
 31
0.0
  0
LINE
  5
2E7
330
2
100
AcDbEntity
  8
0
100
AcDbLine
 10
-0.3266851482494779
 20
5.86696515781213
 30
0.0
 11
-0.4991378998158531
 21
5.836557084813562
 31
0.0
  0
LINE
  5
2E8
330
2
100
AcDbEntity
  8
0
100
AcDbLine
 10
-0.3434634906501195
 20
5.794966833685384
 30
0.0
 11
-0.5782661960603193
 21
5.753564781578225
 31
0.0
  0
LINE
  5
2E9
330
2
100
AcDbEntity
  8
0
100
AcDbLine
 10
-0.5782661960603193
 20
5.753564781578225
 30
0.0
 11
-0.5854454629057351
 21
5.794280427116826
 31
0.0
  0
LINE
  5
2EA
330
2
100
AcDbEntity
  8
0
100
AcDbLine
 10
-0.5050008404490356
 20
5.883302285491025
 30
0.0
 11
-0.4991378998158531
 21
5.836557084813562
 31
0.0
  0
LINE
  5
2EB
330
2
100
AcDbEntity
  8
0
100
AcDbLine
 10
-0.5050008404490356
 20
5.883302285491025
 30
0.0
 11
-0.5854454629057351
 21
5.794280427116826
 31
0.0
  0
LINE
  5
2EC
330
2
100
AcDbEntity
  8
0
100
AcDbLine
 10
-0.499006633589957
 20
5.835510499753999
 30
0.0
 11
-0.5782661960603193
 21
5.753564781578225
 31
0.0
  0
LINE
  5
2ED
330
2
100
AcDbEntity
  8
0
100
AcDbLine
 10
-0.5784537509038543
 20
6.324634070962494
 30
0.0
 11
-0.2987808793517992
 21
5.991332921539199
 31
0.0
  0
LINE
  5
2EE
330
2
100
AcDbEntity
  8
0
100
AcDbLine
 10
-0.6431926790836435
 20
6.687500000000002
 30
0.0
 11
-0.5806926790836435
 21
6.687500000000002
 31
0.0
  0
ARC
  5
2EF
330
2
100
AcDbEntity
  8
0
100
AcDbCircle
 10
-0.5292350009038529
 20
6.414637800805553
 30
0.0
 40
0.04921875
100
AcDbArc
 50
180.0000000000001
 51
220.0
  0
ARC
  5
2F0
330
2
100
AcDbEntity
  8
0
100
AcDbCircle
 10
-0.5292350009038529
 20
6.437500000000002
 30
0.0
 40
0.04921875
100
AcDbArc
 50
180.0
 51
219.9999999999998
  0
ENDSEC
  0
SECTION
  2
OBJECTS
  0
DICTIONARY
  5
9
330
0
100
AcDbDictionary
281
     1
  3
ACAD_COLOR
350
2FA
  3
ACAD_GROUP
350
23
  3
ACAD_LAYOUT
350
D
  3
ACAD_MATERIAL
350
2F9
  3
ACAD_MLINESTYLE
350
24
  3
ACAD_PLOTSETTINGS
350
25
  3
ACAD_PLOTSTYLENAME
350
8
  3
ACAD_TABLESTYLE
350
2FB
  3
ACDBHEADERROUNDTRIPXREC
350
31A
  3
AcDbVariableDictionary
350
11F
  0
DICTIONARY
  5
2FA
102
{ACAD_REACTORS
330
9
102
}
330
9
100
AcDbDictionary
281
     1
  0
DICTIONARY
  5
23
102
{ACAD_REACTORS
330
9
102
}
330
9
100
AcDbDictionary
281
     1
  0
DICTIONARY
  5
D
102
{ACAD_REACTORS
330
9
102
}
330
9
100
AcDbDictionary
281
     1
  3
Layout1
350
13
  3
Model
350
C
  0
DICTIONARY
  5
2F9
102
{ACAD_REACTORS
330
9
102
}
330
9
100
AcDbDictionary
281
     1
  0
DICTIONARY
  5
24
102
{ACAD_REACTORS
330
9
102
}
330
9
100
AcDbDictionary
281
     1
  3
STANDARD
350
27
  0
DICTIONARY
  5
25
102
{ACAD_REACTORS
330
9
102
}
330
9
100
AcDbDictionary
281
     1
  0
ACDBDICTIONARYWDFLT
  5
8
102
{ACAD_REACTORS
330
9
102
}
330
9
100
AcDbDictionary
281
     1
  3
Normal
350
7
100
AcDbDictionaryWithDefault
340
7
  0
DICTIONARY
  5
2FB
102
{ACAD_REACTORS
330
9
102
}
330
9
100
AcDbDictionary
281
     1
  3
Standard
350
2FC
  0
DICTIONARY
  5
31A
102
{ACAD_REACTORS
330
9
102
}
330
9
100
AcDbDictionary
281
     1
  3
COLORDICT
350
31B
  3
MATERIALDICT
350
31C
  0
DICTIONARY
  5
11F
102
{ACAD_REACTORS
330
9
102
}
330
9
100
AcDbDictionary
281
     1
  3
CTABLESTYLE
350
308
  3
HIDETEXT
350
319
  0
LAYOUT
  5
13
102
{ACAD_REACTORS
330
D
102
}
102
{ACAD_XDICTIONARY
360
31D
102
}
330
D
100
AcDbPlotSettings
  1

  2
HP LaserJet 2100 Series PS
  4

  6

 40
0.0
 41
0.0
 42
0.0
 43
0.0
 44
0.0
 45
0.0
 46
0.0
 47
0.0
 48
0.0
 49
0.0
140
0.0
141
0.0
142
1.0
143
1.0
 70
   688
 72
     0
 73
     0
 74
     5
  7

 75
    16
147
1.0
148
0.0
149
0.0
100
AcDbLayout
  1
Layout1
 70
     0
 71
     1
 10
0.0
 20
0.0
 11
12.0
 21
9.0
 12
0.0
 22
0.0
 32
0.0
 14
1.000000000000000E+20
 24
1.000000000000000E+20
 34
1.000000000000000E+20
 15
-1.000000000000000E+20
 25
-1.000000000000000E+20
 35
-1.000000000000000E+20
146
0.0
 13
0.0
 23
0.0
 33
0.0
 16
1.0
 26
0.0
 36
0.0
 17
0.0
 27
1.0
 37
0.0
 76
     0
330
E
  0
LAYOUT
  5
C
102
{ACAD_REACTORS
330
D
102
}
102
{ACAD_XDICTIONARY
360
31F
102
}
330
D
100
AcDbPlotSettings
  1

  2
HP LaserJet 2100 Series PS
  4
Letter
  6

 40
5.365749835968018
 41
5.408084392547607
 42
5.4080810546875
 43
5.365753173828125
 44
215.8999938964844
 45
279.3999938964844
 46
0.0
 47
0.0
 48
0.0
 49
0.0
140
0.0
141
0.0
142
1.0
143
1.0
 70
 11952
 72
     0
 73
     1
 74
     0
  7

 75
     0
147
1.0
148
-45.9138349049767
149
3.160184163354331
100
AcDbLayout
  1
Model
 70
     1
 71
     0
 10
0.0
 20
0.0
 11
12.0
 21
9.0
 12
0.0
 22
0.0
 32
0.0
 14
0.0
 24
0.0
 34
0.0
 15
0.0
 25
0.0
 35
0.0
146
0.0
 13
0.0
 23
0.0
 33
0.0
 16
1.0
 26
0.0
 36
0.0
 17
0.0
 27
1.0
 37
0.0
 76
     0
330
2
  0
MLINESTYLE
  5
27
102
{ACAD_REACTORS
330
24
102
}
330
24
100
AcDbMlineStyle
  2
STANDARD
 70
     0
  3

 62
   256
 51
90.0
 52
90.0
 71
     2
 49
0.5
 62
   256
  6
BYLAYER
 49
-0.5
 62
   256
  6
BYLAYER
  0
ACDBPLACEHOLDER
  5
7
102
{ACAD_REACTORS
330
8
102
}
330
8
  0
ACAD_PROXY_OBJECT
  5
2FC
102
{ACAD_REACTORS
330
2FB
102
}
330
2FB
100
AcDbProxyObject
 90
      499
 91
      585
 95
   983063
 70
     0
 93
     1841
310
4214DD185B99185C9928B81E85EB51B8AE3F2E07A17AD46E2B8FC02B5E8DC0F42B1CFD028000000C1008070000C3001FDFF8000000C1003FBFF000000182007F7FE00000030400FEFFC00000060801FDFF8000000C1003FBFF00000018200000000000000681FA0B0000001820100E000186003FBFF000000182007F7FE000
310
00030400FEFFC00000060801FDFF8000000C1003FBFF000000182007F7FE000000304000AD7A3703D0AC73F4160000003040201C00030C007F7FE00000030400FEFFC00000060801FDFF8000000C1003FBFF000000182007F7FE00000030400FEFFC000000608000
340
16
340
16
340
16
 94
        0
  0
XRECORD
  5
31B
102
{ACAD_REACTORS
330
31A
102
}
330
31A
100
AcDbXrecord
340
2FA
  0
XRECORD
  5
31C
102
{ACAD_REACTORS
330
31A
102
}
330
31A
100
AcDbXrecord
340
2F9
  0
DICTIONARYVAR
  5
308
102
{ACAD_REACTORS
330
11F
102
}
330
11F
100
DictionaryVariables
280
     0
  1
STANDARD
  0
DICTIONARYVAR
  5
319
102
{ACAD_REACTORS
330
11F
102
}
330
11F
100
DictionaryVariables
280
     0
  1
0
  0
DICTIONARY
  5
31D
330
13
100
AcDbDictionary
280
     1
281
     1
  3
ACAD_XREC_ROUNDTRIP
360
31E
  0
DICTIONARY
  5
31F
330
C
100
AcDbDictionary
280
     1
281
     1
  3
ACAD_XREC_ROUNDTRIP
360
320
  0
XRECORD
  5
31E
102
{ACAD_REACTORS
330
31D
102
}
330
31D
100
AcDbXrecord
102
SHADEPLOT
 70
     0
102
SHADEPLOTRESLEVEL
 70
     2
102
SHADEPLOTCUSTOMDPI
 70
   300
  0
XRECORD
  5
320
102
{ACAD_REACTORS
330
31F
102
}
330
31F
100
AcDbXrecord
102
SHADEPLOT
 70
     0
102
SHADEPLOTRESLEVEL
 70
     2
102
SHADEPLOTCUSTOMDPI
 70
   300
  0
ENDSEC
  0
EOF
