  0
SECTION
  2
HEADER
  9
$ACADVER
  1
AC1015
  9
$ACADMAINTVER
 70
     6
  9
$DWGCODEPAGE
  3
ANSI_1252
  9
$INSBASE
 10
0.0
 20
0.0
 30
0.0
  9
$EXTMIN
 10
-7.422344206184
 20
-0.0259546231136198
 30
-0.0000000000112498
  9
$EXTMAX
 10
7.421670994377429
 20
11.39453361669714
 30
0.0000000000002956
  9
$LIMMIN
 10
0.0
 20
0.0
  9
$LIMMAX
 10
16.0
 20
21.0
  9
$ORTHOMODE
 70
     1
  9
$REGENMODE
 70
     1
  9
$FILLMODE
 70
     1
  9
$QTEXTMODE
 70
     0
  9
$MIRRTEXT
 70
     0
  9
$LTSCALE
 40
0.5
  9
$ATTMODE
 70
     1
  9
$TEXTSIZE
 40
0.18
  9
$TRACEWID
 40
0.05
  9
$TEXTSTYLE
  7
STANDARD
  9
$CLAYER
  8
0
  9
$CELTYPE
  6
BYLAYER
  9
$CECOLOR
 62
   256
  9
$CELTSCALE
 40
1.0
  9
$DISPSILH
 70
     0
  9
$DIMSCALE
 40
2.0
  9
$DIMASZ
 40
0.125
  9
$DIMEXO
 40
0.062
  9
$DIMDLI
 40
0.375
  9
$DIMRND
 40
0.0
  9
$DIMDLE
 40
0.0
  9
$DIMEXE
 40
0.08
  9
$DIMTP
 40
0.0
  9
$DIMTM
 40
0.0
  9
$DIMTXT
 40
0.09
  9
$DIMCEN
 40
-0.06
  9
$DIMTSZ
 40
0.0
  9
$DIMTOL
 70
     0
  9
$DIMLIM
 70
     0
  9
$DIMTIH
 70
     1
  9
$DIMTOH
 70
     1
  9
$DIMSE1
 70
     0
  9
$DIMSE2
 70
     0
  9
$DIMTAD
 70
     0
  9
$DIMZIN
 70
     0
  9
$DIMBLK
  1

  9
$DIMASO
 70
     0
  9
$DIMSHO
 70
     1
  9
$DIMPOST
  1

  9
$DIMAPOST
  1

  9
$DIMALT
 70
     0
  9
$DIMALTD
 70
     2
  9
$DIMALTF
 40
25.4
  9
$DIMLFAC
 40
1.0
  9
$DIMTOFL
 70
     0
  9
$DIMTVP
 40
0.0
  9
$DIMTIX
 70
     0
  9
$DIMSOXD
 70
     0
  9
$DIMSAH
 70
     0
  9
$DIMBLK1
  1

  9
$DIMBLK2
  1

  9
$DIMSTYLE
  2
STANDARD
  9
$DIMCLRD
 70
     0
  9
$DIMCLRE
 70
     0
  9
$DIMCLRT
 70
     0
  9
$DIMTFAC
 40
1.0
  9
$DIMGAP
 40
0.09
  9
$DIMJUST
 70
     0
  9
$DIMSD1
 70
     0
  9
$DIMSD2
 70
     0
  9
$DIMTOLJ
 70
     1
  9
$DIMTZIN
 70
     0
  9
$DIMALTZ
 70
     0
  9
$DIMALTTZ
 70
     0
  9
$DIMUPT
 70
     0
  9
$DIMDEC
 70
     5
  9
$DIMTDEC
 70
     5
  9
$DIMALTU
 70
     5
  9
$DIMALTTD
 70
     2
  9
$DIMTXSTY
  7
STANDARD
  9
$DIMAUNIT
 70
     0
  9
$DIMADEC
 70
     0
  9
$DIMALTRND
 40
0.0
  9
$DIMAZIN
 70
     0
  9
$DIMDSEP
 70
    46
  9
$DIMATFIT
 70
     3
  9
$DIMFRAC
 70
     0
  9
$DIMLDRBLK
  1

  9
$DIMLUNIT
 70
     5
  9
$DIMLWD
 70
    -2
  9
$DIMLWE
 70
    -2
  9
$DIMTMOVE
 70
     2
  9
$LUNITS
 70
     5
  9
$LUPREC
 70
     5
  9
$SKETCHINC
 40
0.1
  9
$FILLETRAD
 40
0.0
  9
$AUNITS
 70
     0
  9
$AUPREC
 70
     0
  9
$MENU
  1
acad
  9
$ELEVATION
 40
0.0
  9
$PELEVATION
 40
0.0
  9
$THICKNESS
 40
0.0
  9
$LIMCHECK
 70
     0
  9
$CHAMFERA
 40
0.0
  9
$CHAMFERB
 40
0.0
  9
$CHAMFERC
 40
0.0
  9
$CHAMFERD
 40
0.0
  9
$SKPOLY
 70
     0
  9
$TDCREATE
 40
2450717.67620162
  9
$TDUCREATE
 40
2450718.009534954
  9
$TDUPDATE
 40
2454175.695771736
  9
$TDUUPDATE
 40
2454176.02910507
  9
$TDINDWG
 40
0.222953125
  9
$TDUSRTIMER
 40
0.222953125
  9
$USRTIMER
 70
     1
  9
$ANGBASE
 50
0.0
  9
$ANGDIR
 70
     0
  9
$PDMODE
 70
     0
  9
$PDSIZE
 40
0.0
  9
$PLINEWID
 40
0.0
  9
$SPLFRAME
 70
     0
  9
$SPLINETYPE
 70
     6
  9
$SPLINESEGS
 70
     8
  9
$HANDSEED
  5
312
  9
$SURFTAB1
 70
     6
  9
$SURFTAB2
 70
     6
  9
$SURFTYPE
 70
     6
  9
$SURFU
 70
     6
  9
$SURFV
 70
     6
  9
$UCSBASE
  2

  9
$UCSNAME
  2

  9
$UCSORG
 10
0.0
 20
0.0
 30
0.0
  9
$UCSXDIR
 10
1.0
 20
0.0
 30
0.0
  9
$UCSYDIR
 10
0.0
 20
1.0
 30
0.0
  9
$UCSORTHOREF
  2

  9
$UCSORTHOVIEW
 70
     0
  9
$UCSORGTOP
 10
0.0
 20
0.0
 30
0.0
  9
$UCSORGBOTTOM
 10
0.0
 20
0.0
 30
0.0
  9
$UCSORGLEFT
 10
0.0
 20
0.0
 30
0.0
  9
$UCSORGRIGHT
 10
0.0
 20
0.0
 30
0.0
  9
$UCSORGFRONT
 10
0.0
 20
0.0
 30
0.0
  9
$UCSORGBACK
 10
0.0
 20
0.0
 30
0.0
  9
$PUCSBASE
  2

  9
$PUCSNAME
  2

  9
$PUCSORG
 10
0.0
 20
0.0
 30
0.0
  9
$PUCSXDIR
 10
1.0
 20
0.0
 30
0.0
  9
$PUCSYDIR
 10
0.0
 20
1.0
 30
0.0
  9
$PUCSORTHOREF
  2

  9
$PUCSORTHOVIEW
 70
     0
  9
$PUCSORGTOP
 10
0.0
 20
0.0
 30
0.0
  9
$PUCSORGBOTTOM
 10
0.0
 20
0.0
 30
0.0
  9
$PUCSORGLEFT
 10
0.0
 20
0.0
 30
0.0
  9
$PUCSORGRIGHT
 10
0.0
 20
0.0
 30
0.0
  9
$PUCSORGFRONT
 10
0.0
 20
0.0
 30
0.0
  9
$PUCSORGBACK
 10
0.0
 20
0.0
 30
0.0
  9
$USERI1
 70
     0
  9
$USERI2
 70
     0
  9
$USERI3
 70
     0
  9
$USERI4
 70
     0
  9
$USERI5
 70
     0
  9
$USERR1
 40
0.0
  9
$USERR2
 40
0.0
  9
$USERR3
 40
0.0
  9
$USERR4
 40
0.0
  9
$USERR5
 40
0.0
  9
$WORLDVIEW
 70
     1
  9
$SHADEDGE
 70
     3
  9
$SHADEDIF
 70
    70
  9
$TILEMODE
 70
     1
  9
$MAXACTVP
 70
    16
  9
$PINSBASE
 10
0.0
 20
0.0
 30
0.0
  9
$PLIMCHECK
 70
     0
  9
$PEXTMIN
 10
1.000000000000000E+20
 20
1.000000000000000E+20
 30
1.000000000000000E+20
  9
$PEXTMAX
 10
-1.000000000000000E+20
 20
-1.000000000000000E+20
 30
-1.000000000000000E+20
  9
$PLIMMIN
 10
0.0
 20
0.0
  9
$PLIMMAX
 10
12.0
 20
9.0
  9
$UNITMODE
 70
     0
  9
$VISRETAIN
 70
     0
  9
$PLINEGEN
 70
     0
  9
$PSLTSCALE
 70
     0
  9
$TREEDEPTH
 70
  3020
  9
$CMLSTYLE
  2
STANDARD
  9
$CMLJUST
 70
     0
  9
$CMLSCALE
 40
1.0
  9
$PROXYGRAPHICS
 70
     1
  9
$MEASUREMENT
 70
     0
  9
$CELWEIGHT
370
    -1
  9
$ENDCAPS
280
     0
  9
$JOINSTYLE
280
     0
  9
$LWDISPLAY
290
     0
  9
$INSUNITS
 70
     0
  9
$HYPERLINKBASE
  1

  9
$STYLESHEET
  1

  9
$XEDIT
290
     1
  9
$CEPSNTYPE
380
     0
  9
$PSTYLEMODE
290
     1
  9
$FINGERPRINTGUID
  2
{A56850FF-C481-11D5-BE3F-00508B5FCD51}
  9
$VERSIONGUID
  2
{2F822A3A-F9B5-478C-80A4-CC07AF79DD99}
  9
$EXTNAMES
290
     1
  9
$PSVPSCALE
 40
0.0
  9
$OLESTARTUP
290
     0
  0
ENDSEC
  0
SECTION
  2
CLASSES
  0
CLASS
  1
DICTIONARYVAR
  2
AcDbDictionaryVar
  3
AutoCAD 2000
 90
        0
280
     0
281
     0
  0
CLASS
  1
LWPOLYLINE
  2
AcDbPolyline
  3
AutoCAD 2000
 90
        0
280
     0
281
     1
  0
CLASS
  1
ACDBDICTIONARYWDFLT
  2
AcDbDictionaryWithDefault
  3
AutoCAD 2000
 90
        0
280
     0
281
     0
  0
CLASS
  1
ACDBPLACEHOLDER
  2
AcDbPlaceHolder
  3
ObjectDBX Classes
 90
        0
280
     0
281
     0
  0
CLASS
  1
LAYOUT
  2
AcDbLayout
  3
ObjectDBX Classes
 90
        0
280
     0
281
     0
  0
CLASS
  1
LONG_TRANSACTION
  2
AcDbLongTransaction
  3
ObjectDBX Classes
 90
   -65536
280
     1
281
     0
  0
CLASS
  1
LWPOLYLINE
  2
AcDbPolyline
  3
AutoCAD 2000
 90
        0
280
     0
281
     1
  0
CLASS
  1
HATCH
  2
AcDbHatch
  3
AutoCAD 2000
 90
        0
280
     0
281
     1
  0
CLASS
  1
XRECORD
  2
AcDbXrecord
  3
AutoCAD 2000
 90
        0
280
     0
281
     0
  0
CLASS
  1
LONG_TRANSACTION
  2
AcDbLongTransaction
  3
ObjectDBX Classes
 90
   -65536
280
     1
281
     0
  0
CLASS
  1
LWPOLYLINE
  2
AcDbPolyline
  3
AutoCAD 2000
 90
        0
280
     0
281
     1
  0
CLASS
  1
HATCH
  2
AcDbHatch
  3
AutoCAD 2000
 90
        0
280
     0
281
     1
  0
CLASS
  1
XRECORD
  2
AcDbXrecord
  3
AutoCAD 2000
 90
        0
280
     0
281
     0
  0
CLASS
  1
LONG_TRANSACTION
  2
AcDbLongTransaction
  3
ObjectDBX Classes
 90
   -65536
280
     1
281
     0
  0
CLASS
  1
LWPOLYLINE
  2
AcDbPolyline
  3
AutoCAD 2000
 90
        0
280
     0
281
     1
  0
CLASS
  1
HATCH
  2
AcDbHatch
  3
AutoCAD 2000
 90
        0
280
     0
281
     1
  0
CLASS
  1
XRECORD
  2
AcDbXrecord
  3
AutoCAD 2000
 90
        0
280
     0
281
     0
  0
CLASS
  1
LONG_TRANSACTION
  2
AcDbLongTransaction
  3
ObjectDBX Classes
 90
   -65536
280
     1
281
     0
  0
CLASS
  1
LWPOLYLINE
  2
AcDbPolyline
  3
AutoCAD 2000
 90
        0
280
     0
281
     1
  0
CLASS
  1
HATCH
  2
AcDbHatch
  3
AutoCAD 2000
 90
        0
280
     0
281
     1
  0
CLASS
  1
XRECORD
  2
AcDbXrecord
  3
AutoCAD 2000
 90
        0
280
     0
281
     0
  0
CLASS
  1
LONG_TRANSACTION
  2
AcDbLongTransaction
  3
ObjectDBX Classes
 90
   -65536
280
     1
281
     0
  0
CLASS
  1
LWPOLYLINE
  2
AcDbPolyline
  3
AutoCAD 2000
 90
        0
280
     0
281
     1
  0
CLASS
  1
HATCH
  2
AcDbHatch
  3
AutoCAD 2000
 90
        0
280
     0
281
     1
  0
CLASS
  1
XRECORD
  2
AcDbXrecord
  3
AutoCAD 2000
 90
        0
280
     0
281
     0
  0
CLASS
  1
LONG_TRANSACTION
  2
AcDbLongTransaction
  3
ObjectDBX Classes
 90
   -65536
280
     1
281
     0
  0
CLASS
  1
LWPOLYLINE
  2
AcDbPolyline
  3
AutoCAD 2000
 90
        0
280
     0
281
     1
  0
CLASS
  1
HATCH
  2
AcDbHatch
  3
AutoCAD 2000
 90
        0
280
     0
281
     1
  0
CLASS
  1
XRECORD
  2
AcDbXrecord
  3
AutoCAD 2000
 90
        0
280
     0
281
     0
  0
CLASS
  1
LONG_TRANSACTION
  2
AcDbLongTransaction
  3
ObjectDBX Classes
 90
   -65536
280
     1
281
     0
  0
CLASS
  1
LWPOLYLINE
  2
AcDbPolyline
  3
AutoCAD 2000
 90
        0
280
     0
281
     1
  0
CLASS
  1
HATCH
  2
AcDbHatch
  3
AutoCAD 2000
 90
        0
280
     0
281
     1
  0
CLASS
  1
XRECORD
  2
AcDbXrecord
  3
AutoCAD 2000
 90
        0
280
     0
281
     0
  0
CLASS
  1
LONG_TRANSACTION
  2
AcDbLongTransaction
  3
ObjectDBX Classes
 90
   -65536
280
     1
281
     0
  0
CLASS
  1
LWPOLYLINE
  2
AcDbPolyline
  3
AutoCAD 2000
 90
        0
280
     0
281
     1
  0
CLASS
  1
HATCH
  2
AcDbHatch
  3
AutoCAD 2000
 90
        0
280
     0
281
     1
  0
CLASS
  1
XRECORD
  2
AcDbXrecord
  3
AutoCAD 2000
 90
        0
280
     0
281
     0
  0
CLASS
  1
LONG_TRANSACTION
  2
AcDbLongTransaction
  3
ObjectDBX Classes
 90
   -65536
280
     1
281
     0
  0
CLASS
  1
LWPOLYLINE
  2
AcDbPolyline
  3
AutoCAD 2000
 90
        0
280
     0
281
     1
  0
CLASS
  1
HATCH
  2
AcDbHatch
  3
AutoCAD 2000
 90
        0
280
     0
281
     1
  0
CLASS
  1
XRECORD
  2
AcDbXrecord
  3
AutoCAD 2000
 90
        0
280
     0
281
     0
  0
CLASS
  1
LONG_TRANSACTION
  2
AcDbLongTransaction
  3
ObjectDBX Classes
 90
   -65536
280
     1
281
     0
  0
CLASS
  1
LWPOLYLINE
  2
AcDbPolyline
  3
AutoCAD 2000
 90
        0
280
     0
281
     1
  0
CLASS
  1
HATCH
  2
AcDbHatch
  3
AutoCAD 2000
 90
        0
280
     0
281
     1
  0
CLASS
  1
XRECORD
  2
AcDbXrecord
  3
AutoCAD 2000
 90
        0
280
     0
281
     0
  0
CLASS
  1
LONG_TRANSACTION
  2
AcDbLongTransaction
  3
ObjectDBX Classes
 90
   -65536
280
     1
281
     0
  0
CLASS
  1
LWPOLYLINE
  2
AcDbPolyline
  3
AutoCAD 2000
 90
        0
280
     0
281
     1
  0
CLASS
  1
HATCH
  2
AcDbHatch
  3
AutoCAD 2000
 90
        0
280
     0
281
     1
  0
CLASS
  1
XRECORD
  2
AcDbXrecord
  3
AutoCAD 2000
 90
        0
280
     0
281
     0
  0
CLASS
  1
LONG_TRANSACTION
  2
AcDbLongTransaction
  3
ObjectDBX Classes
 90
   -65536
280
     1
281
     0
  0
CLASS
  1
LWPOLYLINE
  2
AcDbPolyline
  3
AutoCAD 2000
 90
        0
280
     0
281
     1
  0
CLASS
  1
HATCH
  2
AcDbHatch
  3
AutoCAD 2000
 90
        0
280
     0
281
     1
  0
CLASS
  1
XRECORD
  2
AcDbXrecord
  3
AutoCAD 2000
 90
        0
280
     0
281
     0
  0
CLASS
  1
LONG_TRANSACTION
  2
AcDbLongTransaction
  3
ObjectDBX Classes
 90
   -65536
280
     1
281
     0
  0
CLASS
  1
LWPOLYLINE
  2
AcDbPolyline
  3
AutoCAD 2000
 90
        0
280
     0
281
     1
  0
CLASS
  1
HATCH
  2
AcDbHatch
  3
AutoCAD 2000
 90
        0
280
     0
281
     1
  0
CLASS
  1
XRECORD
  2
AcDbXrecord
  3
AutoCAD 2000
 90
        0
280
     0
281
     0
  0
CLASS
  1
LONG_TRANSACTION
  2
AcDbLongTransaction
  3
ObjectDBX Classes
 90
   -65536
280
     1
281
     0
  0
CLASS
  1
LWPOLYLINE
  2
AcDbPolyline
  3
AutoCAD 2000
 90
        0
280
     0
281
     1
  0
CLASS
  1
HATCH
  2
AcDbHatch
  3
AutoCAD 2000
 90
        0
280
     0
281
     1
  0
CLASS
  1
XRECORD
  2
AcDbXrecord
  3
AutoCAD 2000
 90
        0
280
     0
281
     0
  0
CLASS
  1
LONG_TRANSACTION
  2
AcDbLongTransaction
  3
ObjectDBX Classes
 90
   -65536
280
     1
281
     0
  0
CLASS
  1
LWPOLYLINE
  2
AcDbPolyline
  3
AutoCAD 2000
 90
        0
280
     0
281
     1
  0
CLASS
  1
HATCH
  2
AcDbHatch
  3
AutoCAD 2000
 90
        0
280
     0
281
     1
  0
CLASS
  1
XRECORD
  2
AcDbXrecord
  3
AutoCAD 2000
 90
        0
280
     0
281
     0
  0
CLASS
  1
LONG_TRANSACTION
  2
AcDbLongTransaction
  3
ObjectDBX Classes
 90
   -65536
280
     1
281
     0
  0
CLASS
  1
LWPOLYLINE
  2
AcDbPolyline
  3
AutoCAD 2000
 90
        0
280
     0
281
     1
  0
CLASS
  1
HATCH
  2
AcDbHatch
  3
AutoCAD 2000
 90
        0
280
     0
281
     1
  0
CLASS
  1
XRECORD
  2
AcDbXrecord
  3
AutoCAD 2000
 90
        0
280
     0
281
     0
  0
CLASS
  1
LONG_TRANSACTION
  2
AcDbLongTransaction
  3
ObjectDBX Classes
 90
   -65536
280
     1
281
     0
  0
CLASS
  1
LWPOLYLINE
  2
AcDbPolyline
  3
AutoCAD 2000
 90
        0
280
     0
281
     1
  0
CLASS
  1
HATCH
  2
AcDbHatch
  3
AutoCAD 2000
 90
        0
280
     0
281
     1
  0
CLASS
  1
XRECORD
  2
AcDbXrecord
  3
AutoCAD 2000
 90
        0
280
     0
281
     0
  0
CLASS
  1
LONG_TRANSACTION
  2
AcDbLongTransaction
  3
ObjectDBX Classes
 90
   -65536
280
     1
281
     0
  0
CLASS
  1
LWPOLYLINE
  2
AcDbPolyline
  3
AutoCAD 2000
 90
        0
280
     0
281
     1
  0
CLASS
  1
HATCH
  2
AcDbHatch
  3
AutoCAD 2000
 90
        0
280
     0
281
     1
  0
CLASS
  1
XRECORD
  2
AcDbXrecord
  3
AutoCAD 2000
 90
        0
280
     0
281
     0
  0
CLASS
  1
LONG_TRANSACTION
  2
AcDbLongTransaction
  3
ObjectDBX Classes
 90
   -65536
280
     1
281
     0
  0
CLASS
  1
LWPOLYLINE
  2
AcDbPolyline
  3
AutoCAD 2000
 90
        0
280
     0
281
     1
  0
CLASS
  1
HATCH
  2
AcDbHatch
  3
AutoCAD 2000
 90
        0
280
     0
281
     1
  0
CLASS
  1
XRECORD
  2
AcDbXrecord
  3
AutoCAD 2000
 90
        0
280
     0
281
     0
  0
CLASS
  1
LONG_TRANSACTION
  2
AcDbLongTransaction
  3
ObjectDBX Classes
 90
   -65536
280
     1
281
     0
  0
CLASS
  1
LWPOLYLINE
  2
AcDbPolyline
  3
AutoCAD 2000
 90
        0
280
     0
281
     1
  0
CLASS
  1
HATCH
  2
AcDbHatch
  3
AutoCAD 2000
 90
        0
280
     0
281
     1
  0
CLASS
  1
XRECORD
  2
AcDbXrecord
  3
AutoCAD 2000
 90
        0
280
     0
281
     0
  0
CLASS
  1
TABLESTYLE
  2
AcDbTableStyle
  3
ObjectDBX Classes
 90
     2047
280
     1
281
     0
  0
ENDSEC
  0
SECTION
  2
TABLES
  0
TABLE
  2
VPORT
  5
1D
330
0
100
AcDbSymbolTable
 70
     2
  0
VPORT
  5
302
330
1D
100
AcDbSymbolTableRecord
100
AcDbViewportTableRecord
  2
*Active
 70
     0
 10
0.0
 20
0.0
 11
1.0
 21
1.0
 12
4.288827896908001
 22
10.48702268844319
 13
0.0
 23
0.0
 14
0.03125
 24
0.03125
 15
0.25
 25
0.25
 16
0.0
 26
0.0
 36
1.0
 17
0.0
 27
0.0
 37
0.0
 40
21.28823264336036
 41
1.814583333333333
 42
50.0
 43
0.0
 44
0.0
 50
0.0
 51
0.0
 71
     0
 72
   100
 73
     1
 74
     0
 75
     0
 76
     0
 77
     0
 78
     0
281
     0
 65
     1
110
0.0
120
0.0
130
0.0
111
1.0
121
0.0
131
0.0
112
0.0
122
1.0
132
0.0
 79
     0
146
0.0
  0
ENDTAB
  0
TABLE
  2
LTYPE
  5
18
330
0
100
AcDbSymbolTable
 70
     2
  0
LTYPE
  5
19
330
18
100
AcDbSymbolTableRecord
100
AcDbLinetypeTableRecord
  2
BYBLOCK
 70
     0
  3

 72
    65
 73
     0
 40
0.0
  0
LTYPE
  5
1A
330
18
100
AcDbSymbolTableRecord
100
AcDbLinetypeTableRecord
  2
BYLAYER
 70
     0
  3

 72
    65
 73
     0
 40
0.0
  0
LTYPE
  5
A
330
18
100
AcDbSymbolTableRecord
100
AcDbLinetypeTableRecord
  2
CONTINUOUS
 70
     0
  3
Solid line
 72
    65
 73
     0
 40
0.0
  0
LTYPE
  5
301
330
18
100
AcDbSymbolTableRecord
100
AcDbLinetypeTableRecord
  2
HIDDEN
 70
     0
  3
Hidden __ __ __ __ __ __ __ __ __ __ __ __ __ _
 72
    65
 73
     2
 40
0.375
 49
0.25
 74
     0
 49
-0.125
 74
     0
  0
ENDTAB
  0
TABLE
  2
LAYER
  5
14
330
0
100
AcDbSymbolTable
 70
     2
  0
LAYER
  5
6
330
14
100
AcDbSymbolTableRecord
100
AcDbLayerTableRecord
  2
0
 70
     0
 62
     7
  6
CONTINUOUS
370
    -3
390
7
  0
ENDTAB
  0
TABLE
  2
STYLE
  5
15
330
0
100
AcDbSymbolTable
 70
     2
  0
STYLE
  5
16
330
15
100
AcDbSymbolTableRecord
100
AcDbTextStyleTableRecord
  2
STANDARD
 70
     0
 40
0.0
 41
1.0
 50
0.0
 71
     0
 42
0.18
  3
TXT
  4

  0
ENDTAB
  0
TABLE
  2
VIEW
  5
1B
330
0
100
AcDbSymbolTable
 70
     0
  0
ENDTAB
  0
TABLE
  2
UCS
  5
1C
330
0
100
AcDbSymbolTable
 70
     0
  0
ENDTAB
  0
TABLE
  2
APPID
  5
1F
330
0
100
AcDbSymbolTable
 70
     1
  0
APPID
  5
20
330
1F
100
AcDbSymbolTableRecord
100
AcDbRegAppTableRecord
  2
ACAD
 70
     0
  0
ENDTAB
  0
TABLE
  2
DIMSTYLE
  5
21
330
0
100
AcDbSymbolTable
 70
     1
100
AcDbDimStyleTable
  0
DIMSTYLE
105
28
330
21
100
AcDbSymbolTableRecord
100
AcDbDimStyleTableRecord
  2
STANDARD
 70
     0
  3

  4

340
16
  0
ENDTAB
  0
TABLE
  2
BLOCK_RECORD
  5
1
330
0
100
AcDbSymbolTable
 70
     0
  0
BLOCK_RECORD
  5
2
330
1
100
AcDbSymbolTableRecord
100
AcDbBlockTableRecord
  2
*MODEL_SPACE
340
C
  0
BLOCK_RECORD
  5
E
330
1
100
AcDbSymbolTableRecord
100
AcDbBlockTableRecord
  2
*PAPER_SPACE
340
13
  0
ENDTAB
  0
ENDSEC
  0
SECTION
  2
BLOCKS
  0
BLOCK
  5
5
330
2
100
AcDbEntity
  8
0
100
AcDbBlockBegin
  2
*MODEL_SPACE
 70
     0
 10
0.0
 20
0.0
 30
0.0
  3
*MODEL_SPACE
  1

  4

  0
ENDBLK
  5
B
330
2
100
AcDbEntity
  8
0
100
AcDbBlockEnd
  0
BLOCK
  5
11
330
E
100
AcDbEntity
 67
     1
  8
0
100
AcDbBlockBegin
  2
*PAPER_SPACE
 70
     0
 10
0.0
 20
0.0
 30
0.0
  3
*PAPER_SPACE
  1

  4

  0
ENDBLK
  5
12
330
E
100
AcDbEntity
 67
     1
  8
0
100
AcDbBlockEnd
  0
ENDSEC
  0
SECTION
  2
ENTITIES
  0
LINE
  5
12B
330
2
100
AcDbEntity
  8
0
100
AcDbLine
 10
-0.71875
 20
0.0625
 30
0.0
 11
0.71875
 21
0.0625
 31
0.0
  0
LINE
  5
12C
330
2
100
AcDbEntity
  8
0
100
AcDbLine
 10
0.71875
 20
0.0
 30
0.0
 11
-0.71875
 21
0.0
 31
0.0
  0
LINE
  5
12D
330
2
100
AcDbEntity
  8
0
100
AcDbLine
 10
-0.7812499999999965
 20
6.687500000000002
 30
0.0
 11
-0.78125
 21
0.125
 31
0.0
  0
LINE
  5
12E
330
2
100
AcDbEntity
  8
0
100
AcDbLine
 10
-0.84375
 20
0.125
 30
0.0
 11
-0.8437499999999965
 21
6.687500000000002
 31
0.0
  0
LINE
  5
12F
330
2
100
AcDbEntity
  8
0
100
AcDbLine
 10
-1.843749999999997
 20
6.687500000000002
 30
0.0
 11
-1.843749999999997
 21
4.406249999999998
 31
0.0
  0
ARC
  5
130
330
2
100
AcDbEntity
  8
0
100
AcDbCircle
 10
-1.718749999999999
 20
1.71875
 30
0.0
 40
0.125
100
AcDbArc
 50
90.0
 51
180.0
  0
ARC
  5
131
330
2
100
AcDbEntity
  8
0
100
AcDbCircle
 10
-0.71875
 20
0.125
 30
0.0
 40
0.125
100
AcDbArc
 50
180.0
 51
270.0
  0
ARC
  5
132
330
2
100
AcDbEntity
  8
0
100
AcDbCircle
 10
-0.71875
 20
0.125
 30
0.0
 40
0.0625
100
AcDbArc
 50
180.0
 51
270.0
  0
LINE
  5
133
330
2
100
AcDbEntity
  8
0
100
AcDbLine
 10
-0.84375
 20
0.3125
 30
0.0
 11
-1.843749999999999
 21
1.3125
 31
0.0
  0
LINE
  5
134
330
2
100
AcDbEntity
  8
0
100
AcDbLine
 10
-1.843749999999999
 20
1.71875
 30
0.0
 11
-1.843749999999999
 21
1.3125
 31
0.0
  0
CIRCLE
  5
135
330
2
100
AcDbEntity
  8
0
100
AcDbCircle
 10
-1.593749999999999
 20
1.40625
 30
0.0
 40
0.078125
  0
ARC
  5
136
330
2
100
AcDbEntity
  8
0
100
AcDbCircle
 10
-1.593749999999997
 20
3.593749999999998
 30
0.0
 40
0.125
100
AcDbArc
 50
270.0
 51
0.0
  0
ARC
  5
137
330
2
100
AcDbEntity
  8
0
100
AcDbCircle
 10
-1.718749999999997
 20
3.343749999999998
 30
0.0
 40
0.125
100
AcDbArc
 50
90.0
 51
180.0
  0
ARC
  5
138
330
2
100
AcDbEntity
  8
0
100
AcDbCircle
 10
-1.593749999999997
 20
2.531249999999998
 30
0.0
 40
0.125
100
AcDbArc
 50
0.0
 51
90.0
  0
LINE
  5
139
330
2
100
AcDbEntity
  8
0
100
AcDbLine
 10
-1.468749999999999
 20
1.96875
 30
0.0
 11
-1.468749999999997
 21
2.531249999999998
 31
0.0
  0
ARC
  5
13A
330
2
100
AcDbEntity
  8
0
100
AcDbCircle
 10
-1.593749999999999
 20
1.96875
 30
0.0
 40
0.125
100
AcDbArc
 50
270.0
 51
0.0
  0
LINE
  5
13B
330
2
100
AcDbEntity
  8
0
100
AcDbLine
 10
-1.718749999999999
 20
1.84375
 30
0.0
 11
-1.593749999999999
 21
1.84375
 31
0.0
  0
ARC
  5
13C
330
2
100
AcDbEntity
  8
0
100
AcDbCircle
 10
-1.718749999999997
 20
2.781249999999998
 30
0.0
 40
0.125
100
AcDbArc
 50
180.0
 51
270.0
  0
LINE
  5
13D
330
2
100
AcDbEntity
  8
0
100
AcDbLine
 10
-1.843749999999997
 20
3.343749999999998
 30
0.0
 11
-1.843749999999997
 21
2.781249999999998
 31
0.0
  0
LINE
  5
13E
330
2
100
AcDbEntity
  8
0
100
AcDbLine
 10
-1.718749999999997
 20
2.656249999999998
 30
0.0
 11
-1.593749999999997
 21
2.656249999999998
 31
0.0
  0
ARC
  5
13F
330
2
100
AcDbEntity
  8
0
100
AcDbCircle
 10
-0.8779639453513033
 20
2.140345297469228
 30
0.0
 40
0.0641141099904249
100
AcDbArc
 50
57.74817661148467
 51
86.14191405494718
  0
ARC
  5
140
330
2
100
AcDbEntity
  8
0
100
AcDbCircle
 10
-0.8775427711919468
 20
2.140424958421948
 30
0.0
 40
0.033793519957573
100
AcDbArc
 50
359.6185877246035
 51
83.38525270417924
  0
ARC
  5
141
330
2
100
AcDbEntity
  8
0
100
AcDbCircle
 10
-0.8779639453513033
 20
2.422154702530742
 30
0.0
 40
0.0641141099904249
100
AcDbArc
 50
273.858085945053
 51
302.2518233885159
  0
ARC
  5
142
330
2
100
AcDbEntity
  8
0
100
AcDbCircle
 10
-0.8775427711919468
 20
2.422075041578021
 30
0.0
 40
0.033793519957573
100
AcDbArc
 50
276.614747295821
 51
0.38141227539666
  0
ARC
  5
145
330
2
100
AcDbEntity
  8
0
100
AcDbCircle
 10
-1.718749999999997
 20
4.406249999999998
 30
0.0
 40
0.125
100
AcDbArc
 50
180.0
 51
270.0
  0
ARC
  5
146
330
2
100
AcDbEntity
  8
0
100
AcDbCircle
 10
-1.593749999999997
 20
4.156249999999998
 30
0.0
 40
0.125
100
AcDbArc
 50
0.0
 51
90.0
  0
LINE
  5
147
330
2
100
AcDbEntity
  8
0
100
AcDbLine
 10
-1.468749999999997
 20
3.593749999999998
 30
0.0
 11
-1.468749999999997
 21
4.156249999999998
 31
0.0
  0
LINE
  5
148
330
2
100
AcDbEntity
  8
0
100
AcDbLine
 10
-1.718749999999997
 20
3.468749999999998
 30
0.0
 11
-1.593749999999997
 21
3.468749999999998
 31
0.0
  0
CIRCLE
  5
149
330
2
100
AcDbEntity
  8
0
100
AcDbCircle
 10
-1.593749999999997
 20
4.499999999999998
 30
0.0
 40
0.078125
  0
LINE
  5
14A
330
2
100
AcDbEntity
  8
0
100
AcDbLine
 10
-1.718749999999997
 20
4.281249999999998
 30
0.0
 11
-1.593749999999997
 21
4.281249999999998
 31
0.0
  0
ARC
  5
14B
330
2
100
AcDbEntity
  8
0
100
AcDbCircle
 10
-0.8779639453513033
 20
3.765345297469228
 30
0.0
 40
0.0641141099904249
100
AcDbArc
 50
57.74817661148467
 51
86.14191405494718
  0
ARC
  5
14C
330
2
100
AcDbEntity
  8
0
100
AcDbCircle
 10
-0.8775427711919441
 20
3.765424958421948
 30
0.0
 40
0.033793519957573
100
AcDbArc
 50
359.6185877246035
 51
83.38525270417924
  0
ARC
  5
14D
330
2
100
AcDbEntity
  8
0
100
AcDbCircle
 10
-0.8779639453513033
 20
4.047154702530742
 30
0.0
 40
0.0641141099904249
100
AcDbArc
 50
273.858085945053
 51
302.2518233885159
  0
ARC
  5
14E
330
2
100
AcDbEntity
  8
0
100
AcDbCircle
 10
-0.8775427711919441
 20
4.047075041578024
 30
0.0
 40
0.033793519957573
100
AcDbArc
 50
276.614747295821
 51
0.38141227539666
  0
ARC
  5
14F
330
2
100
AcDbEntity
  8
0
100
AcDbCircle
 10
-0.84375
 20
3.937499999999998
 30
0.0
 40
0.1875
100
AcDbArc
 50
90.0
 51
270.0000000000005
  0
LINE
  5
152
330
2
100
AcDbEntity
  8
0
100
AcDbLine
 10
-1.843749999999997
 20
6.687500000000002
 30
0.0
 11
-0.8437499999999965
 21
6.687500000000002
 31
0.0
  0
CIRCLE
  5
153
330
2
100
AcDbEntity
  8
0
100
AcDbCircle
 10
-1.593749999999997
 20
6.281250000000002
 30
0.0
 40
0.078125
  0
LINE
  5
155
330
2
100
AcDbEntity
  8
0
100
AcDbLine
 10
-0.8437499999999965
 20
6.687500000000002
 30
0.0
 11
-0.7812499999999965
 21
6.687500000000002
 31
0.0
  0
LINE
  5
156
330
2
100
AcDbEntity
  8
0
100
AcDbLine
 10
0.78125
 20
0.125
 30
0.0
 11
0.7812500000000053
 21
6.687500000000002
 31
0.0
  0
LINE
  5
157
330
2
100
AcDbEntity
  8
0
100
AcDbLine
 10
0.8437500000000053
 20
6.687500000000002
 30
0.0
 11
0.84375
 21
0.125
 31
0.0
  0
LINE
  5
158
330
2
100
AcDbEntity
  8
0
100
AcDbLine
 10
1.843750000000005
 20
6.687500000000002
 30
0.0
 11
1.843750000000004
 21
4.249999999999998
 31
0.0
  0
ARC
  5
159
330
2
100
AcDbEntity
  8
0
100
AcDbCircle
 10
1.593750000000002
 20
1.8125
 30
0.0
 40
0.125
100
AcDbArc
 50
180.0
 51
270.0
  0
LINE
  5
15A
330
2
100
AcDbEntity
  8
0
100
AcDbLine
 10
0.84375
 20
0.3125
 30
0.0
 11
1.843750000000002
 21
1.3125
 31
0.0
  0
ARC
  5
15B
330
2
100
AcDbEntity
  8
0
100
AcDbCircle
 10
0.71875
 20
0.125
 30
0.0
 40
0.0625
100
AcDbArc
 50
270.0
 51
0.0
  0
ARC
  5
15C
330
2
100
AcDbEntity
  8
0
100
AcDbCircle
 10
0.71875
 20
0.125
 30
0.0
 40
0.125
100
AcDbArc
 50
270.0
 51
0.0
  0
LINE
  5
15D
330
2
100
AcDbEntity
  8
0
100
AcDbLine
 10
1.843750000000002
 20
1.5625
 30
0.0
 11
1.843750000000002
 21
1.3125
 31
0.0
  0
CIRCLE
  5
15E
330
2
100
AcDbEntity
  8
0
100
AcDbCircle
 10
1.593750000000002
 20
1.40625
 30
0.0
 40
0.078125
  0
LINE
  5
15F
330
2
100
AcDbEntity
  8
0
100
AcDbLine
 10
1.718750000000002
 20
1.6875
 30
0.0
 11
1.593750000000002
 21
1.6875
 31
0.0
  0
ARC
  5
160
330
2
100
AcDbEntity
  8
0
100
AcDbCircle
 10
1.718750000000002
 20
1.5625
 30
0.0
 40
0.125
100
AcDbArc
 50
0.0
 51
90.0
  0
ARC
  5
161
330
2
100
AcDbEntity
  8
0
100
AcDbCircle
 10
1.593750000000002
 20
2.374999999999998
 30
0.0
 40
0.125
100
AcDbArc
 50
90.0
 51
180.0
  0
ARC
  5
162
330
2
100
AcDbEntity
  8
0
100
AcDbCircle
 10
1.593750000000004
 20
3.437499999999998
 30
0.0
 40
0.125
100
AcDbArc
 50
180.0
 51
270.0
  0
ARC
  5
163
330
2
100
AcDbEntity
  8
0
100
AcDbCircle
 10
1.593750000000004
 20
3.999999999999998
 30
0.0
 40
0.125
100
AcDbArc
 50
90.0
 51
180.0
  0
LINE
  5
164
330
2
100
AcDbEntity
  8
0
100
AcDbLine
 10
1.468750000000004
 20
3.437499999999998
 30
0.0
 11
1.468750000000004
 21
3.999999999999998
 31
0.0
  0
ARC
  5
165
330
2
100
AcDbEntity
  8
0
100
AcDbCircle
 10
0.8779639453513033
 20
2.172154702530756
 30
0.0
 40
0.0641141099904249
100
AcDbArc
 50
237.7481766114841
 51
266.141914054947
  0
ARC
  5
166
330
2
100
AcDbEntity
  8
0
100
AcDbCircle
 10
0.8775427711919468
 20
1.890424958421962
 30
0.0
 40
0.033793519957573
100
AcDbArc
 50
96.61474729582074
 51
180.3814122753964
  0
ARC
  5
167
330
2
100
AcDbEntity
  8
0
100
AcDbCircle
 10
0.8779639453513033
 20
1.890345297469242
 30
0.0
 40
0.0641141099904249
100
AcDbArc
 50
93.85808594505281
 51
122.2518233885153
  0
ARC
  5
169
330
2
100
AcDbEntity
  8
0
100
AcDbCircle
 10
0.8775427711919468
 20
2.172075041578035
 30
0.0
 40
0.033793519957573
100
AcDbArc
 50
179.6185877246033
 51
263.385252704179
  0
LINE
  5
16B
330
2
100
AcDbEntity
  8
0
100
AcDbLine
 10
1.468750000000002
 20
1.8125
 30
0.0
 11
1.468750000000002
 21
2.374999999999998
 31
0.0
  0
ARC
  5
16C
330
2
100
AcDbEntity
  8
0
100
AcDbCircle
 10
0.8437500000000018
 20
3.937499999999998
 30
0.0
 40
0.1875
100
AcDbArc
 50
285.1922852982302
 51
90.0
  0
ARC
  5
16D
330
2
100
AcDbEntity
  8
0
100
AcDbCircle
 10
0.8779639453513042
 20
3.515345297469239
 30
0.0
 40
0.0641141099904249
100
AcDbArc
 50
93.85808594505281
 51
122.2518233885153
  0
ARC
  5
16E
330
2
100
AcDbEntity
  8
0
100
AcDbCircle
 10
0.8779639453513042
 20
3.797154702530753
 30
0.0
 40
0.0641141099904249
100
AcDbArc
 50
237.7481766114841
 51
266.141914054947
  0
ARC
  5
170
330
2
100
AcDbEntity
  8
0
100
AcDbCircle
 10
0.8775427711919495
 20
3.797075041578031
 30
0.0
 40
0.033793519957573
100
AcDbArc
 50
179.6185877246033
 51
263.385252704179
  0
ARC
  5
172
330
2
100
AcDbEntity
  8
0
100
AcDbCircle
 10
0.8775427711919495
 20
3.515424958421958
 30
0.0
 40
0.033793519957573
100
AcDbArc
 50
96.61474729582074
 51
180.3814122753964
  0
ARC
  5
173
330
2
100
AcDbEntity
  8
0
100
AcDbCircle
 10
1.718750000000002
 20
2.624999999999998
 30
0.0
 40
0.125
100
AcDbArc
 50
270.0
 51
0.0
  0
LINE
  5
174
330
2
100
AcDbEntity
  8
0
100
AcDbLine
 10
1.718750000000002
 20
2.499999999999998
 30
0.0
 11
1.593750000000002
 21
2.499999999999998
 31
0.0
  0
LINE
  5
175
330
2
100
AcDbEntity
  8
0
100
AcDbLine
 10
1.843750000000002
 20
3.187499999999998
 30
0.0
 11
1.843750000000002
 21
2.624999999999998
 31
0.0
  0
LINE
  5
176
330
2
100
AcDbEntity
  8
0
100
AcDbLine
 10
1.718750000000002
 20
3.312499999999998
 30
0.0
 11
1.593750000000002
 21
3.312499999999998
 31
0.0
  0
ARC
  5
177
330
2
100
AcDbEntity
  8
0
100
AcDbCircle
 10
1.718750000000002
 20
3.187499999999998
 30
0.0
 40
0.125
100
AcDbArc
 50
0.0
 51
90.0
  0
LINE
  5
178
330
2
100
AcDbEntity
  8
0
100
AcDbLine
 10
1.718750000000004
 20
4.124999999999998
 30
0.0
 11
1.593750000000004
 21
4.124999999999998
 31
0.0
  0
ARC
  5
179
330
2
100
AcDbEntity
  8
0
100
AcDbCircle
 10
1.718750000000004
 20
4.249999999999998
 30
0.0
 40
0.125
100
AcDbArc
 50
270.0
 51
0.0
  0
CIRCLE
  5
17A
330
2
100
AcDbEntity
  8
0
100
AcDbCircle
 10
1.593750000000004
 20
4.499999999999998
 30
0.0
 40
0.078125
  0
LINE
  5
17B
330
2
100
AcDbEntity
  8
0
100
AcDbLine
 10
1.843750000000005
 20
6.687500000000002
 30
0.0
 11
0.8437500000000053
 21
6.687500000000002
 31
0.0
  0
LINE
  5
17D
330
2
100
AcDbEntity
  8
0
100
AcDbLine
 10
0.7812500000000053
 20
6.687500000000002
 30
0.0
 11
0.8437500000000053
 21
6.687500000000002
 31
0.0
  0
CIRCLE
  5
17E
330
2
100
AcDbEntity
  8
0
100
AcDbCircle
 10
1.593750000000004
 20
6.281250000000002
 30
0.0
 40
0.078125
  0
LINE
  5
17F
330
2
100
AcDbEntity
  8
0
100
AcDbLine
 10
0.0
 20
9.305802242357919
 30
0.0
 11
-0.6875
 21
9.305802242357919
 31
0.0
  0
LINE
  5
180
330
2
100
AcDbEntity
  8
0
100
AcDbLine
 10
0.0
 20
11.05580224235792
 30
0.0
 11
-0.6875
 21
11.05580224235792
 31
0.0
  0
ARC
  5
181
330
2
100
AcDbEntity
  8
0
100
AcDbCircle
 10
-0.9084499999999975
 20
10.74362655283342
 30
0.0
 40
0.0647
100
AcDbArc
 50
314.9999999999999
 51
0.0000000000001158
  0
LINE
  5
182
330
2
100
AcDbEntity
  8
0
100
AcDbLine
 10
-0.84375
 20
11.24330224235792
 30
0.0
 11
-0.84375
 21
9.50088521376429
 31
0.0
  0
LINE
  5
183
330
2
100
AcDbEntity
  8
0
100
AcDbLine
 10
-1.843750000000001
 20
11.30580224235792
 30
0.0
 11
-0.9062500000000009
 21
11.30580224235792
 31
0.0
  0
LINE
  5
184
330
2
100
AcDbEntity
  8
0
100
AcDbLine
 10
-0.9062500000000009
 20
11.36830224235792
 30
0.0
 11
-1.843750000000001
 21
11.36830224235792
 31
0.0
  0
LINE
  5
185
330
2
100
AcDbEntity
  8
0
100
AcDbLine
 10
-1.843750000000001
 20
11.36830224235792
 30
0.0
 11
-1.843750000000001
 21
11.30580224235792
 31
0.0
  0
ARC
  5
186
330
2
100
AcDbEntity
  8
0
100
AcDbCircle
 10
-0.9062500000000009
 20
11.24330224235792
 30
0.0
 40
0.0625
100
AcDbArc
 50
0.0
 51
90.00000000000003
  0
ARC
  5
187
330
2
100
AcDbEntity
  8
0
100
AcDbCircle
 10
-0.9062500000000009
 20
11.24330224235792
 30
0.0
 40
0.125
100
AcDbArc
 50
0.0
 51
90.00000000000003
  0
LINE
  5
189
330
2
100
AcDbEntity
  8
0
100
AcDbLine
 10
-0.78125
 20
9.438384742357917
 30
0.0
 11
-0.78125
 21
11.24330224235792
 31
0.0
  0
ARC
  5
18A
330
2
100
AcDbEntity
  8
0
100
AcDbCircle
 10
-0.7812497961904903
 20
11.05580227179061
 30
0.0
 40
0.0937497961904958
100
AcDbArc
 50
269.9998754405321
 51
359.9999820120257
  0
LINE
  5
18B
330
2
100
AcDbEntity
  8
0
100
AcDbLine
 10
-0.9865269119345816
 20
10.50899619954413
 30
0.0
 11
-0.8437499999999991
 21
10.43080224235792
 31
0.0
  0
LINE
  5
18C
330
2
100
AcDbEntity
  8
0
100
AcDbLine
 10
-1.019053823869164
 20
10.54152311147872
 30
0.0
 11
-0.8627001912572281
 21
10.69787674409065
 31
0.0
  0
LINE
  5
18D
330
2
100
AcDbEntity
  8
0
100
AcDbLine
 10
-0.9865269119345816
 20
10.50899619954413
 30
0.0
 11
-1.019053823869164
 21
10.54152311147872
 31
0.0
  0
LINE
  5
18E
330
2
100
AcDbEntity
  8
0
100
AcDbLine
 10
-0.84375
 20
9.50088521376429
 30
0.0
 11
-0.7149590000000003
 21
9.372093242357918
 31
0.0
  0
ARC
  5
18F
330
2
100
AcDbEntity
  8
0
100
AcDbCircle
 10
-0.7812499756018063
 20
9.305801730990611
 30
0.0
 40
0.0937499756032012
100
AcDbArc
 50
0.0003125247576568
 51
45.00023153210226
  0
LINE
  5
190
330
2
100
AcDbEntity
  8
0
100
AcDbLine
 10
0.90625
 20
11.36830224235792
 30
0.0
 11
1.84375
 21
11.36830224235792
 31
0.0
  0
LINE
  5
191
330
2
100
AcDbEntity
  8
0
100
AcDbLine
 10
1.84375
 20
11.30580224235792
 30
0.0
 11
0.90625
 21
11.30580224235792
 31
0.0
  0
ARC
  5
192
330
2
100
AcDbEntity
  8
0
100
AcDbCircle
 10
0.9084499999999993
 20
10.74362655283342
 30
0.0
 40
0.0647
100
AcDbArc
 50
179.9999999999999
 51
225.0000000000001
  0
LINE
  5
193
330
2
100
AcDbEntity
  8
0
100
AcDbLine
 10
0.84375
 20
11.24330224235792
 30
0.0
 11
0.84375
 21
9.500654952754699
 31
0.0
  0
LINE
  5
194
330
2
100
AcDbEntity
  8
0
100
AcDbLine
 10
0.0
 20
11.05580224235792
 30
0.0
 11
0.6875
 21
11.05580224235792
 31
0.0
  0
LINE
  5
195
330
2
100
AcDbEntity
  8
0
100
AcDbLine
 10
0.78125
 20
9.438384742357917
 30
0.0
 11
0.78125
 21
11.24330224235792
 31
0.0
  0
ARC
  5
196
330
2
100
AcDbEntity
  8
0
100
AcDbCircle
 10
0.90625
 20
11.24330224235792
 30
0.0
 40
0.125
100
AcDbArc
 50
90.00000000000003
 51
180.0
  0
ARC
  5
197
330
2
100
AcDbEntity
  8
0
100
AcDbCircle
 10
0.90625
 20
11.24330224235792
 30
0.0
 40
0.0625
100
AcDbArc
 50
90.00000000000003
 51
180.0
  0
ARC
  5
198
330
2
100
AcDbEntity
  8
0
100
AcDbCircle
 10
0.7812497961904921
 20
11.05580227179061
 30
0.0
 40
0.0937497961904967
100
AcDbArc
 50
180.0000179879748
 51
270.0001245594669
  0
LINE
  5
19A
330
2
100
AcDbEntity
  8
0
100
AcDbLine
 10
0.0
 20
9.305802242357919
 30
0.0
 11
0.6875
 21
9.305802242357919
 31
0.0
  0
LINE
  5
19B
330
2
100
AcDbEntity
  8
0
100
AcDbLine
 10
0.9865269119345834
 20
10.50899619954413
 30
0.0
 11
1.019053823869165
 21
10.54152311147872
 31
0.0
  0
LINE
  5
19C
330
2
100
AcDbEntity
  8
0
100
AcDbLine
 10
1.019053823869165
 20
10.54152311147872
 30
0.0
 11
0.8627001912572299
 21
10.69787674409065
 31
0.0
  0
LINE
  5
19D
330
2
100
AcDbEntity
  8
0
100
AcDbLine
 10
0.9865269119345834
 20
10.50899619954413
 30
0.0
 11
0.8437500000000009
 21
10.43080224235792
 31
0.0
  0
LINE
  5
19E
330
2
100
AcDbEntity
  8
0
100
AcDbLine
 10
0.8475410000000014
 20
9.504676242357919
 30
0.0
 11
0.7149590000000003
 21
9.372093242357918
 31
0.0
  0
ARC
  5
19F
330
2
100
AcDbEntity
  8
0
100
AcDbCircle
 10
0.7812499756018099
 20
9.305801730990615
 30
0.0
 40
0.0937499756032038
100
AcDbArc
 50
134.9997684678985
 51
179.9996874752428
  0
LINE
  5
1A0
330
2
100
AcDbEntity
  8
0
100
AcDbLine
 10
1.84375
 20
11.36830224235792
 30
0.0
 11
1.84375
 21
11.30580224235792
 31
0.0
  0
LINE
  5
1A1
330
2
100
AcDbEntity
  8
0
100
AcDbLine
 10
7.421035113861876
 20
0.3124999999999982
 30
0.0
 11
7.42103511386188
 21
6.687500000000002
 31
0.0
  0
LINE
  5
1A2
330
2
100
AcDbEntity
  8
0
100
AcDbLine
 10
7.35853511386188
 20
6.687500000000002
 30
0.0
 11
7.358535113861876
 21
0.3124999999999982
 31
0.0
  0
LINE
  5
1A3
330
2
100
AcDbEntity
  8
0
100
AcDbLine
 10
6.60853511386188
 20
6.687500000000002
 30
0.0
 11
6.60853511386188
 21
4.249999999999998
 31
0.0
  0
ARC
  5
1A4
330
2
100
AcDbEntity
  8
0
100
AcDbCircle
 10
6.35853511386188
 20
1.8125
 30
0.0
 40
0.125
100
AcDbArc
 50
180.0
 51
270.0
  0
LINE
  5
1A5
330
2
100
AcDbEntity
  8
0
  6
HIDDEN
100
AcDbLine
 10
7.100952113861876
 20
0.0624999999999982
 30
0.0
 11
5.491118113861879
 21
0.0624999999999982
 31
0.0
  0
LINE
  5
1A6
330
2
100
AcDbEntity
  8
0
100
AcDbLine
 10
7.100952113861876
 20
-0.0000000000000018
 30
0.0
 11
5.358535113861875
 21
-0.0000000000000018
 31
0.0
  0
LINE
  5
1A9
330
2
100
AcDbEntity
  8
0
100
AcDbLine
 10
5.358535113861875
 20
0.0624999999999982
 30
0.0
 11
5.491118113861879
 21
0.0624999999999982
 31
0.0
  0
LINE
  5
1AA
330
2
100
AcDbEntity
  8
0
100
AcDbLine
 10
5.358535113861875
 20
-0.0000000000000018
 30
0.0
 11
5.358535113861875
 21
0.0624999999999982
 31
0.0
  0
LINE
  5
1AB
330
2
100
AcDbEntity
  8
0
100
AcDbLine
 10
5.557409113861879
 20
0.2613739999999982
 30
0.0
 11
6.60853511386188
 21
1.3125
 31
0.0
  0
ARC
  5
1AC
330
2
100
AcDbEntity
  8
0
100
AcDbCircle
 10
6.48353511386188
 20
1.5625
 30
0.0
 40
0.125
100
AcDbArc
 50
0.0
 51
90.0
  0
LINE
  5
1AD
330
2
100
AcDbEntity
  8
0
100
AcDbLine
 10
6.60853511386188
 20
1.5625
 30
0.0
 11
6.60853511386188
 21
1.3125
 31
0.0
  0
LINE
  5
1AE
330
2
100
AcDbEntity
  8
0
100
AcDbLine
 10
6.48353511386188
 20
1.6875
 30
0.0
 11
6.35853511386188
 21
1.6875
 31
0.0
  0
LINE
  5
1AF
330
2
100
AcDbEntity
  8
0
100
AcDbLine
 10
7.100952113861876
 20
0.0624999999999982
 30
0.0
 11
7.100952113861876
 21
-0.0000000000000018
 31
0.0
  0
LINE
  5
1B0
330
2
100
AcDbEntity
  8
0
100
AcDbLine
 10
7.307409113861876
 20
0.2613739999999982
 30
0.0
 11
7.358535113861876
 21
0.3124999999999982
 31
0.0
  0
LINE
  5
1B2
330
2
100
AcDbEntity
  8
0
100
AcDbLine
 10
7.358535113861876
 20
0.3124999999999982
 30
0.0
 11
7.421035113861876
 21
0.3124999999999982
 31
0.0
  0
LINE
  5
1B3
330
2
100
AcDbEntity
  8
0
100
AcDbLine
 10
6.23353511386188
 20
3.437499999999998
 30
0.0
 11
6.23353511386188
 21
3.999999999999998
 31
0.0
  0
ARC
  5
1B4
330
2
100
AcDbEntity
  8
0
100
AcDbCircle
 10
6.48353511386188
 20
2.624999999999998
 30
0.0
 40
0.125
100
AcDbArc
 50
270.0
 51
0.0
  0
LINE
  5
1B7
330
2
100
AcDbEntity
  8
0
100
AcDbLine
 10
6.23353511386188
 20
1.8125
 30
0.0
 11
6.23353511386188
 21
2.374999999999998
 31
0.0
  0
LINE
  5
1B9
330
2
100
AcDbEntity
  8
0
100
AcDbLine
 10
6.48353511386188
 20
1.890200000000002
 30
0.0
 11
6.48353511386188
 21
2.172300000000002
 31
0.0
  0
LINE
  5
1BD
330
2
100
AcDbEntity
  8
0
100
AcDbLine
 10
6.48353511386188
 20
2.499999999999998
 30
0.0
 11
6.35853511386188
 21
2.499999999999998
 31
0.0
  0
ARC
  5
1BE
330
2
100
AcDbEntity
  8
0
100
AcDbCircle
 10
6.35853511386188
 20
2.374999999999998
 30
0.0
 40
0.125
100
AcDbArc
 50
90.0
 51
180.0
  0
ARC
  5
1C0
330
2
100
AcDbEntity
  8
0
100
AcDbCircle
 10
6.48353511386188
 20
3.187499999999998
 30
0.0
 40
0.125
100
AcDbArc
 50
0.0
 51
90.0
  0
LINE
  5
1C1
330
2
100
AcDbEntity
  8
0
100
AcDbLine
 10
6.60853511386188
 20
3.187499999999998
 30
0.0
 11
6.60853511386188
 21
2.624999999999998
 31
0.0
  0
LINE
  5
1C2
330
2
100
AcDbEntity
  8
0
100
AcDbLine
 10
6.48353511386188
 20
3.312499999999998
 30
0.0
 11
6.35853511386188
 21
3.312499999999998
 31
0.0
  0
ARC
  5
1C3
330
2
100
AcDbEntity
  8
0
100
AcDbCircle
 10
6.35853511386188
 20
3.437499999999998
 30
0.0
 40
0.125
100
AcDbArc
 50
180.0
 51
270.0
  0
ARC
  5
1C6
330
2
100
AcDbEntity
  8
0
100
AcDbCircle
 10
6.48353511386188
 20
4.249999999999998
 30
0.0
 40
0.125
100
AcDbArc
 50
270.0
 51
0.0
  0
LINE
  5
1C8
330
2
100
AcDbEntity
  8
0
100
AcDbLine
 10
6.48353511386188
 20
3.515200000000002
 30
0.0
 11
6.48353511386188
 21
3.797300000000002
 31
0.0
  0
LINE
  5
1CC
330
2
100
AcDbEntity
  8
0
100
AcDbLine
 10
6.48353511386188
 20
4.124999999999998
 30
0.0
 11
6.35853511386188
 21
4.124999999999998
 31
0.0
  0
ARC
  5
1CD
330
2
100
AcDbEntity
  8
0
100
AcDbCircle
 10
6.35853511386188
 20
3.999999999999998
 30
0.0
 40
0.125
100
AcDbArc
 50
90.0
 51
180.0
  0
ARC
  5
1CF
330
2
100
AcDbEntity
  8
0
100
AcDbCircle
 10
7.358535113861876
 20
3.937499999999998
 30
0.0
 40
0.1875
100
AcDbArc
 50
90.03055799999997
 51
270.0
  0
LINE
  5
1D1
330
2
100
AcDbEntity
  8
0
100
AcDbLine
 10
6.60853511386188
 20
6.687500000000002
 30
0.0
 11
7.35853511386188
 21
6.687500000000002
 31
0.0
  0
LINE
  5
1D2
330
2
100
AcDbEntity
  8
0
100
AcDbLine
 10
7.42103511386188
 20
6.687500000000002
 30
0.0
 11
7.35853511386188
 21
6.687500000000002
 31
0.0
  0
ARC
  5
1D3
330
2
100
AcDbEntity
  8
0
100
AcDbCircle
 10
-0.8437500000000098
 20
2.275645815153501
 30
0.0
 40
0.1167541848464813
100
AcDbArc
 50
104.8383959934637
 51
112.000892595471
  0
ARC
  5
1D4
330
2
100
AcDbEntity
  8
0
100
AcDbCircle
 10
-0.8448523233588148
 20
2.278374038837526
 30
0.0
 40
0.1138116822963645
100
AcDbArc
 50
112.0008925954739
 51
134.2879713357528
  0
ARC
  5
1D5
330
2
100
AcDbEntity
  8
0
100
AcDbCircle
 10
-0.846558075737204
 20
2.280122722548077
 30
0.0
 40
0.1113688384831163
100
AcDbArc
 50
134.2879713357499
 51
156.9920431300915
  0
ARC
  5
1D6
330
2
100
AcDbEntity
  8
0
100
AcDbCircle
 10
-0.8492127499219428
 20
2.281249999999989
 30
0.0
 40
0.108484735593012
100
AcDbArc
 50
156.9920431300978
 51
180.0000000000028
  0
ARC
  5
1D7
330
2
100
AcDbEntity
  8
0
100
AcDbCircle
 10
-0.8492127499219562
 20
2.281249999999981
 30
0.0
 40
0.1084847355929988
100
AcDbArc
 50
179.9999999999981
 51
203.0079568699041
  0
ARC
  5
1D8
330
2
100
AcDbEntity
  8
0
100
AcDbCircle
 10
-0.8465580757371951
 20
2.282377277451895
 30
0.0
 40
0.1113688384831247
100
AcDbArc
 50
203.0079568699067
 51
225.7120286642481
  0
ARC
  5
1D9
330
2
100
AcDbEntity
  8
0
100
AcDbCircle
 10
-0.8448523233588139
 20
2.284125961162443
 30
0.0
 40
0.1138116822963664
100
AcDbArc
 50
225.7120286642474
 51
247.999107404526
  0
ARC
  5
1DA
330
2
100
AcDbEntity
  8
0
100
AcDbCircle
 10
-0.8437500000000116
 20
2.286854184846463
 30
0.0
 40
0.1167541848464774
100
AcDbArc
 50
247.9991074045292
 51
255.1616040065367
  0
ARC
  5
1DB
330
2
100
AcDbEntity
  8
0
100
AcDbCircle
 10
-0.8437500000000053
 20
2.256728294244363
 30
0.0
 40
0.1057717057556224
100
AcDbArc
 50
106.4204773143086
 51
109.9326970463591
  0
ARC
  5
1DC
330
2
100
AcDbEntity
  8
0
100
AcDbCircle
 10
-0.8480949105730247
 20
2.268709609596622
 30
0.0
 40
0.0930268964020933
100
AcDbArc
 50
109.9326970463561
 51
131.2018769840329
  0
ARC
  5
1DD
330
2
100
AcDbEntity
  8
0
100
AcDbCircle
 10
-0.8547858053402777
 20
2.276352051940199
 30
0.0
 40
0.0828693869750065
100
AcDbArc
 50
131.2018769840311
 51
154.6801826141931
  0
ARC
  5
1DE
330
2
100
AcDbEntity
  8
0
100
AcDbCircle
 10
-0.8651382254843147
 20
2.281249999999991
 30
0.0
 40
0.0714167672731617
100
AcDbArc
 50
154.6801826142015
 51
180.0000000000057
  0
ARC
  5
1DF
330
2
100
AcDbEntity
  8
0
100
AcDbCircle
 10
-0.8651382254843307
 20
2.281249999999981
 30
0.0
 40
0.0714167672731456
100
AcDbArc
 50
179.9999999999972
 51
205.3198173858014
  0
ARC
  5
1E0
330
2
100
AcDbEntity
  8
0
100
AcDbCircle
 10
-0.8547858053402697
 20
2.286147948059774
 30
0.0
 40
0.0828693869750131
100
AcDbArc
 50
205.3198173858035
 51
228.7981230159655
  0
ARC
  5
1E1
330
2
100
AcDbEntity
  8
0
100
AcDbCircle
 10
-0.8480949105730256
 20
2.29379039040335
 30
0.0
 40
0.0930268964020929
100
AcDbArc
 50
228.7981230159676
 51
250.0673029536444
  0
ARC
  5
1E2
330
2
100
AcDbEntity
  8
0
100
AcDbCircle
 10
-0.8437500000000053
 20
2.305771705755609
 30
0.0
 40
0.1057717057556224
100
AcDbArc
 50
250.067302953641
 51
253.5795226856914
  0
ARC
  5
1E3
330
2
100
AcDbEntity
  8
0
100
AcDbCircle
 10
-0.8437499999999778
 20
3.90064581515351
 30
0.0
 40
0.1167541848464836
100
AcDbArc
 50
104.8383959934783
 51
112.0008925954855
  0
ARC
  5
1E4
330
2
100
AcDbEntity
  8
0
100
AcDbCircle
 10
-0.8448523233588121
 20
3.903374038837525
 30
0.0
 40
0.1138116822963658
100
AcDbArc
 50
112.0008925954732
 51
134.2879713357522
  0
ARC
  5
1E5
330
2
100
AcDbEntity
  8
0
100
AcDbCircle
 10
-0.8465580757371924
 20
3.905122722548077
 30
0.0
 40
0.1113688384831225
100
AcDbArc
 50
134.2879713357532
 51
156.9920431300947
  0
ARC
  5
1E6
330
2
100
AcDbEntity
  8
0
100
AcDbCircle
 10
-0.8492127499219491
 20
3.906249999999984
 30
0.0
 40
0.1084847355930037
100
AcDbArc
 50
156.9920431300949
 51
180.0
  0
ARC
  5
1E7
330
2
100
AcDbEntity
  8
0
100
AcDbCircle
 10
-0.8492127499219526
 20
3.906249999999982
 30
0.0
 40
0.1084847355929997
100
AcDbArc
 50
179.9999999999991
 51
203.007956869905
  0
ARC
  5
1E8
330
2
100
AcDbEntity
  8
0
100
AcDbCircle
 10
-0.8465580757371916
 20
3.907377277451891
 30
0.0
 40
0.1113688384831233
100
AcDbArc
 50
203.0079568699051
 51
225.7120286642465
  0
ARC
  5
1E9
330
2
100
AcDbEntity
  8
0
100
AcDbCircle
 10
-0.8448523233588103
 20
3.909125961162447
 30
0.0
 40
0.1138116822963696
100
AcDbArc
 50
225.7120286642484
 51
247.9991074045267
  0
ARC
  5
1EA
330
2
100
AcDbEntity
  8
0
100
AcDbCircle
 10
-0.843750000000008
 20
3.911854184846456
 30
0.0
 40
0.1167541848464708
100
AcDbArc
 50
247.9991074045279
 51
255.1616040065354
  0
ARC
  5
1EB
330
2
100
AcDbEntity
  8
0
100
AcDbCircle
 10
-0.8437500000000018
 20
3.881728294244377
 30
0.0
 40
0.105771705755609
100
AcDbArc
 50
106.4204773143112
 51
109.9326970463617
  0
ARC
  5
1EC
330
2
100
AcDbEntity
  8
0
100
AcDbCircle
 10
-0.848094910573022
 20
3.893709609596614
 30
0.0
 40
0.0930268964020997
100
AcDbArc
 50
109.9326970463541
 51
131.2018769840308
  0
ARC
  5
1ED
330
2
100
AcDbEntity
  8
0
100
AcDbCircle
 10
-0.8547858053402671
 20
3.901352051940203
 30
0.0
 40
0.0828693869750103
100
AcDbArc
 50
131.2018769840378
 51
154.6801826141996
  0
ARC
  5
1EE
330
2
100
AcDbEntity
  8
0
100
AcDbCircle
 10
-0.8651382254843201
 20
3.906249999999988
 30
0.0
 40
0.0714167672731537
100
AcDbArc
 50
154.6801826141985
 51
180.0000000000028
  0
ARC
  5
1EF
330
2
100
AcDbEntity
  8
0
100
AcDbCircle
 10
-0.8651382254843192
 20
3.906249999999981
 30
0.0
 40
0.0714167672731545
100
AcDbArc
 50
179.9999999999972
 51
205.3198173858013
  0
ARC
  5
1F0
330
2
100
AcDbEntity
  8
0
100
AcDbCircle
 10
-0.8547858053402759
 20
3.911147948059766
 30
0.0
 40
0.0828693869750019
100
AcDbArc
 50
205.3198173858031
 51
228.7981230159652
  0
ARC
  5
1F1
330
2
100
AcDbEntity
  8
0
100
AcDbCircle
 10
-0.8480949105730229
 20
3.918790390403357
 30
0.0
 40
0.0930268964020994
100
AcDbArc
 50
228.7981230159697
 51
250.0673029536464
  0
ARC
  5
1F2
330
2
100
AcDbEntity
  8
0
100
AcDbCircle
 10
-0.8437500000000018
 20
3.930771705755594
 30
0.0
 40
0.105771705755609
100
AcDbArc
 50
250.0673029536383
 51
253.5795226856887
  0
ARC
  5
1F3
330
2
100
AcDbEntity
  8
0
100
AcDbCircle
 10
0.8437500000000098
 20
2.025645815153515
 30
0.0
 40
0.1167541848464813
100
AcDbArc
 50
67.99910740452901
 51
75.16160400653628
  0
ARC
  5
1F4
330
2
100
AcDbEntity
  8
0
100
AcDbCircle
 10
0.8448523233588148
 20
2.028374038837542
 30
0.0
 40
0.1138116822963628
100
AcDbArc
 50
45.71202866424685
 51
67.99910740452573
  0
ARC
  5
1F5
330
2
100
AcDbEntity
  8
0
100
AcDbCircle
 10
0.846558075737204
 20
2.030122722548088
 30
0.0
 40
0.1113688384831183
100
AcDbArc
 50
23.00795686991024
 51
45.71202866425171
  0
ARC
  5
1F6
330
2
100
AcDbEntity
  8
0
100
AcDbCircle
 10
0.8492127499219428
 20
2.031250000000004
 30
0.0
 40
0.108484735593012
100
AcDbArc
 50
359.9999999999972
 51
23.00795686990222
  0
ARC
  5
1F7
330
2
100
AcDbEntity
  8
0
100
AcDbCircle
 10
0.8492127499219562
 20
2.031249999999995
 30
0.0
 40
0.1084847355929988
100
AcDbArc
 50
336.9920431300959
 51
0.0000000000018764
  0
ARC
  5
1F8
330
2
100
AcDbEntity
  8
0
100
AcDbCircle
 10
0.8465580757371942
 20
2.032377277451909
 30
0.0
 40
0.1113688384831255
100
AcDbArc
 50
314.2879713357519
 51
336.9920431300934
  0
ARC
  5
1F9
330
2
100
AcDbEntity
  8
0
100
AcDbCircle
 10
0.844852323358813
 20
2.034125961162456
 30
0.0
 40
0.1138116822963652
100
AcDbArc
 50
292.0008925954747
 51
314.2879713357532
  0
ARC
  5
1FA
330
2
100
AcDbEntity
  8
0
100
AcDbCircle
 10
0.8437500000000116
 20
2.036854184846478
 30
0.0
 40
0.1167541848464774
100
AcDbArc
 50
284.8383959934633
 51
292.0008925954709
  0
ARC
  5
1FB
330
2
100
AcDbEntity
  8
0
100
AcDbCircle
 10
0.8437500000000053
 20
2.006728294244377
 30
0.0
 40
0.1057717057556224
100
AcDbArc
 50
70.06730295364095
 51
73.5795226856914
  0
ARC
  5
1FC
330
2
100
AcDbEntity
  8
0
100
AcDbCircle
 10
0.8480949105730247
 20
2.018709609596636
 30
0.0
 40
0.0930268964020933
100
AcDbArc
 50
48.79812301596716
 51
70.06730295364386
  0
ARC
  5
1FD
330
2
100
AcDbEntity
  8
0
100
AcDbCircle
 10
0.8547858053402777
 20
2.026352051940213
 30
0.0
 40
0.0828693869750065
100
AcDbArc
 50
25.31981738580695
 51
48.79812301596886
  0
ARC
  5
1FE
330
2
100
AcDbEntity
  8
0
100
AcDbCircle
 10
0.8651382254843147
 20
2.031250000000005
 30
0.0
 40
0.0714167672731617
100
AcDbArc
 50
359.9999999999943
 51
25.31981738579851
  0
ARC
  5
1FF
330
2
100
AcDbEntity
  8
0
100
AcDbCircle
 10
0.8651382254843307
 20
2.031249999999995
 30
0.0
 40
0.0714167672731456
100
AcDbArc
 50
334.6801826141986
 51
0.0000000000028502
  0
ARC
  5
200
330
2
100
AcDbEntity
  8
0
100
AcDbCircle
 10
0.8547858053402697
 20
2.036147948059789
 30
0.0
 40
0.0828693869750131
100
AcDbArc
 50
311.2018769840345
 51
334.6801826141965
  0
ARC
  5
201
330
2
100
AcDbEntity
  8
0
100
AcDbCircle
 10
0.8480949105730256
 20
2.043790390403364
 30
0.0
 40
0.0930268964020929
100
AcDbArc
 50
289.9326970463556
 51
311.2018769840324
  0
ARC
  5
202
330
2
100
AcDbEntity
  8
0
100
AcDbCircle
 10
0.8437500000000053
 20
2.055771705755623
 30
0.0
 40
0.1057717057556224
100
AcDbArc
 50
286.4204773143086
 51
289.932697046359
  0
ARC
  5
203
330
2
100
AcDbEntity
  8
0
100
AcDbCircle
 10
0.8437500000000116
 20
3.650645815153519
 30
0.0
 40
0.1167541848464746
100
AcDbArc
 50
67.99910740452771
 51
75.16160400653496
  0
ARC
  5
204
330
2
100
AcDbEntity
  8
0
100
AcDbCircle
 10
0.8448523233588174
 20
3.653374038837535
 30
0.0
 40
0.1138116822963658
100
AcDbArc
 50
45.71202866424778
 51
67.99910740452681
  0
ARC
  5
205
330
2
100
AcDbEntity
  8
0
100
AcDbCircle
 10
0.8465580757372022
 20
3.655122722548088
 30
0.0
 40
0.1113688384831195
100
AcDbArc
 50
23.007956869907
 51
45.71202866424847
  0
ARC
  5
206
330
2
100
AcDbEntity
  8
0
100
AcDbCircle
 10
0.84921274992195
 20
3.656249999999996
 30
0.0
 40
0.1084847355930078
100
AcDbArc
 50
359.9999999999991
 51
23.00795686990418
  0
ARC
  5
207
330
2
100
AcDbEntity
  8
0
100
AcDbCircle
 10
0.8492127499219588
 20
3.656249999999993
 30
0.0
 40
0.1084847355929988
100
AcDbArc
 50
336.9920431300948
 51
0.0000000000009382
  0
ARC
  5
208
330
2
100
AcDbEntity
  8
0
100
AcDbCircle
 10
0.8465580757371969
 20
3.657377277451902
 30
0.0
 40
0.1113688384831233
100
AcDbArc
 50
314.2879713357535
 51
336.9920431300949
  0
ARC
  5
209
330
2
100
AcDbEntity
  8
0
100
AcDbCircle
 10
0.8448523233588157
 20
3.659125961162458
 30
0.0
 40
0.1138116822963696
100
AcDbArc
 50
292.0008925954733
 51
314.2879713357516
  0
ARC
  5
20A
330
2
100
AcDbEntity
  8
0
100
AcDbCircle
 10
0.8437500000000275
 20
3.661854184846467
 30
0.0
 40
0.1167541848464654
100
AcDbArc
 50
284.8383959934581
 51
292.0008925954657
  0
ARC
  5
20B
330
2
100
AcDbEntity
  8
0
100
AcDbCircle
 10
0.8437499999999787
 20
3.631728294244388
 30
0.0
 40
0.105771705755617
100
AcDbArc
 50
70.06730295362354
 51
73.57952268567399
  0
ARC
  5
20C
330
2
100
AcDbEntity
  8
0
100
AcDbCircle
 10
0.84809491057303
 20
3.643709609596636
 30
0.0
 40
0.0930268964020871
100
AcDbArc
 50
48.79812301596819
 51
70.0673029536448
  0
ARC
  5
20D
330
2
100
AcDbEntity
  8
0
100
AcDbCircle
 10
0.854785805340275
 20
3.651352051940204
 30
0.0
 40
0.0828693869750123
100
AcDbArc
 50
25.31981738580786
 51
48.79812301596991
  0
ARC
  5
20E
330
2
100
AcDbEntity
  8
0
100
AcDbCircle
 10
0.8651382254843218
 20
3.656249999999998
 30
0.0
 40
0.0714167672731577
100
AcDbArc
 50
359.9999999999972
 51
25.31981738580162
  0
ARC
  5
20F
330
2
100
AcDbEntity
  8
0
100
AcDbCircle
 10
0.865138225484329
 20
3.656249999999991
 30
0.0
 40
0.0714167672731501
100
AcDbArc
 50
334.6801826141985
 51
0.0000000000028502
  0
ARC
  5
210
330
2
100
AcDbEntity
  8
0
100
AcDbCircle
 10
0.8547858053402706
 20
3.661147948059787
 30
0.0
 40
0.0828693869750154
100
AcDbArc
 50
311.2018769840324
 51
334.6801826141946
  0
ARC
  5
211
330
2
100
AcDbEntity
  8
0
100
AcDbCircle
 10
0.8480949105730318
 20
3.668790390403354
 30
0.0
 40
0.0930268964020848
100
AcDbArc
 50
289.9326970463546
 51
311.2018769840317
  0
ARC
  5
212
330
2
100
AcDbEntity
  8
0
100
AcDbCircle
 10
0.8437499999999787
 20
3.680771705755605
 30
0.0
 40
0.1057717057556187
100
AcDbArc
 50
286.4204773143258
 51
289.9326970463761
  0
LINE
  5
213
330
2
100
AcDbEntity
  8
0
100
AcDbLine
 10
-1.246682928179784
 20
5.779187000000002
 30
0.0
 11
-1.283488928179785
 21
5.815994000000002
 31
0.0
  0
LINE
  5
214
330
2
100
AcDbEntity
  8
0
100
AcDbLine
 10
-1.133544928179785
 20
5.779187000000002
 30
0.0
 11
-1.095988928179785
 21
5.816744000000002
 31
0.0
  0
LINE
  5
215
330
2
100
AcDbEntity
  8
0
100
AcDbLine
 10
-1.190488928179785
 20
5.562500000000002
 30
0.0
 11
-1.189738928179785
 21
5.562500000000002
 31
0.0
  0
LINE
  5
216
330
2
100
AcDbEntity
  8
0
100
AcDbLine
 10
-1.283488928179785
 20
6.437500000000002
 30
0.0
 11
-1.283488928179785
 21
5.655500000000002
 31
0.0
  0
LINE
  5
217
330
2
100
AcDbEntity
  8
0
100
AcDbLine
 10
-1.095988928179785
 20
5.656250000000002
 30
0.0
 11
-1.095988928179785
 21
6.437500000000002
 31
0.0
  0
LINE
  5
218
330
2
100
AcDbEntity
  8
0
100
AcDbLine
 10
-1.189738928179785
 20
5.562500000000002
 30
0.0
 11
-1.095988928179785
 21
5.656250000000002
 31
0.0
  0
LINE
  5
219
330
2
100
AcDbEntity
  8
0
100
AcDbLine
 10
-1.190488928179785
 20
5.562500000000002
 30
0.0
 11
-1.283488928179785
 21
5.655500000000002
 31
0.0
  0
ARC
  5
21A
330
2
100
AcDbEntity
  8
0
100
AcDbCircle
 10
-1.190901928179785
 20
5.880477000000004
 30
0.0
 40
0.114071
100
AcDbArc
 50
54.808812
 51
127.538262
  0
ARC
  5
21B
330
2
100
AcDbEntity
  8
0
100
AcDbCircle
 10
-1.190901928179785
 20
6.033677000000003
 30
0.0
 40
0.114071
100
AcDbArc
 50
232.461738
 51
305.191188
  0
LINE
  5
21C
330
2
100
AcDbEntity
  8
0
100
AcDbLine
 10
-1.239610928179785
 20
5.772116000000002
 30
0.0
 11
-1.283488928179785
 21
5.815994000000002
 31
0.0
  0
LINE
  5
21D
330
2
100
AcDbEntity
  8
0
100
AcDbLine
 10
-1.140616928179785
 20
5.772116000000002
 30
0.0
 11
-1.095988928179785
 21
5.816744000000002
 31
0.0
  0
LINE
  5
21E
330
2
100
AcDbEntity
  8
0
100
AcDbLine
 10
-1.190488928179785
 20
5.722994000000002
 30
0.0
 11
-1.189738928179785
 21
5.722994000000002
 31
0.0
  0
LINE
  5
21F
330
2
100
AcDbEntity
  8
0
100
AcDbLine
 10
-1.190488928179785
 20
5.562500000000002
 30
0.0
 11
-1.189738928179785
 21
5.562500000000002
 31
0.0
  0
LINE
  5
220
330
2
100
AcDbEntity
  8
0
100
AcDbLine
 10
-1.283488928179785
 20
6.312500000000002
 30
0.0
 11
-1.283488928179785
 21
5.655500000000002
 31
0.0
  0
LINE
  5
221
330
2
100
AcDbEntity
  8
0
100
AcDbLine
 10
-1.095988928179785
 20
5.656250000000002
 30
0.0
 11
-1.095988928179785
 21
6.312500000000002
 31
0.0
  0
LINE
  5
222
330
2
100
AcDbEntity
  8
0
100
AcDbLine
 10
-1.189738928179785
 20
5.562500000000002
 30
0.0
 11
-1.095988928179785
 21
5.656250000000002
 31
0.0
  0
LINE
  5
223
330
2
100
AcDbEntity
  8
0
100
AcDbLine
 10
-1.190488928179785
 20
5.562500000000002
 30
0.0
 11
-1.283488928179785
 21
5.655500000000002
 31
0.0
  0
POINT
  5
224
330
2
100
AcDbEntity
  8
0
100
AcDbPoint
 10
-1.189738928179785
 20
5.562500000000002
 30
0.0
  0
ARC
  5
225
330
2
100
AcDbEntity
  8
0
100
AcDbCircle
 10
-1.190113928179785
 20
5.821614000000002
 30
0.0
 40
0.07
100
AcDbArc
 50
225.0
 51
315.0
  0
LINE
  5
226
330
2
100
AcDbEntity
  8
0
100
AcDbLine
 10
-1.211250000000001
 20
10.93080224235792
 30
0.0
 11
-1.281250000000001
 21
10.95080224235792
 31
0.0
  0
LINE
  5
227
330
2
100
AcDbEntity
  8
0
100
AcDbLine
 10
-1.281250000000001
 20
10.95080224235792
 30
0.0
 11
-1.281250000000001
 21
11.30580224235792
 31
0.0
  0
LINE
  5
228
330
2
100
AcDbEntity
  8
0
100
AcDbLine
 10
-1.163750000000001
 20
10.93080224235792
 30
0.0
 11
-1.211250000000001
 21
10.93080224235792
 31
0.0
  0
LINE
  5
229
330
2
100
AcDbEntity
  8
0
100
AcDbLine
 10
-1.163750000000001
 20
10.93080224235792
 30
0.0
 11
-1.093750000000001
 21
10.95080224235792
 31
0.0
  0
LINE
  5
22A
330
2
100
AcDbEntity
  8
0
100
AcDbLine
 10
-1.093750000000001
 20
11.30580224235792
 30
0.0
 11
-1.093750000000001
 21
10.95080224235792
 31
0.0
  0
LINE
  5
22B
330
2
100
AcDbEntity
  8
0
100
AcDbLine
 10
1.128317071820217
 20
5.779187000000002
 30
0.0
 11
1.091511071820216
 21
5.815994000000002
 31
0.0
  0
LINE
  5
22C
330
2
100
AcDbEntity
  8
0
100
AcDbLine
 10
1.241455071820217
 20
5.779187000000002
 30
0.0
 11
1.279011071820216
 21
5.816744000000002
 31
0.0
  0
LINE
  5
22D
330
2
100
AcDbEntity
  8
0
100
AcDbLine
 10
1.184511071820216
 20
5.562500000000002
 30
0.0
 11
1.185261071820216
 21
5.562500000000002
 31
0.0
  0
LINE
  5
22E
330
2
100
AcDbEntity
  8
0
100
AcDbLine
 10
1.091511071820216
 20
6.437500000000002
 30
0.0
 11
1.091511071820216
 21
5.655500000000002
 31
0.0
  0
LINE
  5
22F
330
2
100
AcDbEntity
  8
0
100
AcDbLine
 10
1.279011071820216
 20
5.656250000000002
 30
0.0
 11
1.279011071820216
 21
6.437500000000002
 31
0.0
  0
LINE
  5
230
330
2
100
AcDbEntity
  8
0
100
AcDbLine
 10
1.185261071820216
 20
5.562500000000002
 30
0.0
 11
1.279011071820216
 21
5.656250000000002
 31
0.0
  0
LINE
  5
231
330
2
100
AcDbEntity
  8
0
100
AcDbLine
 10
1.184511071820216
 20
5.562500000000002
 30
0.0
 11
1.091511071820216
 21
5.655500000000002
 31
0.0
  0
ARC
  5
232
330
2
100
AcDbEntity
  8
0
100
AcDbCircle
 10
1.184098071820216
 20
5.880477000000004
 30
0.0
 40
0.114071
100
AcDbArc
 50
54.808812
 51
127.538262
  0
ARC
  5
233
330
2
100
AcDbEntity
  8
0
100
AcDbCircle
 10
1.184098071820216
 20
6.033677000000003
 30
0.0
 40
0.114071
100
AcDbArc
 50
232.461738
 51
305.191188
  0
LINE
  5
234
330
2
100
AcDbEntity
  8
0
100
AcDbLine
 10
1.135389071820216
 20
5.772116000000002
 30
0.0
 11
1.091511071820216
 21
5.815994000000002
 31
0.0
  0
LINE
  5
235
330
2
100
AcDbEntity
  8
0
100
AcDbLine
 10
1.234383071820216
 20
5.772116000000002
 30
0.0
 11
1.279011071820216
 21
5.816744000000002
 31
0.0
  0
LINE
  5
236
330
2
100
AcDbEntity
  8
0
100
AcDbLine
 10
1.184511071820216
 20
5.722994000000002
 30
0.0
 11
1.185261071820216
 21
5.722994000000002
 31
0.0
  0
LINE
  5
237
330
2
100
AcDbEntity
  8
0
100
AcDbLine
 10
1.184511071820216
 20
5.562500000000002
 30
0.0
 11
1.185261071820216
 21
5.562500000000002
 31
0.0
  0
LINE
  5
238
330
2
100
AcDbEntity
  8
0
100
AcDbLine
 10
1.091511071820216
 20
6.312500000000002
 30
0.0
 11
1.091511071820216
 21
5.655500000000002
 31
0.0
  0
LINE
  5
239
330
2
100
AcDbEntity
  8
0
100
AcDbLine
 10
1.279011071820216
 20
5.656250000000002
 30
0.0
 11
1.279011071820216
 21
6.312500000000002
 31
0.0
  0
LINE
  5
23A
330
2
100
AcDbEntity
  8
0
100
AcDbLine
 10
1.185261071820216
 20
5.562500000000002
 30
0.0
 11
1.279011071820216
 21
5.656250000000002
 31
0.0
  0
LINE
  5
23B
330
2
100
AcDbEntity
  8
0
100
AcDbLine
 10
1.184511071820216
 20
5.562500000000002
 30
0.0
 11
1.091511071820216
 21
5.655500000000002
 31
0.0
  0
POINT
  5
23C
330
2
100
AcDbEntity
  8
0
100
AcDbPoint
 10
1.185261071820216
 20
5.562500000000002
 30
0.0
  0
ARC
  5
23D
330
2
100
AcDbEntity
  8
0
100
AcDbCircle
 10
1.184886071820216
 20
5.821614000000002
 30
0.0
 40
0.07
100
AcDbArc
 50
225.0
 51
314.9999999999999
  0
LINE
  5
23E
330
2
100
AcDbEntity
  8
0
100
AcDbLine
 10
1.16375
 20
10.93080224235792
 30
0.0
 11
1.09375
 21
10.95080224235792
 31
0.0
  0
LINE
  5
23F
330
2
100
AcDbEntity
  8
0
100
AcDbLine
 10
1.09375
 20
10.95080224235792
 30
0.0
 11
1.09375
 21
11.30580224235792
 31
0.0
  0
LINE
  5
240
330
2
100
AcDbEntity
  8
0
100
AcDbLine
 10
1.21125
 20
10.93080224235792
 30
0.0
 11
1.16375
 21
10.93080224235792
 31
0.0
  0
LINE
  5
241
330
2
100
AcDbEntity
  8
0
100
AcDbLine
 10
1.21125
 20
10.93080224235792
 30
0.0
 11
1.28125
 21
10.95080224235792
 31
0.0
  0
LINE
  5
242
330
2
100
AcDbEntity
  8
0
100
AcDbLine
 10
1.28125
 20
11.30580224235792
 30
0.0
 11
1.28125
 21
10.95080224235792
 31
0.0
  0
LINE
  5
243
330
2
100
AcDbEntity
  8
0
100
AcDbLine
 10
5.428618113861879
 20
0.0
 30
0.0
 11
5.557409113861879
 21
0.1287909999999979
 31
0.0
  0
ARC
  5
244
330
2
100
AcDbEntity
  8
0
100
AcDbCircle
 10
5.491117712911348
 20
0.1950824999999981
 30
0.0
 40
0.0937502683315312
100
AcDbArc
 50
314.999957195713
 51
45.00004280428698
  0
LINE
  5
245
330
2
100
AcDbEntity
  8
0
100
AcDbLine
 10
7.180709125370097
 20
0.2666162084151988
 30
0.0
 11
7.106835125370097
 21
0.1927422084151989
 31
0.0
  0
ARC
  5
246
330
2
100
AcDbEntity
  8
0
100
AcDbCircle
 10
7.173126526320626
 20
0.1264507084151987
 30
0.0
 40
0.0937502683315312
100
AcDbArc
 50
134.999957195713
 51
225.000042804287
  0
LINE
  5
247
330
2
100
AcDbEntity
  8
0
100
AcDbLine
 10
7.100952113861876
 20
0.1874999999999982
 30
0.0
 11
7.174826113861876
 21
0.2613739999999982
 31
0.0
  0
ARC
  5
248
330
2
100
AcDbEntity
  8
0
100
AcDbCircle
 10
7.241117613861874
 20
0.1950825990494671
 30
0.0
 40
0.0937502683315312
100
AcDbArc
 50
44.99995719571302
 51
135.000042804287
  0
ARC
  5
249
330
2
100
AcDbEntity
  8
0
100
AcDbCircle
 10
6.48353511386188
 20
1.967826592146466
 30
0.0
 40
0.0477265921464642
100
AcDbArc
 50
270.0
 51
302.607921015195
  0
ARC
  5
24A
330
2
100
AcDbEntity
  8
0
100
AcDbCircle
 10
6.46411922713299
 20
1.998177122944368
 30
0.0
 40
0.0837561824464313
100
AcDbArc
 50
302.6079210151983
 51
327.077328097554
  0
ARC
  5
24B
330
2
100
AcDbEntity
  8
0
100
AcDbCircle
 10
6.433268023441283
 20
2.018152983097414
 30
0.0
 40
0.1205098456391156
100
AcDbArc
 50
327.0773280975474
 51
344.9866289979998
  0
ARC
  5
24C
330
2
100
AcDbEntity
  8
0
100
AcDbCircle
 10
6.384434878160228
 20
2.031250000000009
 30
0.0
 40
0.1710688006301704
100
AcDbArc
 50
344.986628998
 51
359.999999999997
  0
ARC
  5
24D
330
2
100
AcDbEntity
  8
0
100
AcDbCircle
 10
6.384434878160235
 20
2.031249999999993
 30
0.0
 40
0.1710688006301648
100
AcDbArc
 50
0.0000000000023798
 51
15.01337100199994
  0
ARC
  5
24E
330
2
100
AcDbEntity
  8
0
100
AcDbCircle
 10
6.433268023441276
 20
2.04434701690259
 30
0.0
 40
0.1205098456391219
100
AcDbArc
 50
15.01337100199768
 51
32.92267190245083
  0
ARC
  5
24F
330
2
100
AcDbEntity
  8
0
100
AcDbCircle
 10
6.464119227132986
 20
2.064322877055636
 30
0.0
 40
0.0837561824464359
100
AcDbArc
 50
32.92267190244407
 51
57.39207898479926
  0
ARC
  5
250
330
2
100
AcDbEntity
  8
0
100
AcDbCircle
 10
6.483535113861883
 20
2.094673407853538
 30
0.0
 40
0.0477265921464639
100
AcDbArc
 50
57.39207898480981
 51
90.00000000000426
  0
ARC
  5
251
330
2
100
AcDbEntity
  8
0
100
AcDbCircle
 10
6.483535113861866
 20
2.182315913967296
 30
0.0
 40
0.2921159139672973
100
AcDbArc
 50
270.0000000000028
 51
284.3044795065321
  0
ARC
  5
252
330
2
100
AcDbEntity
  8
0
100
AcDbCircle
 10
6.483535113861844
 20
1.880184086032712
 30
0.0
 40
0.2921159139672991
100
AcDbArc
 50
75.69552049346372
 51
89.99999999999304
  0
ARC
  5
253
330
2
100
AcDbEntity
  8
0
100
AcDbCircle
 10
6.48353511386188
 20
1.982681745733339
 30
0.0
 40
0.0326817457333384
100
AcDbArc
 50
270.0
 51
303.5108229556695
  0
ARC
  5
254
330
2
100
AcDbEntity
  8
0
100
AcDbCircle
 10
6.468164506698795
 20
2.005894671771793
 30
0.0
 40
0.0605222827222085
100
AcDbArc
 50
303.510822955671
 51
327.9718933333928
  0
ARC
  5
255
330
2
100
AcDbEntity
  8
0
100
AcDbCircle
 10
6.443690425772683
 20
2.021204473660658
 30
0.0
 40
0.0893904428827397
100
AcDbArc
 50
327.9718933333926
 51
345.4734521832035
  0
ARC
  5
256
330
2
100
AcDbEntity
  8
0
100
AcDbCircle
 10
6.404921371867637
 20
2.031250000000016
 30
0.0
 40
0.1294398141652858
100
AcDbArc
 50
345.4734521831957
 51
359.999999999993
  0
ARC
  5
257
330
2
100
AcDbEntity
  8
0
100
AcDbCircle
 10
6.404921371867637
 20
2.031249999999984
 30
0.0
 40
0.1294398141652859
100
AcDbArc
 50
0.0000000000070766
 51
14.52654781680428
  0
ARC
  5
258
330
2
100
AcDbEntity
  8
0
100
AcDbCircle
 10
6.443690425772672
 20
2.041295526339347
 30
0.0
 40
0.0893904428827503
100
AcDbArc
 50
14.52654781679119
 51
32.02810666660312
  0
ARC
  5
259
330
2
100
AcDbEntity
  8
0
100
AcDbCircle
 10
6.468164506698798
 20
2.056605328228217
 30
0.0
 40
0.0605222827222014
100
AcDbArc
 50
32.02810666660563
 51
56.48917704432668
  0
ARC
  5
25A
330
2
100
AcDbEntity
  8
0
100
AcDbCircle
 10
6.483535113861883
 20
2.079818254266657
 30
0.0
 40
0.0326817457333449
100
AcDbArc
 50
56.48917704433473
 51
90.00000000000311
  0
ARC
  5
25B
330
2
100
AcDbEntity
  8
0
100
AcDbCircle
 10
6.58728766497546
 20
2.031250000000009
 30
0.0
 40
0.0995832506954977
100
AcDbArc
 50
336.9842081995473
 51
359.9999999999949
  0
ARC
  5
25C
330
2
100
AcDbEntity
  8
0
100
AcDbCircle
 10
6.587287664975452
 20
2.031249999999993
 30
0.0
 40
0.0995832506955026
100
AcDbArc
 50
0.0000000000040881
 51
23.01579180045158
  0
ARC
  5
25D
330
2
100
AcDbEntity
  8
0
100
AcDbCircle
 10
6.537511359440785
 20
2.00152733570601
 30
0.0
 40
0.1575583950714709
100
AcDbArc
 50
50.43639217038388
 51
55.25172445457051
  0
ARC
  5
25E
330
2
100
AcDbEntity
  8
0
100
AcDbCircle
 10
6.504887725087354
 20
1.9544975388313
 30
0.0
 40
0.2147956496571243
100
AcDbArc
 50
55.25172445456615
 51
64.66892074213196
  0
ARC
  5
25F
330
2
100
AcDbEntity
  8
0
100
AcDbCircle
 10
6.50488772508735
 20
2.108002461168708
 30
0.0
 40
0.2147956496571283
100
AcDbArc
 50
295.3310792578681
 51
304.7482755454337
  0
ARC
  5
260
330
2
100
AcDbEntity
  8
0
100
AcDbCircle
 10
6.537511359440757
 20
2.060972664293979
 30
0.0
 40
0.1575583950714754
100
AcDbArc
 50
304.748275545441
 51
309.5636078296282
  0
ARC
  5
261
330
2
100
AcDbEntity
  8
0
100
AcDbCircle
 10
6.483535113861876
 20
3.592826592146468
 30
0.0
 40
0.0477265921464642
100
AcDbArc
 50
270.0000000000043
 51
302.6079210151997
  0
ARC
  5
262
330
2
100
AcDbEntity
  8
0
100
AcDbCircle
 10
6.464119227133004
 20
3.623177122944368
 30
0.0
 40
0.0837561824464216
100
AcDbArc
 50
302.6079210151925
 51
327.0773280975483
  0
ARC
  5
263
330
2
100
AcDbEntity
  8
0
100
AcDbCircle
 10
6.433268023441272
 20
3.643152983097414
 30
0.0
 40
0.1205098456391255
100
AcDbArc
 50
327.0773280975494
 51
344.986628998002
  0
ARC
  5
264
330
2
100
AcDbEntity
  8
0
100
AcDbCircle
 10
6.384434878160228
 20
3.656250000000009
 30
0.0
 40
0.17106880063017
100
AcDbArc
 50
344.9866289980005
 51
359.9999999999976
  0
ARC
  5
265
330
2
100
AcDbEntity
  8
0
100
AcDbCircle
 10
6.384434878160246
 20
3.656249999999993
 30
0.0
 40
0.1710688006301524
100
AcDbArc
 50
0.0000000000029748
 51
15.01337100200045
  0
ARC
  5
266
330
2
100
AcDbEntity
  8
0
100
AcDbCircle
 10
6.433268023441265
 20
3.66934701690259
 30
0.0
 40
0.1205098456391318
100
AcDbArc
 50
15.01337100199555
 51
32.92267190244879
  0
ARC
  5
267
330
2
100
AcDbEntity
  8
0
100
AcDbCircle
 10
6.464119227132994
 20
3.689322877055636
 30
0.0
 40
0.0837561824464294
100
AcDbArc
 50
32.92267190244839
 51
57.39207898480372
  0
ARC
  5
268
330
2
100
AcDbEntity
  8
0
100
AcDbCircle
 10
6.483535113861883
 20
3.719673407853536
 30
0.0
 40
0.0477265921464639
100
AcDbArc
 50
57.39207898480981
 51
90.00000000000426
  0
ARC
  5
269
330
2
100
AcDbEntity
  8
0
100
AcDbCircle
 10
6.483535113861851
 20
3.505184086032706
 30
0.0
 40
0.2921159139673025
100
AcDbArc
 50
75.69552049346532
 51
89.99999999999443
  0
ARC
  5
26A
330
2
100
AcDbEntity
  8
0
100
AcDbCircle
 10
6.48353511386188
 20
3.807315913967299
 30
0.0
 40
0.2921159139672973
100
AcDbArc
 50
270.0
 51
284.3044795065292
  0
ARC
  5
26B
330
2
100
AcDbEntity
  8
0
100
AcDbCircle
 10
6.48353511386188
 20
3.607681745733339
 30
0.0
 40
0.0326817457333384
100
AcDbArc
 50
270.0
 51
303.5108229556695
  0
ARC
  5
26C
330
2
100
AcDbEntity
  8
0
100
AcDbCircle
 10
6.468164506698798
 20
3.630894671771793
 30
0.0
 40
0.0605222827222065
100
AcDbArc
 50
303.5108229556682
 51
327.9718933333895
  0
ARC
  5
26D
330
2
100
AcDbEntity
  8
0
100
AcDbCircle
 10
6.443690425772672
 20
3.646204473660658
 30
0.0
 40
0.0893904428827512
100
AcDbArc
 50
327.9718933333959
 51
345.4734521832066
  0
ARC
  5
26E
330
2
100
AcDbEntity
  8
0
100
AcDbCircle
 10
6.404921371867637
 20
3.65625000000002
 30
0.0
 40
0.1294398141652862
100
AcDbArc
 50
345.473452183195
 51
359.9999999999921
  0
ARC
  5
26F
330
2
100
AcDbEntity
  8
0
100
AcDbCircle
 10
6.404921371867637
 20
3.656249999999984
 30
0.0
 40
0.1294398141652859
100
AcDbArc
 50
0.0000000000078629
 51
14.52654781680504
  0
ARC
  5
270
330
2
100
AcDbEntity
  8
0
100
AcDbCircle
 10
6.443690425772676
 20
3.666295526339349
 30
0.0
 40
0.0893904428827452
100
AcDbArc
 50
14.52654781679204
 51
32.02810666660397
  0
ARC
  5
271
330
2
100
AcDbEntity
  8
0
100
AcDbCircle
 10
6.468164506698798
 20
3.681605328228217
 30
0.0
 40
0.0605222827222014
100
AcDbArc
 50
32.02810666660563
 51
56.48917704432668
  0
ARC
  5
272
330
2
100
AcDbEntity
  8
0
100
AcDbCircle
 10
6.483535113861883
 20
3.704818254266657
 30
0.0
 40
0.0326817457333449
100
AcDbArc
 50
56.48917704433473
 51
90.00000000000311
  0
ARC
  5
273
330
2
100
AcDbEntity
  8
0
100
AcDbCircle
 10
6.58728766497546
 20
3.656250000000011
 30
0.0
 40
0.0995832506954953
100
AcDbArc
 50
336.9842081995478
 51
359.9999999999949
  0
ARC
  5
274
330
2
100
AcDbEntity
  8
0
100
AcDbCircle
 10
6.587287664975456
 20
3.656249999999995
 30
0.0
 40
0.0995832506955008
100
AcDbArc
 50
0.0000000000040881
 51
23.01579180045197
  0
ARC
  5
275
330
2
100
AcDbEntity
  8
0
100
AcDbCircle
 10
6.537511359440757
 20
3.626527335706001
 30
0.0
 40
0.1575583950714934
100
AcDbArc
 50
50.43639217037806
 51
55.2517244545644
  0
ARC
  5
276
330
2
100
AcDbEntity
  8
0
100
AcDbCircle
 10
6.504887725087365
 20
3.5794975388313
 30
0.0
 40
0.2147956496571182
100
AcDbArc
 50
55.25172445456848
 51
64.66892074213432
  0
ARC
  5
277
330
2
100
AcDbEntity
  8
0
100
AcDbCircle
 10
6.504887725087361
 20
3.733002461168708
 30
0.0
 40
0.2147956496571222
100
AcDbArc
 50
295.3310792578657
 51
304.7482755454314
  0
ARC
  5
278
330
2
100
AcDbEntity
  8
0
100
AcDbCircle
 10
6.537511359440764
 20
3.685972664293994
 30
0.0
 40
0.157558395071483
100
AcDbArc
 50
304.7482755454359
 51
309.5636078296225
  0
ARC
  5
279
330
2
100
AcDbEntity
  8
0
100
AcDbCircle
 10
7.307077435682089
 20
6.414637800805553
 30
0.0
 40
0.04921875
100
AcDbArc
 50
320.0000000000001
 51
359.9999999999999
  0
ARC
  5
27A
330
2
100
AcDbEntity
  8
0
100
AcDbCircle
 10
7.307077435682089
 20
6.437500000000002
 30
0.0
 40
0.04921875
100
AcDbArc
 50
320.0000000000002
 51
0.0
  0
LINE
  5
27B
330
2
100
AcDbEntity
  8
0
100
AcDbLine
 10
7.033834914357701
 20
6.035291461458874
 30
0.0
 11
7.344781185616853
 21
6.405862797335741
 31
0.0
  0
LINE
  5
27C
330
2
100
AcDbEntity
  8
0
100
AcDbLine
 10
7.344781185616853
 20
6.383000598141292
 30
0.0
 11
7.046213575647279
 21
6.027181576327786
 31
0.0
  0
LINE
  5
27D
330
2
100
AcDbEntity
  8
0
100
AcDbLine
 10
7.356296185682091
 20
6.324634070962494
 30
0.0
 11
7.076623314130035
 21
5.991332921539199
 31
0.0
  0
LINE
  5
27E
330
2
100
AcDbEntity
  8
0
100
AcDbLine
 10
7.356108630838556
 20
5.753564781578225
 30
0.0
 11
7.363287897683971
 21
5.794280427116826
 31
0.0
  0
LINE
  5
27F
330
2
100
AcDbEntity
  8
0
100
AcDbLine
 10
7.104497409657885
 20
5.914749473488717
 30
0.0
 11
7.282843275227272
 21
5.883302285491025
 31
0.0
  0
LINE
  5
280
330
2
100
AcDbEntity
  8
0
100
AcDbLine
 10
7.104527583027714
 20
5.86696515781213
 30
0.0
 11
7.276980334594089
 21
5.836557084813562
 31
0.0
  0
LINE
  5
281
330
2
100
AcDbEntity
  8
0
100
AcDbLine
 10
7.282843275227272
 20
5.883302285491025
 30
0.0
 11
7.276980334594089
 21
5.836557084813562
 31
0.0
  0
LINE
  5
282
330
2
100
AcDbEntity
  8
0
100
AcDbLine
 10
7.282843275227272
 20
5.883302285491025
 30
0.0
 11
7.363287897683971
 21
5.794280427116826
 31
0.0
  0
LINE
  5
283
330
2
100
AcDbEntity
  8
0
100
AcDbLine
 10
7.121305925428356
 20
5.794966833685384
 30
0.0
 11
7.356108630838556
 21
5.753564781578225
 31
0.0
  0
ARC
  5
284
330
2
100
AcDbEntity
  8
0
100
AcDbCircle
 10
7.146946164161989
 20
5.940379853466096
 30
0.0
 40
0.14765625
100
AcDbArc
 50
140.0000000000001
 51
260.0
  0
ARC
  5
285
330
2
100
AcDbEntity
  8
0
100
AcDbCircle
 10
7.121621075516803
 20
5.963907170999269
 30
0.0
 40
0.0984375
100
AcDbArc
 50
140.0000000000001
 51
260.0
  0
ARC
  5
286
330
2
100
AcDbEntity
  8
0
100
AcDbCircle
 10
7.112668099067669
 20
5.961087755792169
 30
0.0
 40
0.047053125
100
AcDbArc
 50
139.9999999999999
 51
260.0
  0
LINE
  5
287
330
2
100
AcDbEntity
  8
0
100
AcDbLine
 10
7.276849068368193
 20
5.835510499753999
 30
0.0
 11
7.356108630838556
 21
5.753564781578225
 31
0.0
  0
ARC
  5
28C
330
2
100
AcDbEntity
  8
0
100
AcDbCircle
 10
-7.146946164161989
 20
5.940379853466096
 30
0.0
 40
0.14765625
100
AcDbArc
 50
280.0
 51
39.99999999999991
  0
ARC
  5
28D
330
2
100
AcDbEntity
  8
0
100
AcDbCircle
 10
-7.121621075516803
 20
5.963907170999269
 30
0.0
 40
0.0984375
100
AcDbArc
 50
280.0
 51
39.99999999999996
  0
ARC
  5
28E
330
2
100
AcDbEntity
  8
0
100
AcDbCircle
 10
-7.112668099067669
 20
5.961087755792169
 30
0.0
 40
0.047053125
100
AcDbArc
 50
280.0
 51
40.00000000000006
  0
LINE
  5
28F
330
2
100
AcDbEntity
  8
0
100
AcDbLine
 10
-6.60853511386188
 20
6.687500000000002
 30
0.0
 11
-7.35853511386188
 21
6.687500000000002
 31
0.0
  0
LINE
  5
290
330
2
100
AcDbEntity
  8
0
100
AcDbLine
 10
-7.033834914357701
 20
6.035291461458874
 30
0.0
 11
-7.344781185616853
 21
6.405862797335741
 31
0.0
  0
LINE
  5
291
330
2
100
AcDbEntity
  8
0
100
AcDbLine
 10
-7.344781185616853
 20
6.383000598141292
 30
0.0
 11
-7.046213575647279
 21
6.027181576327786
 31
0.0
  0
LINE
  5
292
330
2
100
AcDbEntity
  8
0
  6
HIDDEN
100
AcDbLine
 10
-7.100952113861876
 20
0.0624999999999982
 30
0.0
 11
-5.491118113861879
 21
0.0624999999999982
 31
0.0
  0
LINE
  5
293
330
2
100
AcDbEntity
  8
0
100
AcDbLine
 10
-7.100952113861876
 20
-0.0000000000000018
 30
0.0
 11
-5.358535113861875
 21
-0.0000000000000018
 31
0.0
  0
LINE
  5
294
330
2
100
AcDbEntity
  8
0
100
AcDbLine
 10
-6.23353511386188
 20
3.437499999999998
 30
0.0
 11
-6.23353511386188
 21
3.999999999999998
 31
0.0
  0
LINE
  5
295
330
2
100
AcDbEntity
  8
0
100
AcDbLine
 10
-5.557409113861879
 20
0.2613739999999982
 30
0.0
 11
-6.60853511386188
 21
1.3125
 31
0.0
  0
ARC
  5
296
330
2
100
AcDbEntity
  8
0
100
AcDbCircle
 10
-5.491117712911348
 20
0.1950824999999981
 30
0.0
 40
0.0937502683315312
100
AcDbArc
 50
134.999957195713
 51
225.000042804287
  0
LINE
  5
297
330
2
100
AcDbEntity
  8
0
100
AcDbLine
 10
-5.428618113861879
 20
0.0
 30
0.0
 11
-5.557409113861879
 21
0.1287909999999979
 31
0.0
  0
LINE
  5
298
330
2
100
AcDbEntity
  8
0
100
AcDbLine
 10
-5.358535113861875
 20
-0.0000000000000018
 30
0.0
 11
-5.358535113861875
 21
0.0624999999999982
 31
0.0
  0
LINE
  5
299
330
2
100
AcDbEntity
  8
0
100
AcDbLine
 10
-5.358535113861875
 20
0.0624999999999982
 30
0.0
 11
-5.491118113861879
 21
0.0624999999999982
 31
0.0
  0
LINE
  5
29A
330
2
100
AcDbEntity
  8
0
100
AcDbLine
 10
-6.23353511386188
 20
1.8125
 30
0.0
 11
-6.23353511386188
 21
2.374999999999998
 31
0.0
  0
LINE
  5
29B
330
2
100
AcDbEntity
  8
0
100
AcDbLine
 10
-6.48353511386188
 20
1.6875
 30
0.0
 11
-6.35853511386188
 21
1.6875
 31
0.0
  0
ARC
  5
29C
330
2
100
AcDbEntity
  8
0
100
AcDbCircle
 10
-6.35853511386188
 20
1.8125
 30
0.0
 40
0.125
100
AcDbArc
 50
270.0
 51
0.000000000000007
  0
LINE
  5
29D
330
2
100
AcDbEntity
  8
0
100
AcDbLine
 10
-6.60853511386188
 20
1.5625
 30
0.0
 11
-6.60853511386188
 21
1.3125
 31
0.0
  0
ARC
  5
29E
330
2
100
AcDbEntity
  8
0
100
AcDbCircle
 10
-6.48353511386188
 20
1.5625
 30
0.0
 40
0.125
100
AcDbArc
 50
90.0
 51
180.0
  0
ARC
  5
29F
330
2
100
AcDbEntity
  8
0
100
AcDbCircle
 10
-6.433268023441284
 20
2.268152983097393
 30
0.0
 40
0.1205098456391156
100
AcDbArc
 50
195.0133710020002
 51
212.9226719024527
  0
ARC
  5
2A0
330
2
100
AcDbEntity
  8
0
100
AcDbCircle
 10
-6.433268023441277
 20
2.294347016902568
 30
0.0
 40
0.1205098456391219
100
AcDbArc
 50
147.0773280975492
 51
164.9866289980023
  0
ARC
  5
2A1
330
2
100
AcDbEntity
  8
0
100
AcDbCircle
 10
-6.483535113861866
 20
2.432315913967274
 30
0.0
 40
0.2921159139672973
100
AcDbArc
 50
255.695520493468
 51
269.9999999999973
  0
ARC
  5
2A2
330
2
100
AcDbEntity
  8
0
100
AcDbCircle
 10
-6.483535113861845
 20
2.13018408603269
 30
0.0
 40
0.2921159139672991
100
AcDbArc
 50
90.00000000000696
 51
104.3044795065363
  0
LINE
  5
2A3
330
2
100
AcDbEntity
  8
0
100
AcDbLine
 10
-6.483535113861881
 20
2.140199999999981
 30
0.0
 11
-6.483535113861881
 21
2.42229999999998
 31
0.0
  0
ARC
  5
2A4
330
2
100
AcDbEntity
  8
0
100
AcDbCircle
 10
-6.483535113861881
 20
2.217826592146444
 30
0.0
 40
0.0477265921464642
100
AcDbArc
 50
237.392078984805
 51
270.0
  0
ARC
  5
2A5
330
2
100
AcDbEntity
  8
0
100
AcDbCircle
 10
-6.464119227132991
 20
2.248177122944346
 30
0.0
 40
0.0837561824464313
100
AcDbArc
 50
212.922671902446
 51
237.3920789848017
  0
ARC
  5
2A6
330
2
100
AcDbEntity
  8
0
100
AcDbCircle
 10
-6.464119227132987
 20
2.314322877055615
 30
0.0
 40
0.0837561824464359
100
AcDbArc
 50
122.6079210152007
 51
147.077328097556
  0
ARC
  5
2A7
330
2
100
AcDbEntity
  8
0
100
AcDbCircle
 10
-6.483535113861884
 20
2.344673407853517
 30
0.0
 40
0.0477265921464639
100
AcDbArc
 50
89.99999999999575
 51
122.6079210151902
  0
ARC
  5
2A8
330
2
100
AcDbEntity
  8
0
100
AcDbCircle
 10
-6.483535113861881
 20
2.232681745733318
 30
0.0
 40
0.0326817457333384
100
AcDbArc
 50
236.4891770443305
 51
270.0
  0
ARC
  5
2A9
330
2
100
AcDbEntity
  8
0
100
AcDbCircle
 10
-6.468164506698796
 20
2.255894671771772
 30
0.0
 40
0.0605222827222085
100
AcDbArc
 50
212.0281066666072
 51
236.489177044329
  0
ARC
  5
2AA
330
2
100
AcDbEntity
  8
0
100
AcDbCircle
 10
-6.443690425772684
 20
2.271204473660637
 30
0.0
 40
0.0893904428827397
100
AcDbArc
 50
194.5265478167965
 51
212.0281066666074
  0
ARC
  5
2AB
330
2
100
AcDbEntity
  8
0
100
AcDbCircle
 10
-6.404921371867638
 20
2.281249999999995
 30
0.0
 40
0.1294398141652858
100
AcDbArc
 50
180.0000000000071
 51
194.5265478168043
  0
ARC
  5
2AC
330
2
100
AcDbEntity
  8
0
100
AcDbCircle
 10
-6.404921371867638
 20
2.281249999999963
 30
0.0
 40
0.1294398141652859
100
AcDbArc
 50
165.4734521831957
 51
179.9999999999929
  0
ARC
  5
2AD
330
2
100
AcDbEntity
  8
0
100
AcDbCircle
 10
-6.443690425772673
 20
2.291295526339326
 30
0.0
 40
0.0893904428827503
100
AcDbArc
 50
147.9718933333969
 51
165.4734521832088
  0
ARC
  5
2AE
330
2
100
AcDbEntity
  8
0
100
AcDbCircle
 10
-6.468164506698799
 20
2.306605328228196
 30
0.0
 40
0.0605222827222014
100
AcDbArc
 50
123.5108229556733
 51
147.9718933333944
  0
ARC
  5
2AF
330
2
100
AcDbEntity
  8
0
100
AcDbCircle
 10
-6.483535113861884
 20
2.329818254266636
 30
0.0
 40
0.0326817457333449
100
AcDbArc
 50
89.9999999999969
 51
123.5108229556653
  0
ARC
  5
2B0
330
2
100
AcDbEntity
  8
0
100
AcDbCircle
 10
-6.58728766497546
 20
2.281249999999988
 30
0.0
 40
0.0995832506954977
100
AcDbArc
 50
180.0000000000051
 51
203.0157918004528
  0
ARC
  5
2B1
330
2
100
AcDbEntity
  8
0
100
AcDbCircle
 10
-6.587287664975453
 20
2.281249999999972
 30
0.0
 40
0.0995832506955026
100
AcDbArc
 50
156.9842081995485
 51
179.9999999999959
  0
ARC
  5
2B2
330
2
100
AcDbEntity
  8
0
100
AcDbCircle
 10
-6.537511359440786
 20
2.251527335705989
 30
0.0
 40
0.1575583950714709
100
AcDbArc
 50
124.7482755454295
 51
129.5636078296161
  0
ARC
  5
2B3
330
2
100
AcDbEntity
  8
0
100
AcDbCircle
 10
-6.504887725087355
 20
2.204497538831278
 30
0.0
 40
0.2147956496571243
100
AcDbArc
 50
115.331079257868
 51
124.7482755454339
  0
ARC
  5
2B4
330
2
100
AcDbEntity
  8
0
100
AcDbCircle
 10
-6.504887725087351
 20
2.358002461168686
 30
0.0
 40
0.2147956496571283
100
AcDbArc
 50
235.2517244545664
 51
244.6689207421319
  0
ARC
  5
2B5
330
2
100
AcDbEntity
  8
0
100
AcDbCircle
 10
-6.537511359440758
 20
2.310972664293958
 30
0.0
 40
0.1575583950714754
100
AcDbArc
 50
230.4363921703718
 51
235.2517244545591
  0
ARC
  5
2B6
330
2
100
AcDbEntity
  8
0
100
AcDbCircle
 10
-6.384434878160229
 20
2.281249999999988
 30
0.0
 40
0.1710688006301704
100
AcDbArc
 50
180.000000000003
 51
195.013371002
  0
ARC
  5
2B7
330
2
100
AcDbEntity
  8
0
100
AcDbCircle
 10
-6.384434878160236
 20
2.281249999999972
 30
0.0
 40
0.1710688006301648
100
AcDbArc
 50
164.9866289980001
 51
179.9999999999976
  0
LINE
  5
2B8
330
2
100
AcDbEntity
  8
0
100
AcDbLine
 10
-6.48353511386188
 20
3.312499999999998
 30
0.0
 11
-6.35853511386188
 21
3.312499999999998
 31
0.0
  0
LINE
  5
2B9
330
2
100
AcDbEntity
  8
0
100
AcDbLine
 10
-6.48353511386188
 20
2.499999999999998
 30
0.0
 11
-6.35853511386188
 21
2.499999999999998
 31
0.0
  0
ARC
  5
2BA
330
2
100
AcDbEntity
  8
0
100
AcDbCircle
 10
-6.35853511386188
 20
2.374999999999998
 30
0.0
 40
0.125
100
AcDbArc
 50
0.000000000000007
 51
90.0
  0
ARC
  5
2BB
330
2
100
AcDbEntity
  8
0
100
AcDbCircle
 10
-6.35853511386188
 20
3.437499999999998
 30
0.0
 40
0.125
100
AcDbArc
 50
270.0
 51
0.000000000000007
  0
LINE
  5
2BC
330
2
100
AcDbEntity
  8
0
100
AcDbLine
 10
-6.60853511386188
 20
3.187499999999998
 30
0.0
 11
-6.60853511386188
 21
2.624999999999998
 31
0.0
  0
ARC
  5
2BD
330
2
100
AcDbEntity
  8
0
100
AcDbCircle
 10
-6.48353511386188
 20
2.624999999999998
 30
0.0
 40
0.125
100
AcDbArc
 50
180.0
 51
270.0
  0
ARC
  5
2BE
330
2
100
AcDbEntity
  8
0
100
AcDbCircle
 10
-6.48353511386188
 20
3.187499999999998
 30
0.0
 40
0.125
100
AcDbArc
 50
90.0
 51
180.0
  0
ARC
  5
2BF
330
2
100
AcDbEntity
  8
0
100
AcDbCircle
 10
-6.433268023441273
 20
3.893152983097393
 30
0.0
 40
0.1205098456391255
100
AcDbArc
 50
195.0133710019981
 51
212.9226719024507
  0
ARC
  5
2C0
330
2
100
AcDbEntity
  8
0
100
AcDbCircle
 10
-6.433268023441266
 20
3.919347016902568
 30
0.0
 40
0.1205098456391318
100
AcDbArc
 50
147.0773280975512
 51
164.9866289980045
  0
ARC
  5
2C1
330
2
100
AcDbEntity
  8
0
100
AcDbCircle
 10
-6.483535113861852
 20
3.755184086032685
 30
0.0
 40
0.2921159139673025
100
AcDbArc
 50
90.00000000000557
 51
104.3044795065347
  0
ARC
  5
2C2
330
2
100
AcDbEntity
  8
0
100
AcDbCircle
 10
-6.483535113861881
 20
4.057315913967278
 30
0.0
 40
0.2921159139672973
100
AcDbArc
 50
255.6955204934708
 51
270.0
  0
LINE
  5
2C3
330
2
100
AcDbEntity
  8
0
100
AcDbLine
 10
-6.483535113861881
 20
3.765199999999981
 30
0.0
 11
-6.483535113861881
 21
4.04729999999998
 31
0.0
  0
ARC
  5
2C4
330
2
100
AcDbEntity
  8
0
100
AcDbCircle
 10
-6.483535113861877
 20
3.842826592146446
 30
0.0
 40
0.0477265921464642
100
AcDbArc
 50
237.3920789848004
 51
269.9999999999957
  0
ARC
  5
2C5
330
2
100
AcDbEntity
  8
0
100
AcDbCircle
 10
-6.464119227133005
 20
3.873177122944346
 30
0.0
 40
0.0837561824464216
100
AcDbArc
 50
212.9226719024517
 51
237.3920789848076
  0
ARC
  5
2C6
330
2
100
AcDbEntity
  8
0
100
AcDbCircle
 10
-6.464119227132994
 20
3.939322877055615
 30
0.0
 40
0.0837561824464294
100
AcDbArc
 50
122.6079210151963
 51
147.0773280975516
  0
ARC
  5
2C7
330
2
100
AcDbEntity
  8
0
100
AcDbCircle
 10
-6.483535113861884
 20
3.969673407853515
 30
0.0
 40
0.0477265921464639
100
AcDbArc
 50
89.99999999999575
 51
122.6079210151902
  0
ARC
  5
2C8
330
2
100
AcDbEntity
  8
0
100
AcDbCircle
 10
-6.483535113861881
 20
3.857681745733318
 30
0.0
 40
0.0326817457333384
100
AcDbArc
 50
236.4891770443305
 51
270.0
  0
ARC
  5
2C9
330
2
100
AcDbEntity
  8
0
100
AcDbCircle
 10
-6.468164506698799
 20
3.880894671771772
 30
0.0
 40
0.0605222827222065
100
AcDbArc
 50
212.0281066666105
 51
236.4891770443318
  0
ARC
  5
2CA
330
2
100
AcDbEntity
  8
0
100
AcDbCircle
 10
-6.443690425772673
 20
3.896204473660637
 30
0.0
 40
0.0893904428827512
100
AcDbArc
 50
194.5265478167934
 51
212.0281066666042
  0
ARC
  5
2CB
330
2
100
AcDbEntity
  8
0
100
AcDbCircle
 10
-6.404921371867638
 20
3.906249999999998
 30
0.0
 40
0.1294398141652862
100
AcDbArc
 50
180.0000000000079
 51
194.5265478168051
  0
ARC
  5
2CC
330
2
100
AcDbEntity
  8
0
100
AcDbCircle
 10
-6.404921371867638
 20
3.906249999999963
 30
0.0
 40
0.1294398141652859
100
AcDbArc
 50
165.473452183195
 51
179.9999999999921
  0
ARC
  5
2CD
330
2
100
AcDbEntity
  8
0
100
AcDbCircle
 10
-6.443690425772677
 20
3.916295526339328
 30
0.0
 40
0.0893904428827452
100
AcDbArc
 50
147.971893333396
 51
165.473452183208
  0
ARC
  5
2CE
330
2
100
AcDbEntity
  8
0
100
AcDbCircle
 10
-6.468164506698799
 20
3.931605328228196
 30
0.0
 40
0.0605222827222014
100
AcDbArc
 50
123.5108229556733
 51
147.9718933333944
  0
ARC
  5
2CF
330
2
100
AcDbEntity
  8
0
100
AcDbCircle
 10
-6.483535113861884
 20
3.954818254266636
 30
0.0
 40
0.0326817457333449
100
AcDbArc
 50
89.9999999999969
 51
123.5108229556653
  0
ARC
  5
2D0
330
2
100
AcDbEntity
  8
0
100
AcDbCircle
 10
-6.58728766497546
 20
3.906249999999989
 30
0.0
 40
0.0995832506954953
100
AcDbArc
 50
180.0000000000051
 51
203.0157918004522
  0
ARC
  5
2D1
330
2
100
AcDbEntity
  8
0
100
AcDbCircle
 10
-6.587287664975457
 20
3.906249999999973
 30
0.0
 40
0.0995832506955008
100
AcDbArc
 50
156.984208199548
 51
179.9999999999959
  0
ARC
  5
2D2
330
2
100
AcDbEntity
  8
0
100
AcDbCircle
 10
-6.537511359440758
 20
3.87652733570598
 30
0.0
 40
0.1575583950714934
100
AcDbArc
 50
124.7482755454356
 51
129.563607829622
  0
ARC
  5
2D3
330
2
100
AcDbEntity
  8
0
100
AcDbCircle
 10
-6.504887725087365
 20
3.829497538831278
 30
0.0
 40
0.2147956496571182
100
AcDbArc
 50
115.3310792578657
 51
124.7482755454315
  0
ARC
  5
2D4
330
2
100
AcDbEntity
  8
0
100
AcDbCircle
 10
-6.504887725087362
 20
3.983002461168686
 30
0.0
 40
0.2147956496571222
100
AcDbArc
 50
235.2517244545686
 51
244.6689207421343
  0
ARC
  5
2D5
330
2
100
AcDbEntity
  8
0
100
AcDbCircle
 10
-6.537511359440765
 20
3.935972664293972
 30
0.0
 40
0.157558395071483
100
AcDbArc
 50
230.4363921703775
 51
235.2517244545641
  0
ARC
  5
2D6
330
2
100
AcDbEntity
  8
0
100
AcDbCircle
 10
-6.384434878160229
 20
3.906249999999988
 30
0.0
 40
0.17106880063017
100
AcDbArc
 50
180.0000000000024
 51
195.0133710019995
  0
ARC
  5
2D7
330
2
100
AcDbEntity
  8
0
100
AcDbCircle
 10
-6.384434878160247
 20
3.906249999999972
 30
0.0
 40
0.1710688006301524
100
AcDbArc
 50
164.9866289979996
 51
179.999999999997
  0
LINE
  5
2D8
330
2
100
AcDbEntity
  8
0
100
AcDbLine
 10
-6.60853511386188
 20
6.687500000000002
 30
0.0
 11
-6.60853511386188
 21
4.249999999999998
 31
0.0
  0
LINE
  5
2D9
330
2
100
AcDbEntity
  8
0
100
AcDbLine
 10
-6.48353511386188
 20
4.124999999999998
 30
0.0
 11
-6.35853511386188
 21
4.124999999999998
 31
0.0
  0
ARC
  5
2DA
330
2
100
AcDbEntity
  8
0
100
AcDbCircle
 10
-6.35853511386188
 20
3.999999999999998
 30
0.0
 40
0.125
100
AcDbArc
 50
0.000000000000007
 51
90.0
  0
ARC
  5
2DB
330
2
100
AcDbEntity
  8
0
100
AcDbCircle
 10
-6.48353511386188
 20
4.249999999999998
 30
0.0
 40
0.125
100
AcDbArc
 50
180.0
 51
270.0
  0
LINE
  5
2DC
330
2
100
AcDbEntity
  8
0
100
AcDbLine
 10
-7.421035113861876
 20
0.3124999999999982
 30
0.0
 11
-7.42103511386188
 21
6.687500000000002
 31
0.0
  0
LINE
  5
2DD
330
2
100
AcDbEntity
  8
0
100
AcDbLine
 10
-7.35853511386188
 20
6.687500000000002
 30
0.0
 11
-7.358535113861876
 21
0.3124999999999982
 31
0.0
  0
ARC
  5
2DE
330
2
100
AcDbEntity
  8
0
100
AcDbCircle
 10
-7.358535113861876
 20
3.937499999999998
 30
0.0
 40
0.1875
100
AcDbArc
 50
270.0
 51
89.96944200000003
  0
LINE
  5
2DF
330
2
100
AcDbEntity
  8
0
100
AcDbLine
 10
-7.358535113861876
 20
0.3124999999999982
 30
0.0
 11
-7.421035113861876
 21
0.3124999999999982
 31
0.0
  0
LINE
  5
2E0
330
2
100
AcDbEntity
  8
0
100
AcDbLine
 10
-7.180709125370097
 20
0.2666162084151988
 30
0.0
 11
-7.106835125370097
 21
0.1927422084151989
 31
0.0
  0
LINE
  5
2E1
330
2
100
AcDbEntity
  8
0
100
AcDbLine
 10
-7.100952113861876
 20
0.1874999999999982
 30
0.0
 11
-7.174826113861876
 21
0.2613739999999982
 31
0.0
  0
LINE
  5
2E2
330
2
100
AcDbEntity
  8
0
100
AcDbLine
 10
-7.100952113861876
 20
0.0624999999999982
 30
0.0
 11
-7.100952113861876
 21
-0.0000000000000018
 31
0.0
  0
ARC
  5
2E3
330
2
100
AcDbEntity
  8
0
100
AcDbCircle
 10
-7.173126526320626
 20
0.1264507084151987
 30
0.0
 40
0.0937502683315312
100
AcDbArc
 50
314.999957195713
 51
45.00004280428698
  0
ARC
  5
2E4
330
2
100
AcDbEntity
  8
0
100
AcDbCircle
 10
-7.241117613861874
 20
0.1950825990494671
 30
0.0
 40
0.0937502683315312
100
AcDbArc
 50
44.99995719571303
 51
135.000042804287
  0
LINE
  5
2E5
330
2
100
AcDbEntity
  8
0
100
AcDbLine
 10
-7.307409113861876
 20
0.2613739999999982
 30
0.0
 11
-7.358535113861876
 21
0.3124999999999982
 31
0.0
  0
LINE
  5
2E6
330
2
100
AcDbEntity
  8
0
100
AcDbLine
 10
-7.104497409657885
 20
5.914749473488717
 30
0.0
 11
-7.282843275227272
 21
5.883302285491025
 31
0.0
  0
LINE
  5
2E7
330
2
100
AcDbEntity
  8
0
100
AcDbLine
 10
-7.104527583027714
 20
5.86696515781213
 30
0.0
 11
-7.276980334594089
 21
5.836557084813562
 31
0.0
  0
LINE
  5
2E8
330
2
100
AcDbEntity
  8
0
100
AcDbLine
 10
-7.121305925428356
 20
5.794966833685384
 30
0.0
 11
-7.356108630838556
 21
5.753564781578225
 31
0.0
  0
LINE
  5
2E9
330
2
100
AcDbEntity
  8
0
100
AcDbLine
 10
-7.356108630838556
 20
5.753564781578225
 30
0.0
 11
-7.363287897683971
 21
5.794280427116826
 31
0.0
  0
LINE
  5
2EA
330
2
100
AcDbEntity
  8
0
100
AcDbLine
 10
-7.282843275227272
 20
5.883302285491025
 30
0.0
 11
-7.276980334594089
 21
5.836557084813562
 31
0.0
  0
LINE
  5
2EB
330
2
100
AcDbEntity
  8
0
100
AcDbLine
 10
-7.282843275227272
 20
5.883302285491025
 30
0.0
 11
-7.363287897683971
 21
5.794280427116826
 31
0.0
  0
LINE
  5
2EC
330
2
100
AcDbEntity
  8
0
100
AcDbLine
 10
-7.276849068368193
 20
5.835510499753999
 30
0.0
 11
-7.356108630838556
 21
5.753564781578225
 31
0.0
  0
LINE
  5
2ED
330
2
100
AcDbEntity
  8
0
100
AcDbLine
 10
-7.356296185682091
 20
6.324634070962494
 30
0.0
 11
-7.076623314130035
 21
5.991332921539199
 31
0.0
  0
LINE
  5
2EE
330
2
100
AcDbEntity
  8
0
100
AcDbLine
 10
-7.42103511386188
 20
6.687500000000002
 30
0.0
 11
-7.35853511386188
 21
6.687500000000002
 31
0.0
  0
ARC
  5
2EF
330
2
100
AcDbEntity
  8
0
100
AcDbCircle
 10
-7.307077435682089
 20
6.414637800805553
 30
0.0
 40
0.04921875
100
AcDbArc
 50
180.0000000000001
 51
220.0
  0
ARC
  5
2F0
330
2
100
AcDbEntity
  8
0
100
AcDbCircle
 10
-7.307077435682089
 20
6.437500000000002
 30
0.0
 40
0.04921875
100
AcDbArc
 50
180.0
 51
219.9999999999998
  0
ENDSEC
  0
SECTION
  2
OBJECTS
  0
DICTIONARY
  5
9
330
0
100
AcDbDictionary
281
     1
  3
ACAD_COLOR
350
2FA
  3
ACAD_GROUP
350
23
  3
ACAD_LAYOUT
350
D
  3
ACAD_MATERIAL
350
2F9
  3
ACAD_MLINESTYLE
350
24
  3
ACAD_PLOTSETTINGS
350
25
  3
ACAD_PLOTSTYLENAME
350
8
  3
ACAD_TABLESTYLE
350
2FB
  3
ACDBHEADERROUNDTRIPXREC
350
30B
  3
AcDbVariableDictionary
350
11F
  0
DICTIONARY
  5
2FA
102
{ACAD_REACTORS
330
9
102
}
330
9
100
AcDbDictionary
281
     1
  0
DICTIONARY
  5
23
102
{ACAD_REACTORS
330
9
102
}
330
9
100
AcDbDictionary
281
     1
  0
DICTIONARY
  5
D
102
{ACAD_REACTORS
330
9
102
}
330
9
100
AcDbDictionary
281
     1
  3
Layout1
350
13
  3
Model
350
C
  0
DICTIONARY
  5
2F9
102
{ACAD_REACTORS
330
9
102
}
330
9
100
AcDbDictionary
281
     1
  0
DICTIONARY
  5
24
102
{ACAD_REACTORS
330
9
102
}
330
9
100
AcDbDictionary
281
     1
  3
STANDARD
350
27
  0
DICTIONARY
  5
25
102
{ACAD_REACTORS
330
9
102
}
330
9
100
AcDbDictionary
281
     1
  0
ACDBDICTIONARYWDFLT
  5
8
102
{ACAD_REACTORS
330
9
102
}
330
9
100
AcDbDictionary
281
     1
  3
Normal
350
7
100
AcDbDictionaryWithDefault
340
7
  0
DICTIONARY
  5
2FB
102
{ACAD_REACTORS
330
9
102
}
330
9
100
AcDbDictionary
281
     1
  3
Standard
350
2FC
  0
DICTIONARY
  5
30B
102
{ACAD_REACTORS
330
9
102
}
330
9
100
AcDbDictionary
281
     1
  3
COLORDICT
350
30C
  3
MATERIALDICT
350
30D
  0
DICTIONARY
  5
11F
102
{ACAD_REACTORS
330
9
102
}
330
9
100
AcDbDictionary
281
     1
  3
CTABLESTYLE
350
308
  3
HIDETEXT
350
30A
  0
LAYOUT
  5
13
102
{ACAD_REACTORS
330
D
102
}
102
{ACAD_XDICTIONARY
360
30E
102
}
330
D
100
AcDbPlotSettings
  1

  2
HP LaserJet 2100 Series PS
  4

  6

 40
0.0
 41
0.0
 42
0.0
 43
0.0
 44
0.0
 45
0.0
 46
0.0
 47
0.0
 48
0.0
 49
0.0
140
0.0
141
0.0
142
1.0
143
1.0
 70
   688
 72
     0
 73
     0
 74
     5
  7

 75
    16
147
1.0
148
0.0
149
0.0
100
AcDbLayout
  1
Layout1
 70
     0
 71
     1
 10
0.0
 20
0.0
 11
12.0
 21
9.0
 12
0.0
 22
0.0
 32
0.0
 14
1.000000000000000E+20
 24
1.000000000000000E+20
 34
1.000000000000000E+20
 15
-1.000000000000000E+20
 25
-1.000000000000000E+20
 35
-1.000000000000000E+20
146
0.0
 13
0.0
 23
0.0
 33
0.0
 16
1.0
 26
0.0
 36
0.0
 17
0.0
 27
1.0
 37
0.0
 76
     0
330
E
  0
LAYOUT
  5
C
102
{ACAD_REACTORS
330
D
102
}
102
{ACAD_XDICTIONARY
360
310
102
}
330
D
100
AcDbPlotSettings
  1

  2
HP LaserJet 2100 Series PS
  4
Letter
  6

 40
5.365749835968018
 41
5.408084392547607
 42
5.4080810546875
 43
5.365753173828125
 44
215.8999938964844
 45
279.3999938964844
 46
0.0
 47
0.0
 48
0.0
 49
0.0
140
0.0
141
0.0
142
1.0
143
1.0
 70
 11952
 72
     0
 73
     1
 74
     0
  7

 75
     0
147
1.0
148
-45.9138349049767
149
3.160184163354331
100
AcDbLayout
  1
Model
 70
     1
 71
     0
 10
0.0
 20
0.0
 11
12.0
 21
9.0
 12
0.0
 22
0.0
 32
0.0
 14
0.0
 24
0.0
 34
0.0
 15
0.0
 25
0.0
 35
0.0
146
0.0
 13
0.0
 23
0.0
 33
0.0
 16
1.0
 26
0.0
 36
0.0
 17
0.0
 27
1.0
 37
0.0
 76
     0
330
2
  0
MLINESTYLE
  5
27
102
{ACAD_REACTORS
330
24
102
}
330
24
100
AcDbMlineStyle
  2
STANDARD
 70
     0
  3

 62
   256
 51
90.0
 52
90.0
 71
     2
 49
0.5
 62
   256
  6
BYLAYER
 49
-0.5
 62
   256
  6
BYLAYER
  0
ACDBPLACEHOLDER
  5
7
102
{ACAD_REACTORS
330
8
102
}
330
8
  0
ACAD_PROXY_OBJECT
  5
2FC
102
{ACAD_REACTORS
330
2FB
102
}
330
2FB
100
AcDbProxyObject
 90
      499
 91
      585
 95
   983063
 70
     0
 93
     1841
310
4214DD185B99185C9928B81E85EB51B8AE3F2E07A17AD46E2B8FC02B5E8DC0F42B1CFD028000000C1008070000C3001FDFF8000000C1003FBFF000000182007F7FE00000030400FEFFC00000060801FDFF8000000C1003FBFF00000018200000000000000681FA0B0000001820100E000186003FBFF000000182007F7FE000
310
00030400FEFFC00000060801FDFF8000000C1003FBFF000000182007F7FE000000304000AD7A3703D0AC73F4160000003040201C00030C007F7FE00000030400FEFFC00000060801FDFF8000000C1003FBFF000000182007F7FE00000030400FEFFC000000608000
340
16
340
16
340
16
 94
        0
  0
XRECORD
  5
30C
102
{ACAD_REACTORS
330
30B
102
}
330
30B
100
AcDbXrecord
340
2FA
  0
XRECORD
  5
30D
102
{ACAD_REACTORS
330
30B
102
}
330
30B
100
AcDbXrecord
340
2F9
  0
DICTIONARYVAR
  5
308
102
{ACAD_REACTORS
330
11F
102
}
330
11F
100
DictionaryVariables
280
     0
  1
STANDARD
  0
DICTIONARYVAR
  5
30A
102
{ACAD_REACTORS
330
11F
102
}
330
11F
100
DictionaryVariables
280
     0
  1
0
  0
DICTIONARY
  5
30E
330
13
100
AcDbDictionary
280
     1
281
     1
  3
ACAD_XREC_ROUNDTRIP
360
30F
  0
DICTIONARY
  5
310
330
C
100
AcDbDictionary
280
     1
281
     1
  3
ACAD_XREC_ROUNDTRIP
360
311
  0
XRECORD
  5
30F
102
{ACAD_REACTORS
330
30E
102
}
330
30E
100
AcDbXrecord
102
SHADEPLOT
 70
     0
102
SHADEPLOTRESLEVEL
 70
     2
102
SHADEPLOTCUSTOMDPI
 70
   300
  0
XRECORD
  5
311
102
{ACAD_REACTORS
330
310
102
}
330
310
100
AcDbXrecord
102
SHADEPLOT
 70
     0
102
SHADEPLOTRESLEVEL
 70
     2
102
SHADEPLOTCUSTOMDPI
 70
   300
  0
ENDSEC
  0
EOF
