  0
SECTION
  2
HEADER
  9
$ACADVER
  1
AC1015
  9
$ACADMAINTVER
 70
     6
  9
$DWGCODEPAGE
  3
ANSI_1252
  9
$INSBASE
 10
0.0
 20
0.0
 30
0.0
  9
$EXTMIN
 10
-11.16096835436361
 20
-0.0258883476483184
 30
0.0
  9
$EXTMAX
 10
11.93531799741974
 20
14.15931138888095
 30
0.0
  9
$LIMMIN
 10
0.0
 20
0.0
  9
$LIMMAX
 10
42.0
 20
32.0
  9
$ORTHOMODE
 70
     1
  9
$REGENMODE
 70
     1
  9
$FILLMODE
 70
     1
  9
$QTEXTMODE
 70
     0
  9
$MIRRTEXT
 70
     1
  9
$LTSCALE
 40
0.5
  9
$ATTMODE
 70
     1
  9
$TEXTSIZE
 40
0.27
  9
$TRACEWID
 40
0.05
  9
$TEXTSTYLE
  7
STANDARD
  9
$CLAYER
  8
0
  9
$CELTYPE
  6
BYLAYER
  9
$CECOLOR
 62
   256
  9
$CELTSCALE
 40
1.0
  9
$DISPSILH
 70
     0
  9
$DIMSCALE
 40
1.0
  9
$DIMASZ
 40
0.375
  9
$DIMEXO
 40
0.0625
  9
$DIMDLI
 40
1.25
  9
$DIMRND
 40
0.0
  9
$DIMDLE
 40
0.0
  9
$DIMEXE
 40
0.18
  9
$DIMTP
 40
0.0
  9
$DIMTM
 40
0.0
  9
$DIMTXT
 40
0.27
  9
$DIMCEN
 40
-0.06
  9
$DIMTSZ
 40
0.0
  9
$DIMTOL
 70
     0
  9
$DIMLIM
 70
     0
  9
$DIMTIH
 70
     1
  9
$DIMTOH
 70
     1
  9
$DIMSE1
 70
     0
  9
$DIMSE2
 70
     0
  9
$DIMTAD
 70
     0
  9
$DIMZIN
 70
     0
  9
$DIMBLK
  1

  9
$DIMASO
 70
     0
  9
$DIMSHO
 70
     0
  9
$DIMPOST
  1

  9
$DIMAPOST
  1

  9
$DIMALT
 70
     0
  9
$DIMALTD
 70
     2
  9
$DIMALTF
 40
25.4
  9
$DIMLFAC
 40
1.0
  9
$DIMTOFL
 70
     0
  9
$DIMTVP
 40
0.0
  9
$DIMTIX
 70
     0
  9
$DIMSOXD
 70
     0
  9
$DIMSAH
 70
     0
  9
$DIMBLK1
  1

  9
$DIMBLK2
  1

  9
$DIMSTYLE
  2
STANDARD
  9
$DIMCLRD
 70
     0
  9
$DIMCLRE
 70
     0
  9
$DIMCLRT
 70
     0
  9
$DIMTFAC
 40
1.0
  9
$DIMGAP
 40
0.09
  9
$DIMJUST
 70
     0
  9
$DIMSD1
 70
     0
  9
$DIMSD2
 70
     0
  9
$DIMTOLJ
 70
     1
  9
$DIMTZIN
 70
     0
  9
$DIMALTZ
 70
     0
  9
$DIMALTTZ
 70
     0
  9
$DIMUPT
 70
     0
  9
$DIMDEC
 70
     5
  9
$DIMTDEC
 70
     5
  9
$DIMALTU
 70
     5
  9
$DIMALTTD
 70
     2
  9
$DIMTXSTY
  7
STANDARD
  9
$DIMAUNIT
 70
     0
  9
$DIMADEC
 70
     0
  9
$DIMALTRND
 40
0.0
  9
$DIMAZIN
 70
     0
  9
$DIMDSEP
 70
    46
  9
$DIMATFIT
 70
     3
  9
$DIMFRAC
 70
     0
  9
$DIMLDRBLK
  1

  9
$DIMLUNIT
 70
     5
  9
$DIMLWD
 70
    -2
  9
$DIMLWE
 70
    -2
  9
$DIMTMOVE
 70
     2
  9
$LUNITS
 70
     5
  9
$LUPREC
 70
     5
  9
$SKETCHINC
 40
0.1
  9
$FILLETRAD
 40
0.0
  9
$AUNITS
 70
     0
  9
$AUPREC
 70
     0
  9
$MENU
  1
ACAD
  9
$ELEVATION
 40
0.0
  9
$PELEVATION
 40
0.0
  9
$THICKNESS
 40
0.0
  9
$LIMCHECK
 70
     0
  9
$CHAMFERA
 40
0.0
  9
$CHAMFERB
 40
0.0
  9
$CHAMFERC
 40
0.0
  9
$CHAMFERD
 40
0.0
  9
$SKPOLY
 70
     0
  9
$TDCREATE
 40
2448922.697317014
  9
$TDUCREATE
 40
2448923.030650347
  9
$TDUPDATE
 40
2454175.701472581
  9
$TDUUPDATE
 40
2454176.034805914
  9
$TDINDWG
 40
0.205186713
  9
$TDUSRTIMER
 40
0.205186713
  9
$USRTIMER
 70
     1
  9
$ANGBASE
 50
0.0
  9
$ANGDIR
 70
     0
  9
$PDMODE
 70
     0
  9
$PDSIZE
 40
0.0
  9
$PLINEWID
 40
0.0
  9
$SPLFRAME
 70
     0
  9
$SPLINETYPE
 70
     6
  9
$SPLINESEGS
 70
     8
  9
$HANDSEED
  5
A40
  9
$SURFTAB1
 70
     6
  9
$SURFTAB2
 70
     6
  9
$SURFTYPE
 70
     6
  9
$SURFU
 70
     6
  9
$SURFV
 70
     6
  9
$UCSBASE
  2

  9
$UCSNAME
  2

  9
$UCSORG
 10
0.0
 20
0.0
 30
0.0
  9
$UCSXDIR
 10
1.0
 20
0.0
 30
0.0
  9
$UCSYDIR
 10
0.0
 20
1.0
 30
0.0
  9
$UCSORTHOREF
  2

  9
$UCSORTHOVIEW
 70
     0
  9
$UCSORGTOP
 10
0.0
 20
0.0
 30
0.0
  9
$UCSORGBOTTOM
 10
0.0
 20
0.0
 30
0.0
  9
$UCSORGLEFT
 10
0.0
 20
0.0
 30
0.0
  9
$UCSORGRIGHT
 10
0.0
 20
0.0
 30
0.0
  9
$UCSORGFRONT
 10
0.0
 20
0.0
 30
0.0
  9
$UCSORGBACK
 10
0.0
 20
0.0
 30
0.0
  9
$PUCSBASE
  2

  9
$PUCSNAME
  2

  9
$PUCSORG
 10
0.0
 20
0.0
 30
0.0
  9
$PUCSXDIR
 10
1.0
 20
0.0
 30
0.0
  9
$PUCSYDIR
 10
0.0
 20
1.0
 30
0.0
  9
$PUCSORTHOREF
  2

  9
$PUCSORTHOVIEW
 70
     0
  9
$PUCSORGTOP
 10
0.0
 20
0.0
 30
0.0
  9
$PUCSORGBOTTOM
 10
0.0
 20
0.0
 30
0.0
  9
$PUCSORGLEFT
 10
0.0
 20
0.0
 30
0.0
  9
$PUCSORGRIGHT
 10
0.0
 20
0.0
 30
0.0
  9
$PUCSORGFRONT
 10
0.0
 20
0.0
 30
0.0
  9
$PUCSORGBACK
 10
0.0
 20
0.0
 30
0.0
  9
$USERI1
 70
     0
  9
$USERI2
 70
     0
  9
$USERI3
 70
     0
  9
$USERI4
 70
     0
  9
$USERI5
 70
     0
  9
$USERR1
 40
0.0
  9
$USERR2
 40
0.0
  9
$USERR3
 40
0.0
  9
$USERR4
 40
0.0
  9
$USERR5
 40
0.0
  9
$WORLDVIEW
 70
     1
  9
$SHADEDGE
 70
     3
  9
$SHADEDIF
 70
    70
  9
$TILEMODE
 70
     1
  9
$MAXACTVP
 70
    16
  9
$PINSBASE
 10
0.0
 20
0.0
 30
0.0
  9
$PLIMCHECK
 70
     0
  9
$PEXTMIN
 10
1.000000000000000E+20
 20
1.000000000000000E+20
 30
1.000000000000000E+20
  9
$PEXTMAX
 10
-1.000000000000000E+20
 20
-1.000000000000000E+20
 30
-1.000000000000000E+20
  9
$PLIMMIN
 10
0.0
 20
0.0
  9
$PLIMMAX
 10
12.0
 20
9.0
  9
$UNITMODE
 70
     0
  9
$VISRETAIN
 70
     0
  9
$PLINEGEN
 70
     0
  9
$PSLTSCALE
 70
     0
  9
$TREEDEPTH
 70
  3020
  9
$CMLSTYLE
  2
STANDARD
  9
$CMLJUST
 70
     0
  9
$CMLSCALE
 40
1.0
  9
$PROXYGRAPHICS
 70
     1
  9
$MEASUREMENT
 70
     0
  9
$CELWEIGHT
370
    -1
  9
$ENDCAPS
280
     0
  9
$JOINSTYLE
280
     0
  9
$LWDISPLAY
290
     0
  9
$INSUNITS
 70
     0
  9
$HYPERLINKBASE
  1

  9
$STYLESHEET
  1

  9
$XEDIT
290
     1
  9
$CEPSNTYPE
380
     0
  9
$PSTYLEMODE
290
     1
  9
$FINGERPRINTGUID
  2
{A568510E-C481-11D5-BE3F-00508B5FCD51}
  9
$VERSIONGUID
  2
{9D19905B-4AF3-488C-8E15-7B3C97DD8F23}
  9
$EXTNAMES
290
     1
  9
$PSVPSCALE
 40
0.0
  9
$OLESTARTUP
290
     0
  0
ENDSEC
  0
SECTION
  2
CLASSES
  0
CLASS
  1
DICTIONARYVAR
  2
AcDbDictionaryVar
  3
AutoCAD 2000
 90
        0
280
     0
281
     0
  0
CLASS
  1
LWPOLYLINE
  2
AcDbPolyline
  3
AutoCAD 2000
 90
        0
280
     0
281
     1
  0
CLASS
  1
ACDBDICTIONARYWDFLT
  2
AcDbDictionaryWithDefault
  3
AutoCAD 2000
 90
        0
280
     0
281
     0
  0
CLASS
  1
ACDBPLACEHOLDER
  2
AcDbPlaceHolder
  3
ObjectDBX Classes
 90
        0
280
     0
281
     0
  0
CLASS
  1
LAYOUT
  2
AcDbLayout
  3
ObjectDBX Classes
 90
        0
280
     0
281
     0
  0
CLASS
  1
LONG_TRANSACTION
  2
AcDbLongTransaction
  3
ObjectDBX Classes
 90
   -65536
280
     1
281
     0
  0
CLASS
  1
LWPOLYLINE
  2
AcDbPolyline
  3
AutoCAD 2000
 90
        0
280
     0
281
     1
  0
CLASS
  1
HATCH
  2
AcDbHatch
  3
AutoCAD 2000
 90
        0
280
     0
281
     1
  0
CLASS
  1
XRECORD
  2
AcDbXrecord
  3
AutoCAD 2000
 90
        0
280
     0
281
     0
  0
CLASS
  1
LONG_TRANSACTION
  2
AcDbLongTransaction
  3
ObjectDBX Classes
 90
   -65536
280
     1
281
     0
  0
CLASS
  1
LWPOLYLINE
  2
AcDbPolyline
  3
AutoCAD 2000
 90
        0
280
     0
281
     1
  0
CLASS
  1
HATCH
  2
AcDbHatch
  3
AutoCAD 2000
 90
        0
280
     0
281
     1
  0
CLASS
  1
XRECORD
  2
AcDbXrecord
  3
AutoCAD 2000
 90
        0
280
     0
281
     0
  0
CLASS
  1
LONG_TRANSACTION
  2
AcDbLongTransaction
  3
ObjectDBX Classes
 90
   -65536
280
     1
281
     0
  0
CLASS
  1
LWPOLYLINE
  2
AcDbPolyline
  3
AutoCAD 2000
 90
        0
280
     0
281
     1
  0
CLASS
  1
HATCH
  2
AcDbHatch
  3
AutoCAD 2000
 90
        0
280
     0
281
     1
  0
CLASS
  1
XRECORD
  2
AcDbXrecord
  3
AutoCAD 2000
 90
        0
280
     0
281
     0
  0
CLASS
  1
LONG_TRANSACTION
  2
AcDbLongTransaction
  3
ObjectDBX Classes
 90
   -65536
280
     1
281
     0
  0
CLASS
  1
LWPOLYLINE
  2
AcDbPolyline
  3
AutoCAD 2000
 90
        0
280
     0
281
     1
  0
CLASS
  1
HATCH
  2
AcDbHatch
  3
AutoCAD 2000
 90
        0
280
     0
281
     1
  0
CLASS
  1
XRECORD
  2
AcDbXrecord
  3
AutoCAD 2000
 90
        0
280
     0
281
     0
  0
CLASS
  1
LONG_TRANSACTION
  2
AcDbLongTransaction
  3
ObjectDBX Classes
 90
   -65536
280
     1
281
     0
  0
CLASS
  1
LWPOLYLINE
  2
AcDbPolyline
  3
AutoCAD 2000
 90
        0
280
     0
281
     1
  0
CLASS
  1
HATCH
  2
AcDbHatch
  3
AutoCAD 2000
 90
        0
280
     0
281
     1
  0
CLASS
  1
XRECORD
  2
AcDbXrecord
  3
AutoCAD 2000
 90
        0
280
     0
281
     0
  0
CLASS
  1
LONG_TRANSACTION
  2
AcDbLongTransaction
  3
ObjectDBX Classes
 90
   -65536
280
     1
281
     0
  0
CLASS
  1
LWPOLYLINE
  2
AcDbPolyline
  3
AutoCAD 2000
 90
        0
280
     0
281
     1
  0
CLASS
  1
HATCH
  2
AcDbHatch
  3
AutoCAD 2000
 90
        0
280
     0
281
     1
  0
CLASS
  1
XRECORD
  2
AcDbXrecord
  3
AutoCAD 2000
 90
        0
280
     0
281
     0
  0
CLASS
  1
LONG_TRANSACTION
  2
AcDbLongTransaction
  3
ObjectDBX Classes
 90
   -65536
280
     1
281
     0
  0
CLASS
  1
LWPOLYLINE
  2
AcDbPolyline
  3
AutoCAD 2000
 90
        0
280
     0
281
     1
  0
CLASS
  1
HATCH
  2
AcDbHatch
  3
AutoCAD 2000
 90
        0
280
     0
281
     1
  0
CLASS
  1
XRECORD
  2
AcDbXrecord
  3
AutoCAD 2000
 90
        0
280
     0
281
     0
  0
CLASS
  1
LONG_TRANSACTION
  2
AcDbLongTransaction
  3
ObjectDBX Classes
 90
   -65536
280
     1
281
     0
  0
CLASS
  1
LWPOLYLINE
  2
AcDbPolyline
  3
AutoCAD 2000
 90
        0
280
     0
281
     1
  0
CLASS
  1
HATCH
  2
AcDbHatch
  3
AutoCAD 2000
 90
        0
280
     0
281
     1
  0
CLASS
  1
XRECORD
  2
AcDbXrecord
  3
AutoCAD 2000
 90
        0
280
     0
281
     0
  0
CLASS
  1
LONG_TRANSACTION
  2
AcDbLongTransaction
  3
ObjectDBX Classes
 90
   -65536
280
     1
281
     0
  0
CLASS
  1
LWPOLYLINE
  2
AcDbPolyline
  3
AutoCAD 2000
 90
        0
280
     0
281
     1
  0
CLASS
  1
HATCH
  2
AcDbHatch
  3
AutoCAD 2000
 90
        0
280
     0
281
     1
  0
CLASS
  1
XRECORD
  2
AcDbXrecord
  3
AutoCAD 2000
 90
        0
280
     0
281
     0
  0
CLASS
  1
LONG_TRANSACTION
  2
AcDbLongTransaction
  3
ObjectDBX Classes
 90
   -65536
280
     1
281
     0
  0
CLASS
  1
LWPOLYLINE
  2
AcDbPolyline
  3
AutoCAD 2000
 90
        0
280
     0
281
     1
  0
CLASS
  1
HATCH
  2
AcDbHatch
  3
AutoCAD 2000
 90
        0
280
     0
281
     1
  0
CLASS
  1
XRECORD
  2
AcDbXrecord
  3
AutoCAD 2000
 90
        0
280
     0
281
     0
  0
CLASS
  1
LONG_TRANSACTION
  2
AcDbLongTransaction
  3
ObjectDBX Classes
 90
   -65536
280
     1
281
     0
  0
CLASS
  1
LWPOLYLINE
  2
AcDbPolyline
  3
AutoCAD 2000
 90
        0
280
     0
281
     1
  0
CLASS
  1
HATCH
  2
AcDbHatch
  3
AutoCAD 2000
 90
        0
280
     0
281
     1
  0
CLASS
  1
XRECORD
  2
AcDbXrecord
  3
AutoCAD 2000
 90
        0
280
     0
281
     0
  0
CLASS
  1
LONG_TRANSACTION
  2
AcDbLongTransaction
  3
ObjectDBX Classes
 90
   -65536
280
     1
281
     0
  0
CLASS
  1
LWPOLYLINE
  2
AcDbPolyline
  3
AutoCAD 2000
 90
        0
280
     0
281
     1
  0
CLASS
  1
HATCH
  2
AcDbHatch
  3
AutoCAD 2000
 90
        0
280
     0
281
     1
  0
CLASS
  1
XRECORD
  2
AcDbXrecord
  3
AutoCAD 2000
 90
        0
280
     0
281
     0
  0
CLASS
  1
LONG_TRANSACTION
  2
AcDbLongTransaction
  3
ObjectDBX Classes
 90
   -65536
280
     1
281
     0
  0
CLASS
  1
LWPOLYLINE
  2
AcDbPolyline
  3
AutoCAD 2000
 90
        0
280
     0
281
     1
  0
CLASS
  1
HATCH
  2
AcDbHatch
  3
AutoCAD 2000
 90
        0
280
     0
281
     1
  0
CLASS
  1
XRECORD
  2
AcDbXrecord
  3
AutoCAD 2000
 90
        0
280
     0
281
     0
  0
CLASS
  1
TABLESTYLE
  2
AcDbTableStyle
  3
ObjectDBX Classes
 90
     2047
280
     1
281
     0
  0
ENDSEC
  0
SECTION
  2
TABLES
  0
TABLE
  2
VPORT
  5
1D
330
0
100
AcDbSymbolTable
 70
     3
  0
VPORT
  5
A30
330
1D
100
AcDbSymbolTableRecord
100
AcDbViewportTableRecord
  2
*Active
 70
     0
 10
0.0
 20
0.0
 11
1.0
 21
1.0
 12
5.702340828217636
 22
9.656550253518882
 13
0.0
 23
0.0
 14
0.0625
 24
0.0625
 15
0.5
 25
0.5
 16
0.0
 26
0.0
 36
1.0
 17
0.0
 27
0.0
 37
0.0
 40
25.58094992181228
 41
1.814583333333333
 42
50.0
 43
0.0
 44
0.0
 50
0.0
 51
0.0
 71
     0
 72
   100
 73
     1
 74
     1
 75
     0
 76
     0
 77
     0
 78
     0
281
     0
 65
     1
110
0.0
120
0.0
130
0.0
111
1.0
121
0.0
131
0.0
112
0.0
122
1.0
132
0.0
 79
     0
146
0.0
  0
ENDTAB
  0
TABLE
  2
LTYPE
  5
18
330
0
100
AcDbSymbolTable
 70
     3
  0
LTYPE
  5
19
330
18
100
AcDbSymbolTableRecord
100
AcDbLinetypeTableRecord
  2
BYBLOCK
 70
     0
  3

 72
    65
 73
     0
 40
0.0
  0
LTYPE
  5
1A
330
18
100
AcDbSymbolTableRecord
100
AcDbLinetypeTableRecord
  2
BYLAYER
 70
     0
  3

 72
    65
 73
     0
 40
0.0
  0
LTYPE
  5
A
330
18
100
AcDbSymbolTableRecord
100
AcDbLinetypeTableRecord
  2
CONTINUOUS
 70
     0
  3
Solid line
 72
    65
 73
     0
 40
0.0
  0
LTYPE
  5
36
330
18
100
AcDbSymbolTableRecord
100
AcDbLinetypeTableRecord
  2
HIDDEN
 70
     0
  3
_ _ _ _ _ _ _ _ _ _ _ _ _ _ _ _ _ _ _ _ _ _ _
 72
    65
 73
     2
 40
0.375
 49
0.25
 74
     0
 49
-0.125
 74
     0
  0
ENDTAB
  0
TABLE
  2
LAYER
  5
14
330
0
100
AcDbSymbolTable
 70
     4
  0
LAYER
  5
6
330
14
100
AcDbSymbolTableRecord
100
AcDbLayerTableRecord
  2
0
 70
     0
 62
     7
  6
CONTINUOUS
370
    -3
390
7
  0
ENDTAB
  0
TABLE
  2
STYLE
  5
15
330
0
100
AcDbSymbolTable
 70
     1
  0
STYLE
  5
16
330
15
100
AcDbSymbolTableRecord
100
AcDbTextStyleTableRecord
  2
STANDARD
 70
     0
 40
0.0
 41
1.0
 50
0.0
 71
     0
 42
0.27
  3
txt
  4

  0
ENDTAB
  0
TABLE
  2
VIEW
  5
1B
330
0
100
AcDbSymbolTable
 70
     0
  0
ENDTAB
  0
TABLE
  2
UCS
  5
1C
330
0
100
AcDbSymbolTable
 70
     0
  0
ENDTAB
  0
TABLE
  2
APPID
  5
1F
330
0
100
AcDbSymbolTable
 70
     1
  0
APPID
  5
20
330
1F
100
AcDbSymbolTableRecord
100
AcDbRegAppTableRecord
  2
ACAD
 70
     0
  0
ENDTAB
  0
TABLE
  2
DIMSTYLE
  5
21
330
0
100
AcDbSymbolTable
 70
     1
100
AcDbDimStyleTable
  0
DIMSTYLE
105
22
330
21
100
AcDbSymbolTableRecord
100
AcDbDimStyleTableRecord
  2
STANDARD
 70
     0
  3

  4

340
16
  0
ENDTAB
  0
TABLE
  2
BLOCK_RECORD
  5
1
330
0
100
AcDbSymbolTable
 70
     0
  0
BLOCK_RECORD
  5
2
330
1
100
AcDbSymbolTableRecord
100
AcDbBlockTableRecord
  2
*MODEL_SPACE
340
C
  0
BLOCK_RECORD
  5
E
330
1
100
AcDbSymbolTableRecord
100
AcDbBlockTableRecord
  2
*PAPER_SPACE
340
13
  0
ENDTAB
  0
ENDSEC
  0
SECTION
  2
BLOCKS
  0
BLOCK
  5
5
330
2
100
AcDbEntity
  8
0
100
AcDbBlockBegin
  2
*MODEL_SPACE
 70
     0
 10
0.0
 20
0.0
 30
0.0
  3
*MODEL_SPACE
  1

  4

  0
ENDBLK
  5
B
330
2
100
AcDbEntity
  8
0
100
AcDbBlockEnd
  0
BLOCK
  5
11
330
E
100
AcDbEntity
 67
     1
  8
0
100
AcDbBlockBegin
  2
*PAPER_SPACE
 70
     0
 10
0.0
 20
0.0
 30
0.0
  3
*PAPER_SPACE
  1

  4

  0
ENDBLK
  5
12
330
E
100
AcDbEntity
 67
     1
  8
0
100
AcDbBlockEnd
  0
ENDSEC
  0
SECTION
  2
ENTITIES
  0
LINE
  5
29
330
2
100
AcDbEntity
  8
0
100
AcDbLine
 10
-10.16096835436361
 20
6.500000000000007
 30
0.0
 11
-10.16096835436361
 21
7.125000000000007
 31
0.0
  0
LINE
  5
2B
330
2
100
AcDbEntity
  8
0
100
AcDbLine
 10
-11.09846835436361
 20
0.8151001527185109
 30
0.0
 11
-11.09846835436361
 21
8.812500000000007
 31
0.0
  0
LINE
  5
2C
330
2
100
AcDbEntity
  8
0
100
AcDbLine
 10
-11.16096835436361
 20
0.9043594031398925
 30
0.0
 11
-11.16096835436361
 21
8.812500000000007
 31
0.0
  0
LINE
  5
2D
330
2
100
AcDbEntity
  8
0
100
AcDbLine
 10
-8.95107434882749
 20
0.6845996975063784
 30
0.0
 11
-10.13551550301983
 21
2.405676240467251
 31
0.0
  0
LINE
  5
34
330
2
100
AcDbEntity
  8
0
100
AcDbLine
 10
-8.928468354363616
 20
0.0
 30
0.0
 11
-10.92846835436362
 21
0.0
 31
0.0
  0
LINE
  5
35
330
2
100
AcDbEntity
  8
0
  6
HIDDEN
100
AcDbLine
 10
-8.928468354363616
 20
0.0625
 30
0.0
 11
-10.92846835436362
 21
0.0625
 31
0.0
  0
LINE
  5
37
330
2
100
AcDbEntity
  8
0
100
AcDbLine
 10
-10.95107434882749
 20
0.604599697506373
 30
0.0
 11
-11.16096835436361
 21
0.9043594031398925
 31
0.0
  0
LINE
  5
38
330
2
100
AcDbEntity
  8
0
100
AcDbLine
 10
-10.92846835436362
 20
0.0
 30
0.0
 11
-10.92846835436362
 21
0.0625
 31
0.0
  0
LINE
  5
39
330
2
100
AcDbEntity
  8
0
100
AcDbLine
 10
-10.92846835436362
 20
0.0
 30
0.0
 11
-10.92846835436362
 21
0.5329026429624904
 31
0.0
  0
ARC
  5
3A
330
2
100
AcDbEntity
  8
0
100
AcDbCircle
 10
-11.05346835436361
 20
0.5329026429624904
 30
0.0
 40
0.125
100
AcDbArc
 50
0.000000000000007
 51
35.00000000000007
  0
ARC
  5
3E
330
2
100
AcDbEntity
  8
0
100
AcDbCircle
 10
-9.053468354363616
 20
0.6129026429624958
 30
0.0
 40
0.125
100
AcDbArc
 50
0.000000000000007
 51
35.00000000000007
  0
LINE
  5
3F
330
2
100
AcDbEntity
  8
0
100
AcDbLine
 10
-8.928468354363616
 20
0.0
 30
0.0
 11
-8.928468354363616
 21
0.6129026429625029
 31
0.0
  0
LINE
  5
40
330
2
100
AcDbEntity
  8
0
100
AcDbLine
 10
-10.09846835436362
 20
1.192209973885518
 30
0.0
 11
-10.09846835436362
 21
1.626209973885516
 31
0.0
  0
ARC
  5
41
330
2
100
AcDbEntity
  8
0
100
AcDbCircle
 10
-9.973468354363611
 20
4.500000000000007
 30
0.0
 40
0.1875
100
AcDbArc
 50
180.0
 51
250.3666411024103
  0
ARC
  5
46
330
2
100
AcDbEntity
  8
0
100
AcDbCircle
 10
-9.973468354363611
 20
2.500000000000007
 30
0.0
 40
0.1875
100
AcDbArc
 50
180.0
 51
210.2026586833965
  0
ARC
  5
47
330
2
100
AcDbEntity
  8
0
100
AcDbCircle
 10
-9.973468354363611
 20
3.125000000000007
 30
0.0
 40
0.1875
100
AcDbArc
 50
90.0
 51
180.0
  0
LINE
  5
48
330
2
100
AcDbEntity
  8
0
100
AcDbLine
 10
-10.16096835436361
 20
2.500000000000007
 30
0.0
 11
-10.16096835436361
 21
3.125000000000007
 31
0.0
  0
ARC
  5
49
330
2
100
AcDbEntity
  8
0
100
AcDbCircle
 10
-11.09846835436361
 20
2.563030000000005
 30
0.0
 40
0.156
100
AcDbArc
 50
270.0
 51
90.0
  0
LINE
  5
4D
330
2
100
AcDbEntity
  8
0
100
AcDbLine
 10
-10.09846835436362
 20
3.680880000000022
 30
0.0
 11
-10.09846835436362
 21
4.114880000000019
 31
0.0
  0
LINE
  5
4E
330
2
100
AcDbEntity
  8
0
100
AcDbLine
 10
-9.848968354363606
 20
4.130200000000009
 30
0.0
 11
-9.848968354363606
 21
3.494800000000012
 31
0.0
  0
ARC
  5
4F
330
2
100
AcDbEntity
  8
0
100
AcDbCircle
 10
-10.03646835436361
 20
3.494800000000012
 30
0.0
 40
0.1875
100
AcDbArc
 50
289.6333588975684
 51
0.000000000000007
  0
ARC
  5
50
330
2
100
AcDbEntity
  8
0
100
AcDbCircle
 10
-10.03646835436361
 20
4.130200000000009
 30
0.0
 40
0.1875
100
AcDbArc
 50
0.000000000000007
 51
90.0
  0
ARC
  5
51
330
2
100
AcDbEntity
  8
0
100
AcDbCircle
 10
-9.973468354363611
 20
6.500000000000007
 30
0.0
 40
0.1875
100
AcDbArc
 50
180.0
 51
250.3666411024103
  0
ARC
  5
53
330
2
100
AcDbEntity
  8
0
100
AcDbCircle
 10
-9.973468354363611
 20
5.125000000000007
 30
0.0
 40
0.1875
100
AcDbArc
 50
90.0
 51
180.0
  0
LINE
  5
58
330
2
100
AcDbEntity
  8
0
100
AcDbLine
 10
-10.16096835436361
 20
4.500000000000007
 30
0.0
 11
-10.16096835436361
 21
5.125000000000007
 31
0.0
  0
LINE
  5
5B
330
2
100
AcDbEntity
  8
0
100
AcDbLine
 10
-10.09846835436362
 20
5.720500000000001
 30
0.0
 11
-10.09846835436362
 21
6.154499999999999
 31
0.0
  0
LINE
  5
5C
330
2
100
AcDbEntity
  8
0
100
AcDbLine
 10
-9.848968354363606
 20
5.494799788214714
 30
0.0
 11
-9.848968354363606
 21
6.130200000000009
 31
0.0
  0
ARC
  5
5D
330
2
100
AcDbEntity
  8
0
100
AcDbCircle
 10
-10.03646835436361
 20
5.494800000000012
 30
0.0
 40
0.1875
100
AcDbArc
 50
289.6333588975684
 51
0.000000000000007
  0
ARC
  5
5E
330
2
100
AcDbEntity
  8
0
100
AcDbCircle
 10
-10.03646835436361
 20
6.130200000000009
 30
0.0
 40
0.1875
100
AcDbArc
 50
0.000000000000007
 51
90.0
  0
ARC
  5
5F
330
2
100
AcDbEntity
  8
0
100
AcDbCircle
 10
-9.973468354363611
 20
8.500000000000007
 30
0.0
 40
0.1875
100
AcDbArc
 50
180.0
 51
257.2535862916184
  0
ARC
  5
60
330
2
100
AcDbEntity
  8
0
100
AcDbCircle
 10
-9.96217881654573
 20
7.119660356708948
 30
0.0
 40
0.198861238395826
100
AcDbArc
 50
93.25448456194559
 51
178.4613602840799
  0
LINE
  5
61
330
2
100
AcDbEntity
  8
0
100
AcDbLine
 10
-10.87705835436361
 20
8.101599206067725
 30
0.0
 11
-11.09846835436361
 21
8.284709206067724
 31
0.0
  0
LINE
  5
62
330
2
100
AcDbEntity
  8
0
100
AcDbLine
 10
-11.09846835436361
 20
8.347209206067724
 30
0.0
 11
-10.78596835436361
 21
8.097209206067724
 31
0.0
  0
LINE
  5
63
330
2
100
AcDbEntity
  8
0
100
AcDbLine
 10
-11.09846835436361
 20
7.909709206067724
 30
0.0
 11
-11.09846835436361
 21
7.972209206067724
 31
0.0
  0
LINE
  5
64
330
2
100
AcDbEntity
  8
0
100
AcDbLine
 10
-11.09846835436361
 20
7.972209206067724
 30
0.0
 11
-10.87705835436361
 21
8.101599206067725
 31
0.0
  0
LINE
  5
65
330
2
100
AcDbEntity
  8
0
100
AcDbLine
 10
-10.78596835436361
 20
8.097209206067724
 30
0.0
 11
-11.09846835436361
 21
7.909709206067724
 31
0.0
  0
LINE
  5
66
330
2
100
AcDbEntity
  8
0
100
AcDbLine
 10
-10.16096835436361
 20
8.500000000000007
 30
0.0
 11
-10.16096835436361
 21
8.812500000000007
 31
0.0
  0
LINE
  5
67
330
2
100
AcDbEntity
  8
0
100
AcDbLine
 10
-10.16096835436361
 20
8.812500000000007
 30
0.0
 11
-11.16096835436361
 21
8.812500000000007
 31
0.0
  0
ARC
  5
68
330
2
100
AcDbEntity
  8
0
100
AcDbCircle
 10
-10.03712914303942
 20
8.130285021508939
 30
0.0
 40
0.1881608078845258
100
AcDbArc
 50
359.9741105820586
 51
83.19617282319445
  0
LINE
  5
69
330
2
100
AcDbEntity
  8
0
100
AcDbLine
 10
-9.848968354363606
 20
7.494800000000012
 30
0.0
 11
-9.848968354363606
 21
8.130200227943945
 31
0.0
  0
ARC
  5
6A
330
2
100
AcDbEntity
  8
0
100
AcDbCircle
 10
-10.03646835436361
 20
7.494800000000012
 30
0.0
 40
0.1875
100
AcDbArc
 50
289.6333588975684
 51
0.000000000000007
  0
LINE
  5
6B
330
2
100
AcDbEntity
  8
0
100
AcDbLine
 10
10.93531799741974
 20
6.500000000000007
 30
0.0
 11
10.93531799741974
 21
7.125000000000007
 31
0.0
  0
LINE
  5
6C
330
2
100
AcDbEntity
  8
0
100
AcDbLine
 10
11.87281799741974
 20
0.8151001527185109
 30
0.0
 11
11.87281799741974
 21
8.812500000000007
 31
0.0
  0
LINE
  5
6D
330
2
100
AcDbEntity
  8
0
100
AcDbLine
 10
11.93531799741974
 20
0.9043594031398925
 30
0.0
 11
11.93531799741974
 21
8.812500000000007
 31
0.0
  0
LINE
  5
6E
330
2
100
AcDbEntity
  8
0
100
AcDbLine
 10
2.905250000000002
 20
6.5
 30
0.0
 11
2.905250000000002
 21
7.125
 31
0.0
  0
LINE
  5
6F
330
2
100
AcDbEntity
  8
0
100
AcDbLine
 10
-2.905750000000001
 20
6.5
 30
0.0
 11
-2.905749999999999
 21
7.125
 31
0.0
  0
LINE
  5
70
330
2
100
AcDbEntity
  8
0
100
AcDbLine
 10
-1.78125
 20
0.875
 30
0.0
 11
-1.78125
 21
8.8125
 31
0.0
  0
LINE
  5
71
330
2
100
AcDbEntity
  8
0
100
AcDbLine
 10
-1.84375
 20
0.875
 30
0.0
 11
-1.84375
 21
8.8125
 31
0.0
  0
LINE
  5
72
330
2
100
AcDbEntity
  8
0
100
AcDbLine
 10
1.78125
 20
0.875
 30
0.0
 11
1.78125
 21
8.8125
 31
0.0
  0
LINE
  5
73
330
2
100
AcDbEntity
  8
0
100
AcDbLine
 10
1.84375
 20
0.875
 30
0.0
 11
1.84375
 21
8.8125
 31
0.0
  0
LINE
  5
76
330
2
100
AcDbEntity
  8
0
100
AcDbLine
 10
1.843250000000001
 20
0.6249000000000002
 30
0.0
 11
2.879797148656213
 21
2.405676240467251
 31
0.0
  0
LINE
  5
77
330
2
100
AcDbEntity
  8
0
100
AcDbLine
 10
-1.84375
 20
0.6249000000000002
 30
0.0
 11
-2.880297148656211
 21
2.405676240467251
 31
0.0
  0
LINE
  5
78
330
2
100
AcDbEntity
  8
0
100
AcDbLine
 10
-1.71875
 20
0.0
 30
0.0
 11
1.71875
 21
0.0
 31
0.0
  0
LINE
  5
79
330
2
100
AcDbEntity
  8
0
100
AcDbLine
 10
-1.719249999999999
 20
0.0625
 30
0.0
 11
1.71875
 21
0.0625
 31
0.0
  0
LINE
  5
7A
330
2
100
AcDbEntity
  8
0
100
AcDbLine
 10
-1.78125
 20
0.1245000000000012
 30
0.0
 11
-1.78125
 21
0.875
 31
0.0
  0
LINE
  5
7B
330
2
100
AcDbEntity
  8
0
100
AcDbLine
 10
-1.84375
 20
0.125
 30
0.0
 11
-1.84375
 21
0.875
 31
0.0
  0
ARC
  5
7C
330
2
100
AcDbEntity
  8
0
100
AcDbCircle
 10
-1.71875
 20
0.125
 30
0.0
 40
0.125
100
AcDbArc
 50
180.0
 51
270.0
  0
ARC
  5
7D
330
2
100
AcDbEntity
  8
0
100
AcDbCircle
 10
-1.719249999999999
 20
0.1245000000000012
 30
0.0
 40
0.062
100
AcDbArc
 50
180.0
 51
270.0
  0
ARC
  5
7E
330
2
100
AcDbEntity
  8
0
100
AcDbCircle
 10
-1.896386839002005
 20
1.210953534568084
 30
0.0
 40
0.0986370922929614
100
AcDbArc
 50
57.74817661148475
 51
86.14191405494711
  0
ARC
  5
80
330
2
100
AcDbEntity
  8
0
100
AcDbCircle
 10
-1.895738878756845
 20
1.21107608987996
 30
0.0
 40
0.0519900307039585
100
AcDbArc
 50
359.6185877246038
 51
83.38525270417914
  0
POINT
  5
81
330
2
100
AcDbEntity
  8
0
100
AcDbPoint
 10
-1.84375
 20
1.177730000000015
 30
0.0
  0
ARC
  5
82
330
2
100
AcDbEntity
  8
0
100
AcDbCircle
 10
-1.895738878756845
 20
1.64438391012007
 30
0.0
 40
0.0519900307039585
100
AcDbArc
 50
276.6147472958209
 51
0.3814122753966671
  0
ARC
  5
83
330
2
100
AcDbEntity
  8
0
100
AcDbCircle
 10
-1.896386839002005
 20
1.644506465431945
 30
0.0
 40
0.0986370922929614
100
AcDbArc
 50
273.8580859450529
 51
302.2518233885157
  0
LINE
  5
85
330
2
100
AcDbEntity
  8
0
100
AcDbLine
 10
1.84375
 20
0.125
 30
0.0
 11
1.84375
 21
0.875
 31
0.0
  0
LINE
  5
86
330
2
100
AcDbEntity
  8
0
100
AcDbLine
 10
1.78125
 20
0.1245000000000012
 30
0.0
 11
1.78125
 21
0.875
 31
0.0
  0
ARC
  5
87
330
2
100
AcDbEntity
  8
0
100
AcDbCircle
 10
1.71875
 20
0.125
 30
0.0
 40
0.125
100
AcDbArc
 50
270.0
 51
0.0
  0
ARC
  5
88
330
2
100
AcDbEntity
  8
0
100
AcDbCircle
 10
1.719250000000001
 20
0.1245000000000012
 30
0.0
 40
0.062
100
AcDbArc
 50
270.0
 51
0.0
  0
LINE
  5
89
330
2
100
AcDbEntity
  8
0
100
AcDbLine
 10
1.84375
 20
1.727427300392492
 30
0.0
 11
1.84375
 21
0.9375
 31
0.0
  0
ARC
  5
8A
330
2
100
AcDbEntity
  8
0
100
AcDbCircle
 10
1.895738878756845
 20
1.192556063765458
 30
0.0
 40
0.0519900307039585
100
AcDbArc
 50
96.61474729582088
 51
180.3814122753962
  0
POINT
  5
8B
330
2
100
AcDbEntity
  8
0
100
AcDbPoint
 10
1.84375
 20
1.159209973885513
 30
0.0
  0
ARC
  5
8C
330
2
100
AcDbEntity
  8
0
100
AcDbCircle
 10
1.896386839002005
 20
1.192433508453583
 30
0.0
 40
0.0986370922929614
100
AcDbArc
 50
93.85808594505291
 51
122.2518233885153
  0
ARC
  5
8D
330
2
100
AcDbEntity
  8
0
100
AcDbCircle
 10
-2.718249999999999
 20
4.5
 30
0.0
 40
0.1875
100
AcDbArc
 50
180.0
 51
250.3666411024103
  0
CIRCLE
  5
8E
330
2
100
AcDbEntity
  8
0
100
AcDbCircle
 10
-2.59375
 20
4.5
 30
0.0
 40
0.0855
  0
ARC
  5
8F
330
2
100
AcDbEntity
  8
0
100
AcDbCircle
 10
-2.718249999999999
 20
3.125
 30
0.0
 40
0.1875
100
AcDbArc
 50
90.0
 51
180.0
  0
LINE
  5
90
330
2
100
AcDbEntity
  8
0
100
AcDbLine
 10
-2.905749999999999
 20
2.5
 30
0.0
 11
-2.905749999999999
 21
3.125
 31
0.0
  0
ARC
  5
91
330
2
100
AcDbEntity
  8
0
100
AcDbCircle
 10
-2.718249999999999
 20
2.5
 30
0.0
 40
0.1875
100
AcDbArc
 50
180.0
 51
210.2026586833964
  0
CIRCLE
  5
92
330
2
100
AcDbEntity
  8
0
100
AcDbCircle
 10
-2.59375
 20
2.75
 30
0.0
 40
0.0855
  0
ARC
  5
95
330
2
100
AcDbEntity
  8
0
100
AcDbCircle
 10
-1.84375
 20
2.5625
 30
0.0
 40
0.156
100
AcDbArc
 50
90.0
 51
270.0
  0
LINE
  5
96
330
2
100
AcDbEntity
  8
0
100
AcDbLine
 10
-2.59375
 20
4.130199999999999
 30
0.0
 11
-2.59375
 21
3.494800000000002
 31
0.0
  0
ARC
  5
97
330
2
100
AcDbEntity
  8
0
100
AcDbCircle
 10
-2.78125
 20
3.494800000000002
 30
0.0
 40
0.1875
100
AcDbArc
 50
289.6333588975685
 51
0.0
  0
ARC
  5
98
330
2
100
AcDbEntity
  8
0
100
AcDbCircle
 10
-2.78125
 20
4.130199999999999
 30
0.0
 40
0.1875
100
AcDbArc
 50
0.0
 51
90.0
  0
ARC
  5
9B
330
2
100
AcDbEntity
  8
0
100
AcDbCircle
 10
-1.895738878756845
 20
3.681226089879946
 30
0.0
 40
0.0519900307039585
100
AcDbArc
 50
359.6185877246038
 51
83.38525270417914
  0
ARC
  5
9C
330
2
100
AcDbEntity
  8
0
100
AcDbCircle
 10
-1.896386839002005
 20
3.68110353456807
 30
0.0
 40
0.0986370922929614
100
AcDbArc
 50
57.74817661148475
 51
86.14191405494711
  0
POINT
  5
9D
330
2
100
AcDbEntity
  8
0
100
AcDbPoint
 10
-1.84375
 20
3.647880000000001
 30
0.0
  0
ARC
  5
9E
330
2
100
AcDbEntity
  8
0
100
AcDbCircle
 10
-1.895738878756845
 20
4.114533910120056
 30
0.0
 40
0.0519900307039585
100
AcDbArc
 50
276.6147472958209
 51
0.3814122753966671
  0
ARC
  5
9F
330
2
100
AcDbEntity
  8
0
100
AcDbCircle
 10
-1.896386839002005
 20
4.114656465431931
 30
0.0
 40
0.0986370922929614
100
AcDbArc
 50
273.8580859450529
 51
302.2518233885157
  0
LINE
  5
A0
330
2
100
AcDbEntity
  8
0
100
AcDbLine
 10
-2.59375
 20
5.494799788214706
 30
0.0
 11
-2.59375
 21
6.130199999999999
 31
0.0
  0
LINE
  5
A1
330
2
100
AcDbEntity
  8
0
100
AcDbLine
 10
-2.905750000000001
 20
4.5
 30
0.0
 11
-2.905750000000001
 21
5.125
 31
0.0
  0
ARC
  5
A4
330
2
100
AcDbEntity
  8
0
100
AcDbCircle
 10
-2.718249999999999
 20
5.125
 30
0.0
 40
0.1875
100
AcDbArc
 50
90.0
 51
180.0
  0
ARC
  5
A5
330
2
100
AcDbEntity
  8
0
100
AcDbCircle
 10
-2.78125
 20
5.494800000000002
 30
0.0
 40
0.1875
100
AcDbArc
 50
289.6333588975685
 51
0.0
  0
ARC
  5
A6
330
2
100
AcDbEntity
  8
0
100
AcDbCircle
 10
-2.78125
 20
6.130199999999999
 30
0.0
 40
0.1875
100
AcDbArc
 50
0.0
 51
90.0
  0
ARC
  5
A7
330
2
100
AcDbEntity
  8
0
100
AcDbCircle
 10
-2.718249999999999
 20
6.5
 30
0.0
 40
0.1875
100
AcDbArc
 50
180.0
 51
250.3666411024103
  0
CIRCLE
  5
A8
330
2
100
AcDbEntity
  8
0
100
AcDbCircle
 10
-2.59375
 20
6.5
 30
0.0
 40
0.0855
  0
ARC
  5
AC
330
2
100
AcDbEntity
  8
0
100
AcDbCircle
 10
-1.896386839002005
 20
6.154276465431927
 30
0.0
 40
0.0986370922929614
100
AcDbArc
 50
273.8580859450529
 51
302.2518233885157
  0
ARC
  5
AD
330
2
100
AcDbEntity
  8
0
100
AcDbCircle
 10
-1.895738878756845
 20
6.154153910120051
 30
0.0
 40
0.0519900307039585
100
AcDbArc
 50
276.6147472958209
 51
0.3814122753966671
  0
POINT
  5
AE
330
2
100
AcDbEntity
  8
0
100
AcDbPoint
 10
-1.84375
 20
5.687499999999996
 30
0.0
  0
ARC
  5
AF
330
2
100
AcDbEntity
  8
0
100
AcDbCircle
 10
-1.895738878756845
 20
5.720846089879942
 30
0.0
 40
0.0519900307039585
100
AcDbArc
 50
359.6185877246038
 51
83.38525270417914
  0
ARC
  5
B1
330
2
100
AcDbEntity
  8
0
100
AcDbCircle
 10
-1.896386839002005
 20
5.720723534568066
 30
0.0
 40
0.0986370922929614
100
AcDbArc
 50
57.74817661148475
 51
86.14191405494711
  0
CIRCLE
  5
B2
330
2
100
AcDbEntity
  8
0
100
AcDbCircle
 10
2.593250000000001
 20
4.5
 30
0.0
 40
0.0855
  0
ARC
  5
B3
330
2
100
AcDbEntity
  8
0
100
AcDbCircle
 10
2.717750000000002
 20
4.5
 30
0.0
 40
0.1875
100
AcDbArc
 50
289.6333588975897
 51
0.0000000000000254
  0
ARC
  5
B4
330
2
100
AcDbEntity
  8
0
100
AcDbCircle
 10
2.717750000000002
 20
3.125
 30
0.0
 40
0.1875
100
AcDbArc
 50
0.0000000000000254
 51
90.00000000000003
  0
ARC
  5
B5
330
2
100
AcDbEntity
  8
0
100
AcDbCircle
 10
1.84375
 20
2.5625
 30
0.0
 40
0.156
100
AcDbArc
 50
270.0
 51
90.0
  0
ARC
  5
B6
330
2
100
AcDbEntity
  8
0
100
AcDbCircle
 10
1.895738878756845
 20
1.625863884005568
 30
0.0
 40
0.0519900307039585
100
AcDbArc
 50
179.6185877246033
 51
263.3852527041792
  0
ARC
  5
B7
330
2
100
AcDbEntity
  8
0
100
AcDbCircle
 10
1.896386839002005
 20
1.625986439317444
 30
0.0
 40
0.0986370922929614
100
AcDbArc
 50
237.7481766114843
 51
266.1419140549471
  0
LINE
  5
B8
330
2
100
AcDbEntity
  8
0
100
AcDbLine
 10
2.905250000000002
 20
2.5
 30
0.0
 11
2.905250000000002
 21
3.125
 31
0.0
  0
ARC
  5
B9
330
2
100
AcDbEntity
  8
0
100
AcDbCircle
 10
2.717750000000002
 20
2.5
 30
0.0
 40
0.1875
100
AcDbArc
 50
329.7973413166037
 51
0.0000000000000254
  0
CIRCLE
  5
BC
330
2
100
AcDbEntity
  8
0
100
AcDbCircle
 10
2.593250000000001
 20
2.75
 30
0.0
 40
0.0855
  0
ARC
  5
BD
330
2
100
AcDbEntity
  8
0
100
AcDbCircle
 10
1.896386839002005
 20
3.867506439317459
 30
0.0
 40
0.0986370922929614
100
AcDbArc
 50
237.7481766114843
 51
266.1419140549471
  0
ARC
  5
BE
330
2
100
AcDbEntity
  8
0
100
AcDbCircle
 10
1.895738878756845
 20
3.867383884005584
 30
0.0
 40
0.0519900307039585
100
AcDbArc
 50
179.6185877246033
 51
263.3852527041792
  0
POINT
  5
BF
330
2
100
AcDbEntity
  8
0
100
AcDbPoint
 10
1.84375
 20
3.400729973885529
 30
0.0
  0
ARC
  5
C0
330
2
100
AcDbEntity
  8
0
100
AcDbCircle
 10
1.896386839002005
 20
3.433953508453598
 30
0.0
 40
0.0986370922929614
100
AcDbArc
 50
93.85808594505291
 51
122.2518233885153
  0
ARC
  5
C1
330
2
100
AcDbEntity
  8
0
100
AcDbCircle
 10
1.895738878756845
 20
3.434076063765474
 30
0.0
 40
0.0519900307039585
100
AcDbArc
 50
96.61474729582088
 51
180.3814122753962
  0
LINE
  5
C4
330
2
100
AcDbEntity
  8
0
100
AcDbLine
 10
2.593250000000001
 20
4.130199999999999
 30
0.0
 11
2.593250000000001
 21
3.494800000000002
 31
0.0
  0
ARC
  5
C5
330
2
100
AcDbEntity
  8
0
100
AcDbCircle
 10
2.780750000000001
 20
3.494800000000002
 30
0.0
 40
0.1875
100
AcDbArc
 50
180.0000000000001
 51
250.3666411024315
  0
ARC
  5
C6
330
2
100
AcDbEntity
  8
0
100
AcDbCircle
 10
2.780750000000001
 20
4.130199999999999
 30
0.0
 40
0.1875
100
AcDbArc
 50
90.00000000000003
 51
180.0000000000001
  0
LINE
  5
C7
330
2
100
AcDbEntity
  8
0
100
AcDbLine
 10
2.593250000000001
 20
5.494799788214706
 30
0.0
 11
2.593250000000001
 21
6.130199999999999
 31
0.0
  0
ARC
  5
CA
330
2
100
AcDbEntity
  8
0
100
AcDbCircle
 10
1.895738878756845
 20
5.439206037650965
 30
0.0
 40
0.0519900307039585
100
AcDbArc
 50
96.61474729582088
 51
180.3814122753962
  0
ARC
  5
CB
330
2
100
AcDbEntity
  8
0
100
AcDbCircle
 10
1.896386839002005
 20
5.43908348233909
 30
0.0
 40
0.0986370922929614
100
AcDbArc
 50
93.85808594505291
 51
122.2518233885153
  0
POINT
  5
CC
330
2
100
AcDbEntity
  8
0
100
AcDbPoint
 10
1.84375
 20
5.40585994777102
 30
0.0
  0
ARC
  5
CD
330
2
100
AcDbEntity
  8
0
100
AcDbCircle
 10
1.895738878756845
 20
5.872513857891075
 30
0.0
 40
0.0519900307039585
100
AcDbArc
 50
179.6185877246033
 51
263.3852527041792
  0
ARC
  5
CE
330
2
100
AcDbEntity
  8
0
100
AcDbCircle
 10
1.896386839002005
 20
5.872636413202951
 30
0.0
 40
0.0986370922929614
100
AcDbArc
 50
237.7481766114843
 51
266.1419140549471
  0
LINE
  5
CF
330
2
100
AcDbEntity
  8
0
100
AcDbLine
 10
2.905250000000002
 20
4.5
 30
0.0
 11
2.905250000000002
 21
5.125
 31
0.0
  0
ARC
  5
D2
330
2
100
AcDbEntity
  8
0
100
AcDbCircle
 10
2.717750000000002
 20
5.125
 30
0.0
 40
0.1875
100
AcDbArc
 50
0.0000000000000254
 51
90.00000000000003
  0
ARC
  5
D3
330
2
100
AcDbEntity
  8
0
100
AcDbCircle
 10
2.780750000000001
 20
5.494800000000002
 30
0.0
 40
0.1875
100
AcDbArc
 50
180.0000000000001
 51
250.3666411024315
  0
ARC
  5
D4
330
2
100
AcDbEntity
  8
0
100
AcDbCircle
 10
2.780750000000001
 20
6.130199999999999
 30
0.0
 40
0.1875
100
AcDbArc
 50
90.00000000000003
 51
180.0000000000001
  0
ARC
  5
D5
330
2
100
AcDbEntity
  8
0
100
AcDbCircle
 10
2.717750000000002
 20
6.5
 30
0.0
 40
0.1875
100
AcDbArc
 50
289.6333588975897
 51
0.0000000000000254
  0
CIRCLE
  5
D8
330
2
100
AcDbEntity
  8
0
100
AcDbCircle
 10
2.593250000000001
 20
6.5
 30
0.0
 40
0.0855
  0
LINE
  5
D9
330
2
100
AcDbEntity
  8
0
100
AcDbLine
 10
9.725423991883616
 20
0.6845996975063784
 30
0.0
 11
10.90986514607595
 21
2.405676240467251
 31
0.0
  0
LINE
  5
DA
330
2
100
AcDbEntity
  8
0
100
AcDbLine
 10
9.702817997419743
 20
0.0
 30
0.0
 11
11.70281799741974
 21
0.0
 31
0.0
  0
LINE
  5
DB
330
2
100
AcDbEntity
  8
0
  6
HIDDEN
100
AcDbLine
 10
9.702817997419743
 20
0.0625
 30
0.0
 11
11.70281799741974
 21
0.0625
 31
0.0
  0
ARC
  5
DC
330
2
100
AcDbEntity
  8
0
100
AcDbCircle
 10
9.827817997419743
 20
0.6129026429624958
 30
0.0
 40
0.125
100
AcDbArc
 50
144.9999999999999
 51
180.0
  0
LINE
  5
DD
330
2
100
AcDbEntity
  8
0
100
AcDbLine
 10
9.702817997419743
 20
0.0
 30
0.0
 11
9.702817997419743
 21
0.6129026429625029
 31
0.0
  0
LINE
  5
DE
330
2
100
AcDbEntity
  8
0
100
AcDbLine
 10
11.72542399188362
 20
0.604599697506373
 30
0.0
 11
11.93531799741974
 21
0.9043594031398925
 31
0.0
  0
LINE
  5
DF
330
2
100
AcDbEntity
  8
0
100
AcDbLine
 10
11.70281799741974
 20
0.0
 30
0.0
 11
11.70281799741974
 21
0.0625
 31
0.0
  0
LINE
  5
E0
330
2
100
AcDbEntity
  8
0
100
AcDbLine
 10
11.70281799741974
 20
0.0
 30
0.0
 11
11.70281799741975
 21
0.5329026429624904
 31
0.0
  0
ARC
  5
E1
330
2
100
AcDbEntity
  8
0
100
AcDbCircle
 10
11.82781799741974
 20
0.5329026429624904
 30
0.0
 40
0.125
100
AcDbArc
 50
144.9999999999999
 51
180.0
  0
LINE
  5
E2
330
2
100
AcDbEntity
  8
0
100
AcDbLine
 10
10.87281799741975
 20
1.192209973885518
 30
0.0
 11
10.87281799741975
 21
1.626209973885516
 31
0.0
  0
ARC
  5
EA
330
2
100
AcDbEntity
  8
0
100
AcDbCircle
 10
10.74781799741974
 20
4.500000000000007
 30
0.0
 40
0.1875
100
AcDbArc
 50
289.6333588975897
 51
0.0
  0
ARC
  5
EB
330
2
100
AcDbEntity
  8
0
100
AcDbCircle
 10
10.74781799741974
 20
3.125000000000007
 30
0.0
 40
0.1875
100
AcDbArc
 50
0.0
 51
90.0
  0
LINE
  5
EC
330
2
100
AcDbEntity
  8
0
100
AcDbLine
 10
10.93531799741974
 20
2.500000000000007
 30
0.0
 11
10.93531799741974
 21
3.125000000000007
 31
0.0
  0
ARC
  5
ED
330
2
100
AcDbEntity
  8
0
100
AcDbCircle
 10
10.74781799741974
 20
2.500000000000007
 30
0.0
 40
0.1875
100
AcDbArc
 50
329.7973413166035
 51
0.0
  0
ARC
  5
EE
330
2
100
AcDbEntity
  8
0
100
AcDbCircle
 10
11.87281799741974
 20
2.563030000000005
 30
0.0
 40
0.156
100
AcDbArc
 50
90.0
 51
270.0
  0
LINE
  5
F1
330
2
100
AcDbEntity
  8
0
100
AcDbLine
 10
10.87281799741975
 20
3.433729973885519
 30
0.0
 11
10.87281799741975
 21
3.867729973885517
 31
0.0
  0
LINE
  5
F2
330
2
100
AcDbEntity
  8
0
100
AcDbLine
 10
10.62331799741973
 20
4.130200000000009
 30
0.0
 11
10.62331799741973
 21
3.494800000000012
 31
0.0
  0
ARC
  5
F3
330
2
100
AcDbEntity
  8
0
100
AcDbCircle
 10
10.81081799741973
 20
3.494800000000012
 30
0.0
 40
0.1875
100
AcDbArc
 50
180.0
 51
250.3666411024315
  0
ARC
  5
F8
330
2
100
AcDbEntity
  8
0
100
AcDbCircle
 10
10.81081799741973
 20
4.130200000000009
 30
0.0
 40
0.1875
100
AcDbArc
 50
90.0
 51
180.0
  0
LINE
  5
FD
330
2
100
AcDbEntity
  8
0
100
AcDbLine
 10
10.87281799741975
 20
5.438859947771029
 30
0.0
 11
10.87281799741975
 21
5.872859947771026
 31
0.0
  0
LINE
  5
FE
330
2
100
AcDbEntity
  8
0
100
AcDbLine
 10
10.62331799741973
 20
5.494799788214714
 30
0.0
 11
10.62331799741973
 21
6.130200000000009
 31
0.0
  0
LINE
  5
FF
330
2
100
AcDbEntity
  8
0
100
AcDbLine
 10
10.93531799741974
 20
4.500000000000007
 30
0.0
 11
10.93531799741974
 21
5.125000000000007
 31
0.0
  0
ARC
  5
100
330
2
100
AcDbEntity
  8
0
100
AcDbCircle
 10
10.74781799741974
 20
5.125000000000007
 30
0.0
 40
0.1875
100
AcDbArc
 50
0.0
 51
90.0
  0
ARC
  5
101
330
2
100
AcDbEntity
  8
0
100
AcDbCircle
 10
10.81081799741973
 20
5.494800000000012
 30
0.0
 40
0.1875
100
AcDbArc
 50
180.0
 51
250.3666411024315
  0
ARC
  5
104
330
2
100
AcDbEntity
  8
0
100
AcDbCircle
 10
10.81081799741973
 20
6.130200000000009
 30
0.0
 40
0.1875
100
AcDbArc
 50
90.0
 51
180.0
  0
ARC
  5
107
330
2
100
AcDbEntity
  8
0
100
AcDbCircle
 10
10.74781799741974
 20
6.500000000000007
 30
0.0
 40
0.1875
100
AcDbArc
 50
289.6333588975897
 51
0.0
  0
ARC
  5
108
330
2
100
AcDbEntity
  8
0
100
AcDbCircle
 10
-1.0625
 20
11.91150986626864
 30
0.0
 40
0.125
100
AcDbArc
 50
0.0
 51
180.0
  0
ARC
  5
109
330
2
100
AcDbEntity
  8
0
100
AcDbCircle
 10
1.0625
 20
11.91150986626864
 30
0.0
 40
0.125
100
AcDbArc
 50
0.0
 51
180.0
  0
LINE
  5
10A
330
2
100
AcDbEntity
  8
0
100
AcDbLine
 10
-1.84375
 20
14.01950986626864
 30
0.0
 11
-1.84375
 21
11.91150986626864
 31
0.0
  0
LINE
  5
10B
330
2
100
AcDbEntity
  8
0
100
AcDbLine
 10
1.84375
 20
11.91150986626864
 30
0.0
 11
1.84375
 21
14.01950986626864
 31
0.0
  0
ARC
  5
10C
330
2
100
AcDbEntity
  8
0
100
AcDbCircle
 10
-2.781910788675804
 20
8.130285021508932
 30
0.0
 40
0.1881608078845258
100
AcDbArc
 50
359.9741105820587
 51
83.19617282319443
  0
LINE
  5
10D
330
2
100
AcDbEntity
  8
0
100
AcDbLine
 10
-2.12384
 20
8.1875
 30
0.0
 11
-2.12384
 21
7.4375
 31
0.0
  0
LINE
  5
10E
330
2
100
AcDbEntity
  8
0
100
AcDbLine
 10
-2.31134
 20
7.4375
 30
0.0
 11
-2.31134
 21
8.1875
 31
0.0
  0
LINE
  5
10F
330
2
100
AcDbEntity
  8
0
100
AcDbLine
 10
-2.21759
 20
7.3125
 30
0.0
 11
-2.31134
 21
7.4375
 31
0.0
  0
LINE
  5
110
330
2
100
AcDbEntity
  8
0
100
AcDbLine
 10
-2.21759
 20
7.6875
 30
0.0
 11
-2.31134
 21
7.8125
 31
0.0
  0
LINE
  5
111
330
2
100
AcDbEntity
  8
0
100
AcDbLine
 10
-2.59375
 20
7.494800000000002
 30
0.0
 11
-2.59375
 21
8.130200227943934
 31
0.0
  0
ARC
  5
112
330
2
100
AcDbEntity
  8
0
100
AcDbCircle
 10
-2.706960462182121
 20
7.119660356708938
 30
0.0
 40
0.198861238395826
100
AcDbArc
 50
93.25448456194563
 51
178.46136028408
  0
ARC
  5
113
330
2
100
AcDbEntity
  8
0
100
AcDbCircle
 10
-2.78125
 20
7.494800000000002
 30
0.0
 40
0.1875
100
AcDbArc
 50
289.6333588975685
 51
0.0
  0
LINE
  5
114
330
2
100
AcDbEntity
  8
0
100
AcDbLine
 10
-2.21759
 20
7.3125
 30
0.0
 11
-2.12384
 21
7.4375
 31
0.0
  0
LINE
  5
115
330
2
100
AcDbEntity
  8
0
100
AcDbLine
 10
-2.21759
 20
7.6875
 30
0.0
 11
-2.12384
 21
7.8125
 31
0.0
  0
LINE
  5
116
330
2
100
AcDbEntity
  8
0
100
AcDbLine
 10
-1.78125
 20
8.8125
 30
0.0
 11
-2.90625
 21
8.8125
 31
0.0
  0
LINE
  5
117
330
2
100
AcDbEntity
  8
0
100
AcDbLine
 10
-2.31134
 20
8.1875
 30
0.0
 11
-2.12384
 21
8.1875
 31
0.0
  0
LINE
  5
118
330
2
100
AcDbEntity
  8
0
100
AcDbLine
 10
-2.905749999999999
 20
8.5
 30
0.0
 11
-2.905749999999999
 21
8.8125
 31
0.0
  0
ARC
  5
119
330
2
100
AcDbEntity
  8
0
100
AcDbCircle
 10
-2.718249999999999
 20
8.5
 30
0.0
 40
0.1875
100
AcDbArc
 50
180.0
 51
257.2535862916184
  0
CIRCLE
  5
11A
330
2
100
AcDbEntity
  8
0
100
AcDbCircle
 10
-2.59375
 20
8.5
 30
0.0
 40
0.0855
  0
LINE
  5
11D
330
2
100
AcDbEntity
  8
0
100
AcDbLine
 10
-1.1875
 20
11.91150986626864
 30
0.0
 11
-1.84375
 21
11.91150986626864
 31
0.0
  0
LINE
  5
11E
330
2
100
AcDbEntity
  8
0
100
AcDbLine
 10
-0.9375
 20
11.91150986626864
 30
0.0
 11
0.9375
 21
11.91150986626864
 31
0.0
  0
ARC
  5
11F
330
2
100
AcDbEntity
  8
0
100
AcDbCircle
 10
2.781410788675807
 20
8.130285021508932
 30
0.0
 40
0.1881608078845258
100
AcDbArc
 50
96.8038271768056
 51
180.0258894179414
  0
LINE
  5
120
330
2
100
AcDbEntity
  8
0
100
AcDbLine
 10
2.311339999999998
 20
7.4375
 30
0.0
 11
2.311339999999998
 21
8.1875
 31
0.0
  0
LINE
  5
121
330
2
100
AcDbEntity
  8
0
100
AcDbLine
 10
2.123840000000001
 20
8.1875
 30
0.0
 11
2.123840000000001
 21
7.4375
 31
0.0
  0
LINE
  5
122
330
2
100
AcDbEntity
  8
0
100
AcDbLine
 10
2.217590000000001
 20
7.6875
 30
0.0
 11
2.311339999999998
 21
7.8125
 31
0.0
  0
LINE
  5
123
330
2
100
AcDbEntity
  8
0
100
AcDbLine
 10
2.217590000000001
 20
7.3125
 30
0.0
 11
2.311339999999998
 21
7.4375
 31
0.0
  0
LINE
  5
124
330
2
100
AcDbEntity
  8
0
100
AcDbLine
 10
2.217590000000001
 20
7.3125
 30
0.0
 11
2.123840000000001
 21
7.4375
 31
0.0
  0
LINE
  5
125
330
2
100
AcDbEntity
  8
0
100
AcDbLine
 10
2.217590000000001
 20
7.6875
 30
0.0
 11
2.123840000000001
 21
7.8125
 31
0.0
  0
LINE
  5
126
330
2
100
AcDbEntity
  8
0
100
AcDbLine
 10
2.593250000000001
 20
7.494800000000002
 30
0.0
 11
2.593250000000001
 21
8.130200227943934
 31
0.0
  0
ARC
  5
127
330
2
100
AcDbEntity
  8
0
100
AcDbCircle
 10
2.706460462182122
 20
7.119660356708938
 30
0.0
 40
0.198861238395826
100
AcDbArc
 50
1.538639715920054
 51
86.74551543805441
  0
ARC
  5
128
330
2
100
AcDbEntity
  8
0
100
AcDbCircle
 10
2.780750000000001
 20
7.494800000000002
 30
0.0
 40
0.1875
100
AcDbArc
 50
180.0000000000001
 51
250.3666411024315
  0
LINE
  5
129
330
2
100
AcDbEntity
  8
0
100
AcDbLine
 10
2.311339999999998
 20
8.1875
 30
0.0
 11
2.123840000000001
 21
8.1875
 31
0.0
  0
LINE
  5
12A
330
2
100
AcDbEntity
  8
0
100
AcDbLine
 10
1.78125
 20
8.8125
 30
0.0
 11
2.90625
 21
8.8125
 31
0.0
  0
LINE
  5
12B
330
2
100
AcDbEntity
  8
0
100
AcDbLine
 10
2.905250000000002
 20
8.5
 30
0.0
 11
2.905250000000002
 21
8.8125
 31
0.0
  0
ARC
  5
12C
330
2
100
AcDbEntity
  8
0
100
AcDbCircle
 10
2.717750000000002
 20
8.5
 30
0.0
 40
0.1875
100
AcDbArc
 50
282.7464137083816
 51
0.0000000000000254
  0
CIRCLE
  5
12F
330
2
100
AcDbEntity
  8
0
100
AcDbCircle
 10
2.593250000000001
 20
8.5
 30
0.0
 40
0.0855
  0
LINE
  5
130
330
2
100
AcDbEntity
  8
0
100
AcDbLine
 10
1.84375
 20
11.91150986626864
 30
0.0
 11
1.1875
 21
11.91150986626864
 31
0.0
  0
ARC
  5
131
330
2
100
AcDbEntity
  8
0
100
AcDbCircle
 10
1.0625
 20
13.91150986626864
 30
0.0
 40
0.125
100
AcDbArc
 50
180.0
 51
0.0
  0
ARC
  5
132
330
2
100
AcDbEntity
  8
0
100
AcDbCircle
 10
-1.0625
 20
13.91150986626864
 30
0.0
 40
0.125
100
AcDbArc
 50
180.0
 51
0.0
  0
LINE
  5
133
330
2
100
AcDbEntity
  8
0
100
AcDbLine
 10
-2.019053823869164
 20
13.08473073538944
 30
0.0
 11
-1.862700191257233
 21
13.24108436800137
 31
0.0
  0
LINE
  5
134
330
2
100
AcDbEntity
  8
0
100
AcDbLine
 10
-1.986526911934583
 20
13.05220382345485
 30
0.0
 11
-2.019053823869164
 21
13.08473073538944
 31
0.0
  0
LINE
  5
135
330
2
100
AcDbEntity
  8
0
100
AcDbLine
 10
-1.986526911934583
 20
13.05220382345485
 30
0.0
 11
-1.84375
 21
12.97400986626864
 31
0.0
  0
LINE
  5
136
330
2
100
AcDbEntity
  8
0
100
AcDbLine
 10
-1.87425
 20
14.14400986626863
 30
0.0
 11
-2.90625
 21
14.14400986626863
 31
0.0
  0
LINE
  5
137
330
2
100
AcDbEntity
  8
0
100
AcDbLine
 10
-2.31134
 20
13.83150986626863
 30
0.0
 11
-2.12384
 21
13.83150986626863
 31
0.0
  0
LINE
  5
138
330
2
100
AcDbEntity
  8
0
100
AcDbLine
 10
-2.21759
 20
14.04202986626864
 30
0.0
 11
-2.31134
 21
13.94556986626863
 31
0.0
  0
LINE
  5
139
330
2
100
AcDbEntity
  8
0
100
AcDbLine
 10
-2.90625
 20
14.08150986626863
 30
0.0
 11
-1.905749999999999
 21
14.08150986626863
 31
0.0
  0
LINE
  5
13A
330
2
100
AcDbEntity
  8
0
100
AcDbLine
 10
-2.90625
 20
14.14400986626863
 30
0.0
 11
-2.90625
 21
14.08150986626863
 31
0.0
  0
LINE
  5
13B
330
2
100
AcDbEntity
  8
0
100
AcDbLine
 10
-2.31134
 20
13.83150986626863
 30
0.0
 11
-2.31134
 21
14.08150986626863
 31
0.0
  0
ARC
  5
13C
330
2
100
AcDbEntity
  8
0
100
AcDbCircle
 10
-1.908450000000002
 20
13.28683417674414
 30
0.0
 40
0.0647
100
AcDbArc
 50
314.9999999999998
 51
0.0000000000002176
  0
LINE
  5
13D
330
2
100
AcDbEntity
  8
0
100
AcDbLine
 10
-1.1875
 20
13.91150986626864
 30
0.0
 11
-1.78125
 21
13.91150986626864
 31
0.0
  0
LINE
  5
13E
330
2
100
AcDbEntity
  8
0
100
AcDbLine
 10
-1.78125
 20
11.91150986626864
 30
0.0
 11
-1.78125
 21
14.01900986626863
 31
0.0
  0
LINE
  5
13F
330
2
100
AcDbEntity
  8
0
100
AcDbLine
 10
-2.12384
 20
13.83150986626863
 30
0.0
 11
-2.12384
 21
14.08150986626863
 31
0.0
  0
LINE
  5
140
330
2
100
AcDbEntity
  8
0
100
AcDbLine
 10
-2.21759
 20
14.04202986626864
 30
0.0
 11
-2.12384
 21
13.94595986626863
 31
0.0
  0
LINE
  5
141
330
2
100
AcDbEntity
  8
0
100
AcDbLine
 10
-1.78125
 20
14.01900986626863
 30
0.0
 11
-1.78125
 21
14.05100986626863
 31
0.0
  0
ARC
  5
142
330
2
100
AcDbEntity
  8
0
100
AcDbCircle
 10
-1.905749999999999
 20
14.01950986626864
 30
0.0
 40
0.062
100
AcDbArc
 50
0.0
 51
90.00000000000003
  0
ARC
  5
143
330
2
100
AcDbEntity
  8
0
100
AcDbCircle
 10
-1.89076
 20
14.03449986626863
 30
0.0
 40
0.110749
100
AcDbArc
 50
8.573899999999989
 51
81.42610000000003
  0
LINE
  5
144
330
2
100
AcDbEntity
  8
0
100
AcDbLine
 10
0.9375
 20
13.91150986626864
 30
0.0
 11
-0.9375
 21
13.91150986626864
 31
0.0
  0
LINE
  5
145
330
2
100
AcDbEntity
  8
0
100
AcDbLine
 10
2.019053823869164
 20
13.08473073538944
 30
0.0
 11
1.862700191257233
 21
13.24108436800137
 31
0.0
  0
LINE
  5
146
330
2
100
AcDbEntity
  8
0
100
AcDbLine
 10
1.986526911934583
 20
13.05220382345485
 30
0.0
 11
2.019053823869164
 21
13.08473073538944
 31
0.0
  0
LINE
  5
147
330
2
100
AcDbEntity
  8
0
100
AcDbLine
 10
1.986526911934583
 20
13.05220382345485
 30
0.0
 11
1.84375
 21
12.97400986626864
 31
0.0
  0
LINE
  5
148
330
2
100
AcDbEntity
  8
0
100
AcDbLine
 10
1.87425
 20
14.14400986626863
 30
0.0
 11
2.90625
 21
14.14400986626863
 31
0.0
  0
LINE
  5
149
330
2
100
AcDbEntity
  8
0
100
AcDbLine
 10
2.217590000000001
 20
14.04202986626864
 30
0.0
 11
2.311339999999998
 21
13.94595986626863
 31
0.0
  0
LINE
  5
14A
330
2
100
AcDbEntity
  8
0
100
AcDbLine
 10
2.123840000000001
 20
13.83150986626863
 30
0.0
 11
2.311339999999998
 21
13.83150986626863
 31
0.0
  0
LINE
  5
14B
330
2
100
AcDbEntity
  8
0
100
AcDbLine
 10
2.90625
 20
14.08150986626863
 30
0.0
 11
1.905750000000001
 21
14.08150986626863
 31
0.0
  0
ARC
  5
14C
330
2
100
AcDbEntity
  8
0
100
AcDbCircle
 10
1.908450000000002
 20
13.28683417674414
 30
0.0
 40
0.0647
100
AcDbArc
 50
179.9999999999998
 51
225.0000000000001
  0
LINE
  5
14D
330
2
100
AcDbEntity
  8
0
100
AcDbLine
 10
1.1875
 20
13.91150986626864
 30
0.0
 11
1.78125
 21
13.91150986626864
 31
0.0
  0
LINE
  5
14E
330
2
100
AcDbEntity
  8
0
100
AcDbLine
 10
1.78125
 20
11.91150986626864
 30
0.0
 11
1.78125
 21
14.01900986626863
 31
0.0
  0
LINE
  5
14F
330
2
100
AcDbEntity
  8
0
100
AcDbLine
 10
2.217590000000001
 20
14.04202986626864
 30
0.0
 11
2.123840000000001
 21
13.94556986626863
 31
0.0
  0
LINE
  5
150
330
2
100
AcDbEntity
  8
0
100
AcDbLine
 10
2.123840000000001
 20
13.83150986626863
 30
0.0
 11
2.123840000000001
 21
14.08150986626863
 31
0.0
  0
ARC
  5
151
330
2
100
AcDbEntity
  8
0
100
AcDbCircle
 10
1.905750000000001
 20
14.01950986626864
 30
0.0
 40
0.062
100
AcDbArc
 50
90.00000000000003
 51
180.0
  0
LINE
  5
152
330
2
100
AcDbEntity
  8
0
100
AcDbLine
 10
1.78125
 20
14.01900986626863
 30
0.0
 11
1.78125
 21
14.05100986626863
 31
0.0
  0
ARC
  5
153
330
2
100
AcDbEntity
  8
0
100
AcDbCircle
 10
1.89076
 20
14.03449986626863
 30
0.0
 40
0.110749
100
AcDbArc
 50
98.5739
 51
171.4261
  0
LINE
  5
154
330
2
100
AcDbEntity
  8
0
100
AcDbLine
 10
2.311339999999998
 20
13.83150986626863
 30
0.0
 11
2.311339999999998
 21
14.08150986626863
 31
0.0
  0
LINE
  5
155
330
2
100
AcDbEntity
  8
0
100
AcDbLine
 10
2.90625
 20
14.14400986626863
 30
0.0
 11
2.90625
 21
14.08150986626863
 31
0.0
  0
ARC
  5
156
330
2
100
AcDbEntity
  8
0
100
AcDbCircle
 10
10.81147878609554
 20
8.130285021508939
 30
0.0
 40
0.1881608078845258
100
AcDbArc
 50
96.80382717680557
 51
180.0258894179414
  0
LINE
  5
157
330
2
100
AcDbEntity
  8
0
100
AcDbLine
 10
11.65140799741974
 20
8.101599206067725
 30
0.0
 11
11.87281799741974
 21
8.284709206067724
 31
0.0
  0
LINE
  5
158
330
2
100
AcDbEntity
  8
0
100
AcDbLine
 10
11.87281799741974
 20
8.347209206067724
 30
0.0
 11
11.56031799741974
 21
8.097209206067724
 31
0.0
  0
LINE
  5
159
330
2
100
AcDbEntity
  8
0
100
AcDbLine
 10
10.62331799741973
 20
7.494800000000012
 30
0.0
 11
10.62331799741973
 21
8.130200227943945
 31
0.0
  0
ARC
  5
15A
330
2
100
AcDbEntity
  8
0
100
AcDbCircle
 10
10.73652845960186
 20
7.119660356708948
 30
0.0
 40
0.198861238395826
100
AcDbArc
 50
1.53863971592008
 51
86.74551543805441
  0
ARC
  5
15B
330
2
100
AcDbEntity
  8
0
100
AcDbCircle
 10
10.81081799741973
 20
7.494800000000012
 30
0.0
 40
0.1875
100
AcDbArc
 50
180.0
 51
250.3666411024315
  0
LINE
  5
15C
330
2
100
AcDbEntity
  8
0
100
AcDbLine
 10
11.87281799741974
 20
7.909709206067724
 30
0.0
 11
11.87281799741974
 21
7.972209206067724
 31
0.0
  0
LINE
  5
15D
330
2
100
AcDbEntity
  8
0
100
AcDbLine
 10
11.87281799741974
 20
7.972209206067724
 30
0.0
 11
11.65140799741974
 21
8.101599206067725
 31
0.0
  0
LINE
  5
15E
330
2
100
AcDbEntity
  8
0
100
AcDbLine
 10
11.56031799741974
 20
8.097209206067724
 30
0.0
 11
11.87281799741974
 21
7.909709206067724
 31
0.0
  0
LINE
  5
15F
330
2
100
AcDbEntity
  8
0
100
AcDbLine
 10
10.93531799741974
 20
8.812500000000007
 30
0.0
 11
11.93531799741974
 21
8.812500000000007
 31
0.0
  0
LINE
  5
160
330
2
100
AcDbEntity
  8
0
100
AcDbLine
 10
10.93531799741974
 20
8.500000000000007
 30
0.0
 11
10.93531799741974
 21
8.812500000000007
 31
0.0
  0
ARC
  5
161
330
2
100
AcDbEntity
  8
0
100
AcDbCircle
 10
10.74781799741974
 20
8.500000000000007
 30
0.0
 40
0.1875
100
AcDbArc
 50
282.7464137083816
 51
0.0
  0
ARC
  5
168
330
2
100
AcDbEntity
  8
0
100
AcDbCircle
 10
-10.09846835436363
 20
1.311635500264703
 30
0.0
 40
0.0734255263791788
100
AcDbArc
 50
237.3920789848133
 51
270.0000000000083
  0
ARC
  5
169
330
2
100
AcDbEntity
  8
0
100
AcDbCircle
 10
-10.06859775939611
 20
1.35832862456915
 30
0.0
 40
0.1288556653021872
100
AcDbArc
 50
212.9226719024485
 51
237.392078984804
  0
ARC
  5
16A
330
2
100
AcDbEntity
  8
0
100
AcDbCircle
 10
-10.02113436910116
 20
1.389060717112326
 30
0.0
 40
0.185399762521732
100
AcDbArc
 50
195.0133710020058
 51
212.9226719024582
  0
ARC
  5
16B
330
2
100
AcDbEntity
  8
0
100
AcDbCircle
 10
-9.946006453284145
 20
1.409209973885503
 30
0.0
 40
0.2631827702002704
100
AcDbArc
 50
179.9999999999969
 51
195.0133710019941
  0
ARC
  5
16C
330
2
100
AcDbEntity
  8
0
100
AcDbCircle
 10
-9.946006453284152
 20
1.409209973885531
 30
0.0
 40
0.263182770200264
100
AcDbArc
 50
164.9866289980056
 51
180.0000000000031
  0
ARC
  5
16D
330
2
100
AcDbEntity
  8
0
100
AcDbCircle
 10
-10.02113436910116
 20
1.429359230658712
 30
0.0
 40
0.1853997625217251
100
AcDbArc
 50
147.0773280975416
 51
164.9866289979947
  0
ARC
  5
16E
330
2
100
AcDbEntity
  8
0
100
AcDbCircle
 10
-10.06859775939611
 20
1.46009132320188
 30
0.0
 40
0.1288556653021912
100
AcDbArc
 50
122.6079210151961
 51
147.0773280975508
  0
ARC
  5
16F
330
2
100
AcDbEntity
  8
0
100
AcDbCircle
 10
-10.0984683543636
 20
1.506784447506334
 30
0.0
 40
0.0734255263791889
100
AcDbArc
 50
90.00000000001107
 51
122.6079210152046
  0
ARC
  5
170
330
2
100
AcDbEntity
  8
0
100
AcDbCircle
 10
-10.09846835436362
 20
1.334489582706041
 30
0.0
 40
0.0502796088205244
100
AcDbArc
 50
236.4891770443282
 51
269.999999999999
  0
ARC
  5
171
330
2
100
AcDbEntity
  8
0
100
AcDbCircle
 10
-10.07482126642042
 20
1.370201776611349
 30
0.0
 40
0.0931112041880074
100
AcDbArc
 50
212.0281066666093
 51
236.4891770443309
  0
ARC
  5
172
330
2
100
AcDbEntity
  8
0
100
AcDbCircle
 10
-10.0371688342264
 20
1.393755317978833
 30
0.0
 40
0.1375237582811297
100
AcDbArc
 50
194.5265478167985
 51
212.0281066666091
  0
ARC
  5
173
330
2
100
AcDbEntity
  8
0
100
AcDbCircle
 10
-9.977524135910908
 20
1.409209973885524
 30
0.0
 40
0.1991381756389258
100
AcDbArc
 50
180.0000000000021
 51
194.5265478167992
  0
ARC
  5
174
330
2
100
AcDbEntity
  8
0
100
AcDbCircle
 10
-9.977524135910908
 20
1.40920997388551
 30
0.0
 40
0.1991381756389261
100
AcDbArc
 50
165.4734521832009
 51
179.999999999998
  0
ARC
  5
175
330
2
100
AcDbEntity
  8
0
100
AcDbCircle
 10
-10.03716883422641
 20
1.424664629792204
 30
0.0
 40
0.13752375828112
100
AcDbArc
 50
147.9718933333902
 51
165.4734521832021
  0
ARC
  5
176
330
2
100
AcDbEntity
  8
0
100
AcDbCircle
 10
-10.07482126642042
 20
1.448218171159681
 30
0.0
 40
0.0931112041880095
100
AcDbArc
 50
123.510822955668
 51
147.9718933333889
  0
ARC
  5
177
330
2
100
AcDbEntity
  8
0
100
AcDbCircle
 10
-10.09846835436362
 20
1.483930365064992
 30
0.0
 40
0.0502796088205245
100
AcDbArc
 50
90.00000000000101
 51
123.5108229556718
  0
ARC
  5
178
330
2
100
AcDbEntity
  8
0
100
AcDbCircle
 10
-10.1313185254798
 20
1.527290683375831
 30
0.0
 40
0.3304548456263117
100
AcDbArc
 50
235.2517244545761
 51
244.6689207421418
  0
ARC
  5
179
330
2
100
AcDbEntity
  8
0
100
AcDbCircle
 10
-10.18150873217728
 20
1.454937149722355
 30
0.0
 40
0.242397530879151
100
AcDbArc
 50
230.4363921703659
 51
235.2517244545532
  0
ARC
  5
17A
330
2
100
AcDbEntity
  8
0
100
AcDbCircle
 10
-10.09846835436362
 20
1.641619072296749
 30
0.0
 40
0.4494090984112305
100
AcDbArc
 50
255.6955204934708
 51
270.0
  0
ARC
  5
17B
330
2
100
AcDbEntity
  8
0
100
AcDbCircle
 10
-10.18150873217726
 20
1.363482798048736
 30
0.0
 40
0.242397530879118
100
AcDbArc
 50
124.7482755454591
 51
129.5636078296458
  0
ARC
  5
17C
330
2
100
AcDbEntity
  8
0
100
AcDbCircle
 10
-10.13131852547972
 20
1.29112926439517
 30
0.0
 40
0.3304548456263872
100
AcDbArc
 50
115.3310792578672
 51
124.748275545433
  0
ARC
  5
17D
330
2
100
AcDbEntity
  8
0
100
AcDbCircle
 10
-10.25808766376913
 20
1.409209973885545
 30
0.0
 40
0.1532050010699973
100
AcDbArc
 50
180.0000000000106
 51
203.0157918004584
  0
ARC
  5
17E
330
2
100
AcDbEntity
  8
0
100
AcDbCircle
 10
-10.25808766376913
 20
1.409209973885488
 30
0.0
 40
0.1532050010699999
100
AcDbArc
 50
156.984208199542
 51
179.9999999999894
  0
ARC
  5
17F
330
2
100
AcDbEntity
  8
0
100
AcDbCircle
 10
-10.09846835436356
 20
1.176800875474292
 30
0.0
 40
0.4494090984112374
100
AcDbArc
 50
90.00000000000713
 51
104.3044795065363
  0
ARC
  5
180
330
2
100
AcDbEntity
  8
0
100
AcDbCircle
 10
-10.18150873217726
 20
3.852152824163239
 30
0.0
 40
0.242397530879118
100
AcDbArc
 50
124.7482755454591
 51
129.5636078296458
  0
ARC
  5
181
330
2
100
AcDbEntity
  8
0
100
AcDbCircle
 10
-10.13131852547972
 20
3.779799290509674
 30
0.0
 40
0.3304548456263872
100
AcDbArc
 50
115.3310792578672
 51
124.748275545433
  0
ARC
  5
182
330
2
100
AcDbEntity
  8
0
100
AcDbCircle
 10
-10.09846835436363
 20
3.800305526379207
 30
0.0
 40
0.0734255263791788
100
AcDbArc
 50
237.3920789848133
 51
270.0000000000083
  0
ARC
  5
183
330
2
100
AcDbEntity
  8
0
100
AcDbCircle
 10
-10.06859775939611
 20
3.846998650683654
 30
0.0
 40
0.1288556653021872
100
AcDbArc
 50
212.9226719024485
 51
237.392078984804
  0
ARC
  5
184
330
2
100
AcDbEntity
  8
0
100
AcDbCircle
 10
-10.02113436910116
 20
3.877730743226829
 30
0.0
 40
0.185399762521732
100
AcDbArc
 50
195.0133710020058
 51
212.9226719024582
  0
ARC
  5
185
330
2
100
AcDbEntity
  8
0
100
AcDbCircle
 10
-9.946006453284145
 20
3.897880000000006
 30
0.0
 40
0.2631827702002704
100
AcDbArc
 50
179.9999999999969
 51
195.0133710019941
  0
ARC
  5
186
330
2
100
AcDbEntity
  8
0
100
AcDbCircle
 10
-9.946006453284152
 20
3.897880000000034
 30
0.0
 40
0.263182770200264
100
AcDbArc
 50
164.9866289980056
 51
180.0000000000031
  0
ARC
  5
187
330
2
100
AcDbEntity
  8
0
100
AcDbCircle
 10
-10.02113436910116
 20
3.918029256773215
 30
0.0
 40
0.1853997625217251
100
AcDbArc
 50
147.0773280975416
 51
164.9866289979947
  0
ARC
  5
188
330
2
100
AcDbEntity
  8
0
100
AcDbCircle
 10
-10.06859775939611
 20
3.948761349316383
 30
0.0
 40
0.1288556653021912
100
AcDbArc
 50
122.6079210151961
 51
147.0773280975508
  0
ARC
  5
189
330
2
100
AcDbEntity
  8
0
100
AcDbCircle
 10
-10.0984683543636
 20
3.995454473620837
 30
0.0
 40
0.0734255263791889
100
AcDbArc
 50
90.00000000001107
 51
122.6079210152046
  0
ARC
  5
18A
330
2
100
AcDbEntity
  8
0
100
AcDbCircle
 10
-10.1313185254798
 20
4.015960709490335
 30
0.0
 40
0.3304548456263117
100
AcDbArc
 50
235.2517244545761
 51
244.6689207421418
  0
ARC
  5
18B
330
2
100
AcDbEntity
  8
0
100
AcDbCircle
 10
-10.18150873217728
 20
3.943607175836858
 30
0.0
 40
0.242397530879151
100
AcDbArc
 50
230.4363921703659
 51
235.2517244545532
  0
ARC
  5
18C
330
2
100
AcDbEntity
  8
0
100
AcDbCircle
 10
-10.25808766376913
 20
3.897880000000049
 30
0.0
 40
0.1532050010699973
100
AcDbArc
 50
180.0000000000106
 51
203.0157918004584
  0
ARC
  5
18D
330
2
100
AcDbEntity
  8
0
100
AcDbCircle
 10
-10.25808766376913
 20
3.897879999999992
 30
0.0
 40
0.1532050010699999
100
AcDbArc
 50
156.984208199542
 51
179.9999999999894
  0
ARC
  5
18E
330
2
100
AcDbEntity
  8
0
100
AcDbCircle
 10
-10.09846835436362
 20
3.823159608820545
 30
0.0
 40
0.0502796088205244
100
AcDbArc
 50
236.4891770443282
 51
269.999999999999
  0
ARC
  5
18F
330
2
100
AcDbEntity
  8
0
100
AcDbCircle
 10
-10.07482126642042
 20
3.858871802725853
 30
0.0
 40
0.0931112041880074
100
AcDbArc
 50
212.0281066666093
 51
236.4891770443309
  0
ARC
  5
190
330
2
100
AcDbEntity
  8
0
100
AcDbCircle
 10
-10.0371688342264
 20
3.882425344093337
 30
0.0
 40
0.1375237582811297
100
AcDbArc
 50
194.5265478167985
 51
212.0281066666091
  0
ARC
  5
191
330
2
100
AcDbEntity
  8
0
100
AcDbCircle
 10
-9.977524135910908
 20
3.897880000000027
 30
0.0
 40
0.1991381756389258
100
AcDbArc
 50
180.0000000000021
 51
194.5265478167992
  0
ARC
  5
192
330
2
100
AcDbEntity
  8
0
100
AcDbCircle
 10
-9.977524135910908
 20
3.897880000000013
 30
0.0
 40
0.1991381756389261
100
AcDbArc
 50
165.4734521832009
 51
179.999999999998
  0
ARC
  5
193
330
2
100
AcDbEntity
  8
0
100
AcDbCircle
 10
-10.03716883422641
 20
3.913334655906708
 30
0.0
 40
0.13752375828112
100
AcDbArc
 50
147.9718933333902
 51
165.4734521832021
  0
ARC
  5
194
330
2
100
AcDbEntity
  8
0
100
AcDbCircle
 10
-10.07482126642042
 20
3.936888197274184
 30
0.0
 40
0.0931112041880095
100
AcDbArc
 50
123.510822955668
 51
147.9718933333889
  0
ARC
  5
195
330
2
100
AcDbEntity
  8
0
100
AcDbCircle
 10
-10.09846835436362
 20
3.972600391179496
 30
0.0
 40
0.0502796088205245
100
AcDbArc
 50
90.00000000000101
 51
123.5108229556718
  0
ARC
  5
196
330
2
100
AcDbEntity
  8
0
100
AcDbCircle
 10
-10.09846835436362
 20
4.130289098411252
 30
0.0
 40
0.4494090984112305
100
AcDbArc
 50
255.6955204934708
 51
270.0
  0
ARC
  5
197
330
2
100
AcDbEntity
  8
0
100
AcDbCircle
 10
-10.09846835436356
 20
3.665470901588796
 30
0.0
 40
0.4494090984112374
100
AcDbArc
 50
90.00000000000713
 51
104.3044795065363
  0
ARC
  5
198
330
2
100
AcDbEntity
  8
0
100
AcDbCircle
 10
-10.25808766376913
 20
5.937500000000028
 30
0.0
 40
0.1532050010699973
100
AcDbArc
 50
180.0000000000106
 51
203.0157918004584
  0
ARC
  5
199
330
2
100
AcDbEntity
  8
0
100
AcDbCircle
 10
-10.25808766376913
 20
5.937499999999972
 30
0.0
 40
0.1532050010699999
100
AcDbArc
 50
156.984208199542
 51
179.9999999999894
  0
ARC
  5
19A
330
2
100
AcDbEntity
  8
0
100
AcDbCircle
 10
-10.09846835436363
 20
5.839925526379187
 30
0.0
 40
0.0734255263791788
100
AcDbArc
 50
237.3920789848133
 51
270.0000000000083
  0
ARC
  5
19B
330
2
100
AcDbEntity
  8
0
100
AcDbCircle
 10
-10.06859775939611
 20
5.886618650683634
 30
0.0
 40
0.1288556653021872
100
AcDbArc
 50
212.9226719024485
 51
237.392078984804
  0
ARC
  5
19C
330
2
100
AcDbEntity
  8
0
100
AcDbCircle
 10
-10.02113436910116
 20
5.917350743226809
 30
0.0
 40
0.185399762521732
100
AcDbArc
 50
195.0133710020058
 51
212.9226719024582
  0
ARC
  5
19D
330
2
100
AcDbEntity
  8
0
100
AcDbCircle
 10
-9.946006453284145
 20
5.937499999999986
 30
0.0
 40
0.2631827702002704
100
AcDbArc
 50
179.9999999999969
 51
195.0133710019941
  0
ARC
  5
19E
330
2
100
AcDbEntity
  8
0
100
AcDbCircle
 10
-9.946006453284152
 20
5.937500000000014
 30
0.0
 40
0.263182770200264
100
AcDbArc
 50
164.9866289980056
 51
180.0000000000031
  0
ARC
  5
19F
330
2
100
AcDbEntity
  8
0
100
AcDbCircle
 10
-10.02113436910116
 20
5.957649256773195
 30
0.0
 40
0.1853997625217251
100
AcDbArc
 50
147.0773280975416
 51
164.9866289979947
  0
ARC
  5
1A0
330
2
100
AcDbEntity
  8
0
100
AcDbCircle
 10
-10.06859775939611
 20
5.988381349316363
 30
0.0
 40
0.1288556653021912
100
AcDbArc
 50
122.6079210151961
 51
147.0773280975508
  0
ARC
  5
1A1
330
2
100
AcDbEntity
  8
0
100
AcDbCircle
 10
-10.0984683543636
 20
6.035074473620817
 30
0.0
 40
0.0734255263791889
100
AcDbArc
 50
90.00000000001107
 51
122.6079210152046
  0
ARC
  5
1A2
330
2
100
AcDbEntity
  8
0
100
AcDbCircle
 10
-10.09846835436362
 20
5.862779608820524
 30
0.0
 40
0.0502796088205244
100
AcDbArc
 50
236.4891770443282
 51
269.999999999999
  0
ARC
  5
1A3
330
2
100
AcDbEntity
  8
0
100
AcDbCircle
 10
-10.07482126642042
 20
5.898491802725832
 30
0.0
 40
0.0931112041880074
100
AcDbArc
 50
212.0281066666093
 51
236.4891770443309
  0
ARC
  5
1A4
330
2
100
AcDbEntity
  8
0
100
AcDbCircle
 10
-10.0371688342264
 20
5.922045344093316
 30
0.0
 40
0.1375237582811297
100
AcDbArc
 50
194.5265478167985
 51
212.0281066666091
  0
ARC
  5
1A5
330
2
100
AcDbEntity
  8
0
100
AcDbCircle
 10
-9.977524135910908
 20
5.937500000000007
 30
0.0
 40
0.1991381756389258
100
AcDbArc
 50
180.0000000000021
 51
194.5265478167992
  0
ARC
  5
1A6
330
2
100
AcDbEntity
  8
0
100
AcDbCircle
 10
-9.977524135910908
 20
5.937499999999993
 30
0.0
 40
0.1991381756389261
100
AcDbArc
 50
165.4734521832009
 51
179.999999999998
  0
ARC
  5
1A7
330
2
100
AcDbEntity
  8
0
100
AcDbCircle
 10
-10.03716883422641
 20
5.952954655906687
 30
0.0
 40
0.13752375828112
100
AcDbArc
 50
147.9718933333902
 51
165.4734521832021
  0
ARC
  5
1A8
330
2
100
AcDbEntity
  8
0
100
AcDbCircle
 10
-10.07482126642042
 20
5.976508197274164
 30
0.0
 40
0.0931112041880095
100
AcDbArc
 50
123.510822955668
 51
147.9718933333889
  0
ARC
  5
1A9
330
2
100
AcDbEntity
  8
0
100
AcDbCircle
 10
-10.09846835436362
 20
6.012220391179476
 30
0.0
 40
0.0502796088205245
100
AcDbArc
 50
90.00000000000101
 51
123.5108229556718
  0
ARC
  5
1AA
330
2
100
AcDbEntity
  8
0
100
AcDbCircle
 10
-10.1313185254798
 20
6.055580709490315
 30
0.0
 40
0.3304548456263117
100
AcDbArc
 50
235.2517244545761
 51
244.6689207421418
  0
ARC
  5
1AB
330
2
100
AcDbEntity
  8
0
100
AcDbCircle
 10
-10.18150873217728
 20
5.983227175836838
 30
0.0
 40
0.242397530879151
100
AcDbArc
 50
230.4363921703659
 51
235.2517244545532
  0
ARC
  5
1AC
330
2
100
AcDbEntity
  8
0
100
AcDbCircle
 10
-10.09846835436362
 20
6.169909098411232
 30
0.0
 40
0.4494090984112305
100
AcDbArc
 50
255.6955204934708
 51
270.0
  0
ARC
  5
1AD
330
2
100
AcDbEntity
  8
0
100
AcDbCircle
 10
-10.18150873217726
 20
5.891772824163219
 30
0.0
 40
0.242397530879118
100
AcDbArc
 50
124.7482755454591
 51
129.5636078296458
  0
ARC
  5
1AE
330
2
100
AcDbEntity
  8
0
100
AcDbCircle
 10
-10.13131852547972
 20
5.819419290509654
 30
0.0
 40
0.3304548456263872
100
AcDbArc
 50
115.3310792578672
 51
124.748275545433
  0
ARC
  5
1AF
330
2
100
AcDbEntity
  8
0
100
AcDbCircle
 10
-10.09846835436356
 20
5.705090901588775
 30
0.0
 40
0.4494090984112374
100
AcDbArc
 50
90.00000000000713
 51
104.3044795065363
  0
ARC
  5
1B0
330
2
100
AcDbEntity
  8
0
100
AcDbCircle
 10
-1.843749999999996
 20
1.419108177159274
 30
0.0
 40
0.1796218228407433
100
AcDbArc
 50
104.8383959934706
 51
112.0008925954779
  0
ARC
  5
1B1
330
2
100
AcDbEntity
  8
0
100
AcDbCircle
 10
-1.845445882090488
 20
1.423305444365461
 30
0.0
 40
0.1750948958405604
100
AcDbArc
 50
112.0008925954737
 51
134.2879713357527
  0
ARC
  5
1B2
330
2
100
AcDbEntity
  8
0
100
AcDbCircle
 10
-1.848070116518768
 20
1.425995726997076
 30
0.0
 40
0.1713366745894175
100
AcDbArc
 50
134.2879713357522
 51
156.9920431300937
  0
ARC
  5
1B3
330
2
100
AcDbEntity
  8
0
100
AcDbCircle
 10
-1.852154230649155
 20
1.427730000000018
 30
0.0
 40
0.1668995932200081
100
AcDbArc
 50
156.9920431300973
 51
180.0000000000024
  0
ARC
  5
1B4
330
2
100
AcDbEntity
  8
0
100
AcDbCircle
 10
-1.852154230649161
 20
1.427730000000004
 30
0.0
 40
0.1668995932200037
100
AcDbArc
 50
179.9999999999976
 51
203.0079568699034
  0
ARC
  5
1B5
330
2
100
AcDbEntity
  8
0
100
AcDbCircle
 10
-1.848070116518768
 20
1.429464273002949
 30
0.0
 40
0.1713366745894194
100
AcDbArc
 50
203.0079568699074
 51
225.7120286642487
  0
ARC
  5
1B6
330
2
100
AcDbEntity
  8
0
100
AcDbCircle
 10
-1.845445882090486
 20
1.432154555634565
 30
0.0
 40
0.1750948958405643
100
AcDbArc
 50
225.7120286642477
 51
247.9991074045262
  0
ARC
  5
1B7
330
2
100
AcDbEntity
  8
0
100
AcDbCircle
 10
-1.843750000000055
 20
1.436351822840745
 30
0.0
 40
0.1796218228407181
100
AcDbArc
 50
247.9991074045391
 51
255.1616040065466
  0
ARC
  5
1B8
330
2
100
AcDbEntity
  8
0
100
AcDbCircle
 10
-1.843749999999993
 20
1.390004298837525
 30
0.0
 40
0.1627257011624917
100
AcDbArc
 50
106.4204773143158
 51
109.9326970463662
  0
ARC
  5
1B9
330
2
100
AcDbEntity
  8
0
100
AcDbCircle
 10
-1.850434477804658
 20
1.408437091687148
 30
0.0
 40
0.1431183021570608
100
AcDbArc
 50
109.9326970463561
 51
131.2018769840323
  0
ARC
  5
1BA
330
2
100
AcDbEntity
  8
0
100
AcDbCircle
 10
-1.860728162061973
 20
1.42019469529264
 30
0.0
 40
0.1274913645769336
100
AcDbArc
 50
131.2018769840263
 51
154.6801826141883
  0
ARC
  5
1BB
330
2
100
AcDbEntity
  8
0
100
AcDbCircle
 10
-1.876654962283565
 20
1.427730000000018
 30
0.0
 40
0.1098719496510183
100
AcDbArc
 50
154.6801826141994
 51
180.0000000000037
  0
ARC
  5
1BC
330
2
100
AcDbEntity
  8
0
100
AcDbCircle
 10
-1.876654962283579
 20
1.427730000000004
 30
0.0
 40
0.1098719496510032
100
AcDbArc
 50
179.9999999999963
 51
205.3198173858004
  0
ARC
  5
1BD
330
2
100
AcDbEntity
  8
0
100
AcDbCircle
 10
-1.860728162061955
 20
1.435265304707386
 30
0.0
 40
0.1274913645769478
100
AcDbArc
 50
205.3198173858069
 51
228.7981230159687
  0
ARC
  5
1BE
330
2
100
AcDbEntity
  8
0
100
AcDbCircle
 10
-1.850434477804658
 20
1.447022908312867
 30
0.0
 40
0.1431183021570547
100
AcDbArc
 50
228.7981230159658
 51
250.067302953643
  0
ARC
  5
1BF
330
2
100
AcDbEntity
  8
0
100
AcDbCircle
 10
-1.843749999999993
 20
1.465455701162497
 30
0.0
 40
0.1627257011624917
100
AcDbArc
 50
250.0673029536338
 51
253.5795226856842
  0
ARC
  5
1C0
330
2
100
AcDbEntity
  8
0
100
AcDbCircle
 10
-1.843749999999996
 20
3.88925817715926
 30
0.0
 40
0.1796218228407433
100
AcDbArc
 50
104.8383959934706
 51
112.0008925954779
  0
ARC
  5
1C1
330
2
100
AcDbEntity
  8
0
100
AcDbCircle
 10
-1.845445882090488
 20
3.893455444365447
 30
0.0
 40
0.1750948958405604
100
AcDbArc
 50
112.0008925954737
 51
134.2879713357527
  0
ARC
  5
1C2
330
2
100
AcDbEntity
  8
0
100
AcDbCircle
 10
-1.848070116518768
 20
3.896145726997062
 30
0.0
 40
0.1713366745894175
100
AcDbArc
 50
134.2879713357522
 51
156.9920431300937
  0
ARC
  5
1C3
330
2
100
AcDbEntity
  8
0
100
AcDbCircle
 10
-1.852154230649155
 20
3.897880000000001
 30
0.0
 40
0.1668995932200094
100
AcDbArc
 50
156.9920431300962
 51
180.0000000000013
  0
ARC
  5
1C4
330
2
100
AcDbEntity
  8
0
100
AcDbCircle
 10
-1.852154230649161
 20
3.897879999999994
 30
0.0
 40
0.1668995932200037
100
AcDbArc
 50
179.9999999999988
 51
203.0079568699046
  0
ARC
  5
1C5
330
2
100
AcDbEntity
  8
0
100
AcDbCircle
 10
-1.848070116518768
 20
3.899614273002932
 30
0.0
 40
0.171336674589418
100
AcDbArc
 50
203.0079568699063
 51
225.7120286642478
  0
ARC
  5
1C6
330
2
100
AcDbEntity
  8
0
100
AcDbCircle
 10
-1.845445882090486
 20
3.902304555634551
 30
0.0
 40
0.1750948958405643
100
AcDbArc
 50
225.7120286642477
 51
247.9991074045262
  0
ARC
  5
1C7
330
2
100
AcDbEntity
  8
0
100
AcDbCircle
 10
-1.843750000000055
 20
3.906501822840731
 30
0.0
 40
0.1796218228407181
100
AcDbArc
 50
247.9991074045391
 51
255.1616040065466
  0
ARC
  5
1C8
330
2
100
AcDbEntity
  8
0
100
AcDbCircle
 10
-1.843749999999993
 20
3.860154298837507
 30
0.0
 40
0.1627257011624951
100
AcDbArc
 50
106.4204773143154
 51
109.9326970463658
  0
ARC
  5
1C9
330
2
100
AcDbEntity
  8
0
100
AcDbCircle
 10
-1.850434477804658
 20
3.878587091687137
 30
0.0
 40
0.1431183021570574
100
AcDbArc
 50
109.9326970463565
 51
131.2018769840333
  0
ARC
  5
1CA
330
2
100
AcDbEntity
  8
0
100
AcDbCircle
 10
-1.860728162061973
 20
3.890344695292626
 30
0.0
 40
0.1274913645769336
100
AcDbArc
 50
131.2018769840263
 51
154.6801826141883
  0
ARC
  5
1CB
330
2
100
AcDbEntity
  8
0
100
AcDbCircle
 10
-1.876654962283565
 20
3.897880000000008
 30
0.0
 40
0.1098719496510168
100
AcDbArc
 50
154.680182614201
 51
180.0000000000055
  0
ARC
  5
1CC
330
2
100
AcDbEntity
  8
0
100
AcDbCircle
 10
-1.876654962283579
 20
3.897879999999994
 30
0.0
 40
0.1098719496510032
100
AcDbArc
 50
179.9999999999982
 51
205.3198173858021
  0
ARC
  5
1CD
330
2
100
AcDbEntity
  8
0
100
AcDbCircle
 10
-1.860728162061955
 20
3.905415304707368
 30
0.0
 40
0.1274913645769462
100
AcDbArc
 50
205.3198173858054
 51
228.7981230159677
  0
ARC
  5
1CE
330
2
100
AcDbEntity
  8
0
100
AcDbCircle
 10
-1.850434477804658
 20
3.917172908312857
 30
0.0
 40
0.1431183021570573
100
AcDbArc
 50
228.7981230159667
 51
250.0673029536435
  0
ARC
  5
1CF
330
2
100
AcDbEntity
  8
0
100
AcDbCircle
 10
-1.843749999999993
 20
3.935605701162487
 30
0.0
 40
0.1627257011624951
100
AcDbArc
 50
250.0673029536342
 51
253.5795226856846
  0
ARC
  5
1D0
330
2
100
AcDbEntity
  8
0
100
AcDbCircle
 10
-1.843749999999996
 20
5.928878177159255
 30
0.0
 40
0.1796218228407433
100
AcDbArc
 50
104.8383959934706
 51
112.0008925954779
  0
ARC
  5
1D1
330
2
100
AcDbEntity
  8
0
100
AcDbCircle
 10
-1.845445882090488
 20
5.933075444365443
 30
0.0
 40
0.1750948958405604
100
AcDbArc
 50
112.0008925954737
 51
134.2879713357527
  0
ARC
  5
1D2
330
2
100
AcDbEntity
  8
0
100
AcDbCircle
 10
-1.848070116518768
 20
5.935765726997058
 30
0.0
 40
0.1713366745894175
100
AcDbArc
 50
134.2879713357522
 51
156.9920431300937
  0
ARC
  5
1D3
330
2
100
AcDbEntity
  8
0
100
AcDbCircle
 10
-1.852154230649155
 20
5.9375
 30
0.0
 40
0.1668995932200081
100
AcDbArc
 50
156.9920431300973
 51
180.0000000000024
  0
ARC
  5
1D4
330
2
100
AcDbEntity
  8
0
100
AcDbCircle
 10
-1.852154230649161
 20
5.937499999999986
 30
0.0
 40
0.1668995932200037
100
AcDbArc
 50
179.9999999999976
 51
203.0079568699034
  0
ARC
  5
1D5
330
2
100
AcDbEntity
  8
0
100
AcDbCircle
 10
-1.848070116518768
 20
5.939234273002931
 30
0.0
 40
0.1713366745894194
100
AcDbArc
 50
203.0079568699074
 51
225.7120286642487
  0
ARC
  5
1D6
330
2
100
AcDbEntity
  8
0
100
AcDbCircle
 10
-1.845445882090486
 20
5.941924555634547
 30
0.0
 40
0.1750948958405643
100
AcDbArc
 50
225.7120286642477
 51
247.9991074045262
  0
ARC
  5
1D7
330
2
100
AcDbEntity
  8
0
100
AcDbCircle
 10
-1.843750000000055
 20
5.946121822840727
 30
0.0
 40
0.1796218228407181
100
AcDbArc
 50
247.9991074045391
 51
255.1616040065466
  0
ARC
  5
1D8
330
2
100
AcDbEntity
  8
0
100
AcDbCircle
 10
-1.843749999999993
 20
5.899774298837507
 30
0.0
 40
0.1627257011624917
100
AcDbArc
 50
106.4204773143158
 51
109.9326970463662
  0
ARC
  5
1D9
330
2
100
AcDbEntity
  8
0
100
AcDbCircle
 10
-1.850434477804658
 20
5.91820709168713
 30
0.0
 40
0.1431183021570608
100
AcDbArc
 50
109.9326970463561
 51
131.2018769840323
  0
ARC
  5
1DA
330
2
100
AcDbEntity
  8
0
100
AcDbCircle
 10
-1.860728162061973
 20
5.929964695292622
 30
0.0
 40
0.1274913645769336
100
AcDbArc
 50
131.2018769840263
 51
154.6801826141883
  0
ARC
  5
1DB
330
2
100
AcDbEntity
  8
0
100
AcDbCircle
 10
-1.876654962283565
 20
5.9375
 30
0.0
 40
0.1098719496510183
100
AcDbArc
 50
154.6801826141994
 51
180.0000000000037
  0
ARC
  5
1DC
330
2
100
AcDbEntity
  8
0
100
AcDbCircle
 10
-1.876654962283579
 20
5.937499999999986
 30
0.0
 40
0.1098719496510032
100
AcDbArc
 50
179.9999999999963
 51
205.3198173858004
  0
ARC
  5
1DD
330
2
100
AcDbEntity
  8
0
100
AcDbCircle
 10
-1.860728162061955
 20
5.945035304707368
 30
0.0
 40
0.1274913645769478
100
AcDbArc
 50
205.3198173858069
 51
228.7981230159687
  0
ARC
  5
1DE
330
2
100
AcDbEntity
  8
0
100
AcDbCircle
 10
-1.850434477804658
 20
5.956792908312849
 30
0.0
 40
0.1431183021570547
100
AcDbArc
 50
228.7981230159658
 51
250.067302953643
  0
ARC
  5
1DF
330
2
100
AcDbEntity
  8
0
100
AcDbCircle
 10
-1.843749999999993
 20
5.975225701162479
 30
0.0
 40
0.1627257011624917
100
AcDbArc
 50
250.0673029536338
 51
253.5795226856842
  0
ARC
  5
1E0
330
2
100
AcDbEntity
  8
0
100
AcDbCircle
 10
1.843749999999996
 20
1.400588151044772
 30
0.0
 40
0.1796218228407433
100
AcDbArc
 50
67.99910740452214
 51
75.1616040065294
  0
ARC
  5
1E1
330
2
100
AcDbEntity
  8
0
100
AcDbCircle
 10
1.845445882090488
 20
1.40478541825096
 30
0.0
 40
0.1750948958405604
100
AcDbArc
 50
45.71202866424729
 51
67.99910740452631
  0
ARC
  5
1E2
330
2
100
AcDbEntity
  8
0
100
AcDbCircle
 10
1.84807011651877
 20
1.407475700882575
 30
0.0
 40
0.1713366745894163
100
AcDbArc
 50
23.00795686990655
 51
45.71202866424827
  0
ARC
  5
1E3
330
2
100
AcDbEntity
  8
0
100
AcDbCircle
 10
1.852154230649155
 20
1.409209973885517
 30
0.0
 40
0.1668995932200081
100
AcDbArc
 50
359.9999999999976
 51
23.00795686990271
  0
ARC
  5
1E4
330
2
100
AcDbEntity
  8
0
100
AcDbCircle
 10
1.852154230649163
 20
1.409209973885503
 30
0.0
 40
0.1668995932200019
100
AcDbArc
 50
336.9920431300963
 51
0.0000000000024393
  0
ARC
  5
1E5
330
2
100
AcDbEntity
  8
0
100
AcDbCircle
 10
1.84807011651877
 20
1.410944246888448
 30
0.0
 40
0.1713366745894177
100
AcDbArc
 50
314.2879713357509
 51
336.9920431300923
  0
ARC
  5
1E6
330
2
100
AcDbEntity
  8
0
100
AcDbCircle
 10
1.845445882090484
 20
1.413634529520063
 30
0.0
 40
0.1750948958405655
100
AcDbArc
 50
292.0008925954743
 51
314.2879713357527
  0
ARC
  5
1E7
330
2
100
AcDbEntity
  8
0
100
AcDbCircle
 10
1.843750000000057
 20
1.417831796726244
 30
0.0
 40
0.1796218228407174
100
AcDbArc
 50
284.8383959934529
 51
292.0008925954604
  0
ARC
  5
1E8
330
2
100
AcDbEntity
  8
0
100
AcDbCircle
 10
1.843749999999993
 20
1.371484272723023
 30
0.0
 40
0.1627257011624917
100
AcDbArc
 50
70.06730295363376
 51
73.57952268568424
  0
ARC
  5
1E9
330
2
100
AcDbEntity
  8
0
100
AcDbCircle
 10
1.850434477804658
 20
1.389917065572647
 30
0.0
 40
0.1431183021570608
100
AcDbArc
 50
48.79812301596765
 51
70.06730295364395
  0
ARC
  5
1EA
330
2
100
AcDbEntity
  8
0
100
AcDbCircle
 10
1.860728162061971
 20
1.401674669178139
 30
0.0
 40
0.1274913645769348
100
AcDbArc
 50
25.31981738581136
 51
48.79812301597308
  0
ARC
  5
1EB
330
2
100
AcDbEntity
  8
0
100
AcDbCircle
 10
1.876654962283563
 20
1.409209973885517
 30
0.0
 40
0.1098719496510199
100
AcDbArc
 50
359.9999999999963
 51
25.31981738580025
  0
ARC
  5
1EC
330
2
100
AcDbEntity
  8
0
100
AcDbCircle
 10
1.876654962283581
 20
1.409209973885503
 30
0.0
 40
0.1098719496510014
100
AcDbArc
 50
334.6801826141992
 51
0.0000000000037053
  0
ARC
  5
1ED
330
2
100
AcDbEntity
  8
0
100
AcDbCircle
 10
1.860728162061957
 20
1.416745278592885
 30
0.0
 40
0.1274913645769462
100
AcDbArc
 50
311.2018769840307
 51
334.6801826141928
  0
ARC
  5
1EE
330
2
100
AcDbEntity
  8
0
100
AcDbCircle
 10
1.850434477804658
 20
1.428502882198366
 30
0.0
 40
0.1431183021570547
100
AcDbArc
 50
289.932697046357
 51
311.2018769840342
  0
ARC
  5
1EF
330
2
100
AcDbEntity
  8
0
100
AcDbCircle
 10
1.843749999999993
 20
1.446935675047996
 30
0.0
 40
0.1627257011624917
100
AcDbArc
 50
286.4204773143158
 51
289.9326970463663
  0
ARC
  5
1F0
330
2
100
AcDbEntity
  8
0
100
AcDbCircle
 10
1.843749999999993
 20
3.613004272723039
 30
0.0
 40
0.1627257011624917
100
AcDbArc
 50
70.06730295363376
 51
73.57952268568424
  0
ARC
  5
1F1
330
2
100
AcDbEntity
  8
0
100
AcDbCircle
 10
1.850434477804658
 20
3.631437065572662
 30
0.0
 40
0.1431183021570608
100
AcDbArc
 50
48.79812301596765
 51
70.06730295364395
  0
ARC
  5
1F2
330
2
100
AcDbEntity
  8
0
100
AcDbCircle
 10
1.860728162061971
 20
3.643194669178154
 30
0.0
 40
0.1274913645769348
100
AcDbArc
 50
25.31981738581136
 51
48.79812301597308
  0
ARC
  5
1F3
330
2
100
AcDbEntity
  8
0
100
AcDbCircle
 10
1.876654962283563
 20
3.650729973885532
 30
0.0
 40
0.1098719496510199
100
AcDbArc
 50
359.9999999999963
 51
25.31981738580025
  0
ARC
  5
1F4
330
2
100
AcDbEntity
  8
0
100
AcDbCircle
 10
1.876654962283581
 20
3.650729973885518
 30
0.0
 40
0.1098719496510014
100
AcDbArc
 50
334.6801826141992
 51
0.0000000000037053
  0
ARC
  5
1F5
330
2
100
AcDbEntity
  8
0
100
AcDbCircle
 10
1.860728162061957
 20
3.6582652785929
 30
0.0
 40
0.1274913645769462
100
AcDbArc
 50
311.2018769840307
 51
334.6801826141928
  0
ARC
  5
1F6
330
2
100
AcDbEntity
  8
0
100
AcDbCircle
 10
1.850434477804658
 20
3.670022882198381
 30
0.0
 40
0.1431183021570547
100
AcDbArc
 50
289.932697046357
 51
311.2018769840342
  0
ARC
  5
1F7
330
2
100
AcDbEntity
  8
0
100
AcDbCircle
 10
1.843749999999993
 20
3.688455675048012
 30
0.0
 40
0.1627257011624917
100
AcDbArc
 50
286.4204773143158
 51
289.9326970463663
  0
ARC
  5
1F8
330
2
100
AcDbEntity
  8
0
100
AcDbCircle
 10
1.843749999999996
 20
3.642108151044788
 30
0.0
 40
0.1796218228407433
100
AcDbArc
 50
67.99910740452214
 51
75.1616040065294
  0
ARC
  5
1F9
330
2
100
AcDbEntity
  8
0
100
AcDbCircle
 10
1.845445882090488
 20
3.646305418250975
 30
0.0
 40
0.1750948958405604
100
AcDbArc
 50
45.71202866424729
 51
67.99910740452631
  0
ARC
  5
1FA
330
2
100
AcDbEntity
  8
0
100
AcDbCircle
 10
1.84807011651877
 20
3.64899570088259
 30
0.0
 40
0.1713366745894163
100
AcDbArc
 50
23.00795686990655
 51
45.71202866424827
  0
ARC
  5
1FB
330
2
100
AcDbEntity
  8
0
100
AcDbCircle
 10
1.852154230649155
 20
3.650729973885532
 30
0.0
 40
0.1668995932200081
100
AcDbArc
 50
359.9999999999976
 51
23.00795686990271
  0
ARC
  5
1FC
330
2
100
AcDbEntity
  8
0
100
AcDbCircle
 10
1.852154230649163
 20
3.650729973885518
 30
0.0
 40
0.1668995932200019
100
AcDbArc
 50
336.9920431300963
 51
0.0000000000024393
  0
ARC
  5
1FD
330
2
100
AcDbEntity
  8
0
100
AcDbCircle
 10
1.84807011651877
 20
3.652464246888464
 30
0.0
 40
0.1713366745894177
100
AcDbArc
 50
314.2879713357509
 51
336.9920431300923
  0
ARC
  5
1FE
330
2
100
AcDbEntity
  8
0
100
AcDbCircle
 10
1.845445882090484
 20
3.655154529520079
 30
0.0
 40
0.1750948958405655
100
AcDbArc
 50
292.0008925954743
 51
314.2879713357527
  0
ARC
  5
1FF
330
2
100
AcDbEntity
  8
0
100
AcDbCircle
 10
1.843750000000057
 20
3.659351796726259
 30
0.0
 40
0.1796218228407174
100
AcDbArc
 50
284.8383959934529
 51
292.0008925954604
  0
ARC
  5
200
330
2
100
AcDbEntity
  8
0
100
AcDbCircle
 10
1.843749999999996
 20
5.647238124930279
 30
0.0
 40
0.1796218228407433
100
AcDbArc
 50
67.99910740452214
 51
75.1616040065294
  0
ARC
  5
201
330
2
100
AcDbEntity
  8
0
100
AcDbCircle
 10
1.845445882090488
 20
5.651435392136467
 30
0.0
 40
0.1750948958405604
100
AcDbArc
 50
45.71202866424729
 51
67.99910740452631
  0
ARC
  5
202
330
2
100
AcDbEntity
  8
0
100
AcDbCircle
 10
1.84807011651877
 20
5.654125674768082
 30
0.0
 40
0.1713366745894163
100
AcDbArc
 50
23.00795686990655
 51
45.71202866424827
  0
ARC
  5
203
330
2
100
AcDbEntity
  8
0
100
AcDbCircle
 10
1.852154230649155
 20
5.655859947771024
 30
0.0
 40
0.1668995932200081
100
AcDbArc
 50
359.9999999999976
 51
23.00795686990271
  0
ARC
  5
204
330
2
100
AcDbEntity
  8
0
100
AcDbCircle
 10
1.852154230649163
 20
5.65585994777101
 30
0.0
 40
0.1668995932200019
100
AcDbArc
 50
336.9920431300963
 51
0.0000000000024393
  0
ARC
  5
205
330
2
100
AcDbEntity
  8
0
100
AcDbCircle
 10
1.84807011651877
 20
5.657594220773955
 30
0.0
 40
0.1713366745894177
100
AcDbArc
 50
314.2879713357509
 51
336.9920431300923
  0
ARC
  5
206
330
2
100
AcDbEntity
  8
0
100
AcDbCircle
 10
1.845445882090484
 20
5.66028450340557
 30
0.0
 40
0.1750948958405655
100
AcDbArc
 50
292.0008925954743
 51
314.2879713357527
  0
ARC
  5
207
330
2
100
AcDbEntity
  8
0
100
AcDbCircle
 10
1.843750000000057
 20
5.664481770611751
 30
0.0
 40
0.1796218228407174
100
AcDbArc
 50
284.8383959934529
 51
292.0008925954604
  0
ARC
  5
208
330
2
100
AcDbEntity
  8
0
100
AcDbCircle
 10
1.843749999999993
 20
5.61813424660853
 30
0.0
 40
0.1627257011624917
100
AcDbArc
 50
70.06730295363376
 51
73.57952268568424
  0
ARC
  5
209
330
2
100
AcDbEntity
  8
0
100
AcDbCircle
 10
1.850434477804658
 20
5.636567039458154
 30
0.0
 40
0.1431183021570608
100
AcDbArc
 50
48.79812301596765
 51
70.06730295364395
  0
ARC
  5
20A
330
2
100
AcDbEntity
  8
0
100
AcDbCircle
 10
1.860728162061971
 20
5.648324643063646
 30
0.0
 40
0.1274913645769348
100
AcDbArc
 50
25.31981738581136
 51
48.79812301597308
  0
ARC
  5
20B
330
2
100
AcDbEntity
  8
0
100
AcDbCircle
 10
1.876654962283563
 20
5.655859947771024
 30
0.0
 40
0.1098719496510199
100
AcDbArc
 50
359.9999999999963
 51
25.31981738580025
  0
ARC
  5
20C
330
2
100
AcDbEntity
  8
0
100
AcDbCircle
 10
1.876654962283581
 20
5.65585994777101
 30
0.0
 40
0.1098719496510014
100
AcDbArc
 50
334.6801826141992
 51
0.0000000000037053
  0
ARC
  5
20D
330
2
100
AcDbEntity
  8
0
100
AcDbCircle
 10
1.860728162061957
 20
5.663395252478392
 30
0.0
 40
0.1274913645769462
100
AcDbArc
 50
311.2018769840307
 51
334.6801826141928
  0
ARC
  5
20E
330
2
100
AcDbEntity
  8
0
100
AcDbCircle
 10
1.850434477804658
 20
5.675152856083873
 30
0.0
 40
0.1431183021570547
100
AcDbArc
 50
289.932697046357
 51
311.2018769840342
  0
ARC
  5
20F
330
2
100
AcDbEntity
  8
0
100
AcDbCircle
 10
1.843749999999993
 20
5.693585648933503
 30
0.0
 40
0.1627257011624917
100
AcDbArc
 50
286.4204773143158
 51
289.9326970463663
  0
ARC
  5
210
330
2
100
AcDbEntity
  8
0
100
AcDbCircle
 10
10.87281799741969
 20
1.176800875474292
 30
0.0
 40
0.4494090984112377
100
AcDbArc
 50
75.69552049346355
 51
89.99999999999277
  0
ARC
  5
211
330
2
100
AcDbEntity
  8
0
100
AcDbCircle
 10
10.87281799741975
 20
1.641619072296749
 30
0.0
 40
0.4494090984112305
100
AcDbArc
 50
270.0
 51
284.3044795065292
  0
ARC
  5
212
330
2
100
AcDbEntity
  8
0
100
AcDbCircle
 10
10.87281799741976
 20
1.311635500264703
 30
0.0
 40
0.0734255263791788
100
AcDbArc
 50
269.9999999999917
 51
302.6079210151868
  0
ARC
  5
213
330
2
100
AcDbEntity
  8
0
100
AcDbCircle
 10
10.84294740245224
 20
1.35832862456915
 30
0.0
 40
0.1288556653021863
100
AcDbArc
 50
302.6079210151953
 51
327.0773280975511
  0
ARC
  5
214
330
2
100
AcDbEntity
  8
0
100
AcDbCircle
 10
10.79548401215729
 20
1.389060717112326
 30
0.0
 40
0.1853997625217313
100
AcDbArc
 50
327.0773280975416
 51
344.9866289979941
  0
ARC
  5
215
330
2
100
AcDbEntity
  8
0
100
AcDbCircle
 10
10.72035609634027
 20
1.409209973885503
 30
0.0
 40
0.2631827702002704
100
AcDbArc
 50
344.986628998006
 51
0.0000000000030938
  0
ARC
  5
216
330
2
100
AcDbEntity
  8
0
100
AcDbCircle
 10
10.72035609634028
 20
1.409209973885531
 30
0.0
 40
0.2631827702002632
100
AcDbArc
 50
359.9999999999969
 51
15.01337100199443
  0
ARC
  5
217
330
2
100
AcDbEntity
  8
0
100
AcDbCircle
 10
10.79548401215729
 20
1.429359230658712
 30
0.0
 40
0.1853997625217234
100
AcDbArc
 50
15.01337100200542
 51
32.92267190245869
  0
ARC
  5
218
330
2
100
AcDbEntity
  8
0
100
AcDbCircle
 10
10.84294740245224
 20
1.46009132320188
 30
0.0
 40
0.1288556653021905
100
AcDbArc
 50
32.92267190244941
 51
57.39207898480424
  0
ARC
  5
219
330
2
100
AcDbEntity
  8
0
100
AcDbCircle
 10
10.87281799741973
 20
1.506784447506334
 30
0.0
 40
0.0734255263791889
100
AcDbArc
 50
57.3920789847954
 51
89.99999999998892
  0
ARC
  5
21A
330
2
100
AcDbEntity
  8
0
100
AcDbCircle
 10
10.87281799741975
 20
1.334489582706041
 30
0.0
 40
0.0502796088205244
100
AcDbArc
 50
270.0
 51
303.5108229556709
  0
ARC
  5
21B
330
2
100
AcDbEntity
  8
0
100
AcDbCircle
 10
10.84917090947654
 20
1.370201776611349
 30
0.0
 40
0.0931112041880084
100
AcDbArc
 50
303.5108229556701
 51
327.9718933333913
  0
ARC
  5
21C
330
2
100
AcDbEntity
  8
0
100
AcDbCircle
 10
10.81151847728253
 20
1.393755317978833
 30
0.0
 40
0.1375237582811305
100
AcDbArc
 50
327.9718933333911
 51
345.4734521832016
  0
ARC
  5
21D
330
2
100
AcDbEntity
  8
0
100
AcDbCircle
 10
10.75187377896704
 20
1.409209973885524
 30
0.0
 40
0.1991381756389258
100
AcDbArc
 50
345.4734521832008
 51
359.999999999998
  0
ARC
  5
21E
330
2
100
AcDbEntity
  8
0
100
AcDbCircle
 10
10.75187377896704
 20
1.40920997388551
 30
0.0
 40
0.1991381756389252
100
AcDbArc
 50
0.0000000000020444
 51
14.5265478167992
  0
ARC
  5
21F
330
2
100
AcDbEntity
  8
0
100
AcDbCircle
 10
10.81151847728254
 20
1.424664629792204
 30
0.0
 40
0.1375237582811191
100
AcDbArc
 50
14.52654781679805
 51
32.02810666661003
  0
ARC
  5
220
330
2
100
AcDbEntity
  8
0
100
AcDbCircle
 10
10.84917090947654
 20
1.448218171159681
 30
0.0
 40
0.093111204188011
100
AcDbArc
 50
32.02810666661055
 51
56.48917704433114
  0
ARC
  5
221
330
2
100
AcDbEntity
  8
0
100
AcDbCircle
 10
10.87281799741975
 20
1.483930365064992
 30
0.0
 40
0.050279608820524
100
AcDbArc
 50
56.48917704432905
 51
90.0
  0
ARC
  5
222
330
2
100
AcDbEntity
  8
0
100
AcDbCircle
 10
10.90566816853593
 20
1.527290683375831
 30
0.0
 40
0.330454845626311
100
AcDbArc
 50
295.331079257858
 51
304.7482755454237
  0
ARC
  5
223
330
2
100
AcDbEntity
  8
0
100
AcDbCircle
 10
10.9558583752334
 20
1.454937149722355
 30
0.0
 40
0.2423975308791505
100
AcDbArc
 50
304.7482755454466
 51
309.563607829634
  0
ARC
  5
224
330
2
100
AcDbEntity
  8
0
100
AcDbCircle
 10
10.95585837523339
 20
1.363482798048736
 30
0.0
 40
0.242397530879118
100
AcDbArc
 50
50.43639217035425
 51
55.25172445454089
  0
ARC
  5
225
330
2
100
AcDbEntity
  8
0
100
AcDbCircle
 10
10.90566816853584
 20
1.29112926439517
 30
0.0
 40
0.3304548456263878
100
AcDbArc
 50
55.25172445456686
 51
64.66892074213267
  0
ARC
  5
226
330
2
100
AcDbEntity
  8
0
100
AcDbCircle
 10
11.03243730682525
 20
1.409209973885545
 30
0.0
 40
0.153205001069999
100
AcDbArc
 50
336.9842081995419
 51
359.9999999999894
  0
ARC
  5
227
330
2
100
AcDbEntity
  8
0
100
AcDbCircle
 10
11.03243730682525
 20
1.409209973885488
 30
0.0
 40
0.153205001069999
100
AcDbArc
 50
0.0000000000106292
 51
23.01579180045814
  0
ARC
  5
228
330
2
100
AcDbEntity
  8
0
100
AcDbCircle
 10
10.87281799741969
 20
3.418320875474294
 30
0.0
 40
0.4494090984112377
100
AcDbArc
 50
75.69552049346355
 51
89.99999999999277
  0
ARC
  5
229
330
2
100
AcDbEntity
  8
0
100
AcDbCircle
 10
10.87281799741975
 20
3.576009582706043
 30
0.0
 40
0.0502796088205244
100
AcDbArc
 50
270.0
 51
303.5108229556709
  0
ARC
  5
22A
330
2
100
AcDbEntity
  8
0
100
AcDbCircle
 10
10.84917090947654
 20
3.611721776611351
 30
0.0
 40
0.0931112041880084
100
AcDbArc
 50
303.5108229556701
 51
327.9718933333913
  0
ARC
  5
22B
330
2
100
AcDbEntity
  8
0
100
AcDbCircle
 10
10.81151847728253
 20
3.635275317978834
 30
0.0
 40
0.1375237582811305
100
AcDbArc
 50
327.9718933333911
 51
345.4734521832016
  0
ARC
  5
22C
330
2
100
AcDbEntity
  8
0
100
AcDbCircle
 10
10.75187377896704
 20
3.650729973885525
 30
0.0
 40
0.1991381756389258
100
AcDbArc
 50
345.4734521832008
 51
359.999999999998
  0
ARC
  5
22D
330
2
100
AcDbEntity
  8
0
100
AcDbCircle
 10
10.75187377896704
 20
3.650729973885511
 30
0.0
 40
0.1991381756389252
100
AcDbArc
 50
0.0000000000020444
 51
14.5265478167992
  0
ARC
  5
22E
330
2
100
AcDbEntity
  8
0
100
AcDbCircle
 10
10.81151847728254
 20
3.666184629792205
 30
0.0
 40
0.1375237582811191
100
AcDbArc
 50
14.52654781679805
 51
32.02810666661003
  0
ARC
  5
22F
330
2
100
AcDbEntity
  8
0
100
AcDbCircle
 10
10.84917090947654
 20
3.689738171159682
 30
0.0
 40
0.093111204188011
100
AcDbArc
 50
32.02810666661055
 51
56.48917704433114
  0
ARC
  5
230
330
2
100
AcDbEntity
  8
0
100
AcDbCircle
 10
10.87281799741975
 20
3.725450365064994
 30
0.0
 40
0.050279608820524
100
AcDbArc
 50
56.48917704432905
 51
90.0
  0
ARC
  5
231
330
2
100
AcDbEntity
  8
0
100
AcDbCircle
 10
10.87281799741975
 20
3.88313907229675
 30
0.0
 40
0.4494090984112305
100
AcDbArc
 50
270.0
 51
284.3044795065292
  0
ARC
  5
232
330
2
100
AcDbEntity
  8
0
100
AcDbCircle
 10
10.87281799741976
 20
3.553155500264705
 30
0.0
 40
0.0734255263791788
100
AcDbArc
 50
269.9999999999917
 51
302.6079210151868
  0
ARC
  5
233
330
2
100
AcDbEntity
  8
0
100
AcDbCircle
 10
10.84294740245224
 20
3.599848624569152
 30
0.0
 40
0.1288556653021863
100
AcDbArc
 50
302.6079210151953
 51
327.0773280975511
  0
ARC
  5
234
330
2
100
AcDbEntity
  8
0
100
AcDbCircle
 10
10.79548401215729
 20
3.630580717112327
 30
0.0
 40
0.1853997625217313
100
AcDbArc
 50
327.0773280975416
 51
344.9866289979941
  0
ARC
  5
235
330
2
100
AcDbEntity
  8
0
100
AcDbCircle
 10
10.72035609634027
 20
3.650729973885504
 30
0.0
 40
0.2631827702002704
100
AcDbArc
 50
344.986628998006
 51
0.0000000000030938
  0
ARC
  5
236
330
2
100
AcDbEntity
  8
0
100
AcDbCircle
 10
10.72035609634028
 20
3.650729973885532
 30
0.0
 40
0.2631827702002632
100
AcDbArc
 50
359.9999999999969
 51
15.01337100199443
  0
ARC
  5
237
330
2
100
AcDbEntity
  8
0
100
AcDbCircle
 10
10.79548401215729
 20
3.670879230658713
 30
0.0
 40
0.1853997625217234
100
AcDbArc
 50
15.01337100200542
 51
32.92267190245869
  0
ARC
  5
238
330
2
100
AcDbEntity
  8
0
100
AcDbCircle
 10
10.84294740245224
 20
3.701611323201881
 30
0.0
 40
0.1288556653021905
100
AcDbArc
 50
32.92267190244941
 51
57.39207898480424
  0
ARC
  5
239
330
2
100
AcDbEntity
  8
0
100
AcDbCircle
 10
10.87281799741973
 20
3.748304447506335
 30
0.0
 40
0.0734255263791889
100
AcDbArc
 50
57.3920789847954
 51
89.99999999998892
  0
ARC
  5
23A
330
2
100
AcDbEntity
  8
0
100
AcDbCircle
 10
10.95585837523339
 20
3.605002798048737
 30
0.0
 40
0.242397530879118
100
AcDbArc
 50
50.43639217035425
 51
55.25172445454089
  0
ARC
  5
23B
330
2
100
AcDbEntity
  8
0
100
AcDbCircle
 10
10.90566816853584
 20
3.532649264395172
 30
0.0
 40
0.3304548456263878
100
AcDbArc
 50
55.25172445456686
 51
64.66892074213267
  0
ARC
  5
23C
330
2
100
AcDbEntity
  8
0
100
AcDbCircle
 10
10.90566816853593
 20
3.768810683375833
 30
0.0
 40
0.330454845626311
100
AcDbArc
 50
295.331079257858
 51
304.7482755454237
  0
ARC
  5
23D
330
2
100
AcDbEntity
  8
0
100
AcDbCircle
 10
10.9558583752334
 20
3.696457149722356
 30
0.0
 40
0.2423975308791505
100
AcDbArc
 50
304.7482755454466
 51
309.563607829634
  0
ARC
  5
23E
330
2
100
AcDbEntity
  8
0
100
AcDbCircle
 10
11.03243730682525
 20
3.650729973885547
 30
0.0
 40
0.153205001069999
100
AcDbArc
 50
336.9842081995419
 51
359.9999999999894
  0
ARC
  5
23F
330
2
100
AcDbEntity
  8
0
100
AcDbCircle
 10
11.03243730682525
 20
3.65072997388549
 30
0.0
 40
0.153205001069999
100
AcDbArc
 50
0.0000000000106292
 51
23.01579180045814
  0
ARC
  5
240
330
2
100
AcDbEntity
  8
0
100
AcDbCircle
 10
10.87281799741976
 20
5.558285474150214
 30
0.0
 40
0.0734255263791788
100
AcDbArc
 50
269.9999999999917
 51
302.6079210151868
  0
ARC
  5
241
330
2
100
AcDbEntity
  8
0
100
AcDbCircle
 10
10.84294740245224
 20
5.604978598454661
 30
0.0
 40
0.1288556653021863
100
AcDbArc
 50
302.6079210151953
 51
327.0773280975511
  0
ARC
  5
242
330
2
100
AcDbEntity
  8
0
100
AcDbCircle
 10
10.79548401215729
 20
5.635710690997836
 30
0.0
 40
0.1853997625217313
100
AcDbArc
 50
327.0773280975416
 51
344.9866289979941
  0
ARC
  5
243
330
2
100
AcDbEntity
  8
0
100
AcDbCircle
 10
10.72035609634027
 20
5.655859947771013
 30
0.0
 40
0.2631827702002704
100
AcDbArc
 50
344.986628998006
 51
0.0000000000030938
  0
ARC
  5
244
330
2
100
AcDbEntity
  8
0
100
AcDbCircle
 10
10.72035609634028
 20
5.655859947771042
 30
0.0
 40
0.2631827702002632
100
AcDbArc
 50
359.9999999999969
 51
15.01337100199443
  0
ARC
  5
245
330
2
100
AcDbEntity
  8
0
100
AcDbCircle
 10
10.79548401215729
 20
5.676009204544222
 30
0.0
 40
0.1853997625217234
100
AcDbArc
 50
15.01337100200542
 51
32.92267190245869
  0
ARC
  5
246
330
2
100
AcDbEntity
  8
0
100
AcDbCircle
 10
10.84294740245224
 20
5.70674129708739
 30
0.0
 40
0.1288556653021905
100
AcDbArc
 50
32.92267190244941
 51
57.39207898480424
  0
ARC
  5
247
330
2
100
AcDbEntity
  8
0
100
AcDbCircle
 10
10.87281799741973
 20
5.753434421391845
 30
0.0
 40
0.0734255263791889
100
AcDbArc
 50
57.3920789847954
 51
89.99999999998892
  0
ARC
  5
248
330
2
100
AcDbEntity
  8
0
100
AcDbCircle
 10
10.87281799741975
 20
5.581139556591552
 30
0.0
 40
0.0502796088205244
100
AcDbArc
 50
270.0
 51
303.5108229556709
  0
ARC
  5
249
330
2
100
AcDbEntity
  8
0
100
AcDbCircle
 10
10.84917090947654
 20
5.61685175049686
 30
0.0
 40
0.0931112041880084
100
AcDbArc
 50
303.5108229556701
 51
327.9718933333913
  0
ARC
  5
24A
330
2
100
AcDbEntity
  8
0
100
AcDbCircle
 10
10.81151847728253
 20
5.640405291864344
 30
0.0
 40
0.1375237582811305
100
AcDbArc
 50
327.9718933333911
 51
345.4734521832016
  0
ARC
  5
24B
330
2
100
AcDbEntity
  8
0
100
AcDbCircle
 10
10.75187377896704
 20
5.655859947771035
 30
0.0
 40
0.1991381756389258
100
AcDbArc
 50
345.4734521832008
 51
359.999999999998
  0
ARC
  5
24C
330
2
100
AcDbEntity
  8
0
100
AcDbCircle
 10
10.75187377896704
 20
5.65585994777102
 30
0.0
 40
0.1991381756389252
100
AcDbArc
 50
0.0000000000020444
 51
14.5265478167992
  0
ARC
  5
24D
330
2
100
AcDbEntity
  8
0
100
AcDbCircle
 10
10.81151847728254
 20
5.671314603677715
 30
0.0
 40
0.1375237582811191
100
AcDbArc
 50
14.52654781679805
 51
32.02810666661003
  0
ARC
  5
24E
330
2
100
AcDbEntity
  8
0
100
AcDbCircle
 10
10.84917090947654
 20
5.694868145045192
 30
0.0
 40
0.093111204188011
100
AcDbArc
 50
32.02810666661055
 51
56.48917704433114
  0
ARC
  5
24F
330
2
100
AcDbEntity
  8
0
100
AcDbCircle
 10
10.87281799741975
 20
5.730580338950503
 30
0.0
 40
0.050279608820524
100
AcDbArc
 50
56.48917704432905
 51
90.0
  0
ARC
  5
250
330
2
100
AcDbEntity
  8
0
100
AcDbCircle
 10
11.03243730682525
 20
5.655859947771056
 30
0.0
 40
0.153205001069999
100
AcDbArc
 50
336.9842081995419
 51
359.9999999999894
  0
ARC
  5
251
330
2
100
AcDbEntity
  8
0
100
AcDbCircle
 10
11.03243730682525
 20
5.655859947770999
 30
0.0
 40
0.153205001069999
100
AcDbArc
 50
0.0000000000106292
 51
23.01579180045814
  0
ARC
  5
252
330
2
100
AcDbEntity
  8
0
100
AcDbCircle
 10
10.87281799741975
 20
5.888269046182259
 30
0.0
 40
0.4494090984112305
100
AcDbArc
 50
270.0
 51
284.3044795065292
  0
ARC
  5
253
330
2
100
AcDbEntity
  8
0
100
AcDbCircle
 10
10.90566816853593
 20
5.773940657261342
 30
0.0
 40
0.330454845626311
100
AcDbArc
 50
295.331079257858
 51
304.7482755454237
  0
ARC
  5
254
330
2
100
AcDbEntity
  8
0
100
AcDbCircle
 10
10.9558583752334
 20
5.701587123607865
 30
0.0
 40
0.2423975308791505
100
AcDbArc
 50
304.7482755454466
 51
309.563607829634
  0
ARC
  5
255
330
2
100
AcDbEntity
  8
0
100
AcDbCircle
 10
10.87281799741969
 20
5.423450849359803
 30
0.0
 40
0.4494090984112377
100
AcDbArc
 50
75.69552049346355
 51
89.99999999999277
  0
ARC
  5
256
330
2
100
AcDbEntity
  8
0
100
AcDbCircle
 10
10.95585837523339
 20
5.610132771934246
 30
0.0
 40
0.242397530879118
100
AcDbArc
 50
50.43639217035425
 51
55.25172445454089
  0
ARC
  5
257
330
2
100
AcDbEntity
  8
0
100
AcDbCircle
 10
10.90566816853584
 20
5.537779238280681
 30
0.0
 40
0.3304548456263878
100
AcDbArc
 50
55.25172445456686
 51
64.66892074213267
  0
ENDSEC
  0
SECTION
  2
OBJECTS
  0
DICTIONARY
  5
9
330
0
100
AcDbDictionary
281
     1
  3
ACAD_COLOR
350
A23
  3
ACAD_GROUP
350
24
  3
ACAD_LAYOUT
350
D
  3
ACAD_MATERIAL
350
A22
  3
ACAD_MLINESTYLE
350
25
  3
ACAD_PLOTSETTINGS
350
26
  3
ACAD_PLOTSTYLENAME
350
8
  3
ACAD_TABLESTYLE
350
A24
  3
ACDBHEADERROUNDTRIPXREC
350
A39
  3
AcDbVariableDictionary
350
162
  0
DICTIONARY
  5
A23
102
{ACAD_REACTORS
330
9
102
}
330
9
100
AcDbDictionary
281
     1
  0
DICTIONARY
  5
24
102
{ACAD_REACTORS
330
9
102
}
330
9
100
AcDbDictionary
281
     1
  0
DICTIONARY
  5
D
102
{ACAD_REACTORS
330
9
102
}
330
9
100
AcDbDictionary
281
     1
  3
Layout1
350
13
  3
Model
350
C
  0
DICTIONARY
  5
A22
102
{ACAD_REACTORS
330
9
102
}
330
9
100
AcDbDictionary
281
     1
  0
DICTIONARY
  5
25
102
{ACAD_REACTORS
330
9
102
}
330
9
100
AcDbDictionary
281
     1
  3
STANDARD
350
28
  0
DICTIONARY
  5
26
102
{ACAD_REACTORS
330
9
102
}
330
9
100
AcDbDictionary
281
     1
  0
ACDBDICTIONARYWDFLT
  5
8
102
{ACAD_REACTORS
330
9
102
}
330
9
100
AcDbDictionary
281
     1
  3
Normal
350
7
100
AcDbDictionaryWithDefault
340
7
  0
DICTIONARY
  5
A24
102
{ACAD_REACTORS
330
9
102
}
330
9
100
AcDbDictionary
281
     1
  3
Standard
350
A25
  0
DICTIONARY
  5
A39
102
{ACAD_REACTORS
330
9
102
}
330
9
100
AcDbDictionary
281
     1
  3
COLORDICT
350
A3A
  3
MATERIALDICT
350
A3B
  0
DICTIONARY
  5
162
102
{ACAD_REACTORS
330
9
102
}
330
9
100
AcDbDictionary
281
     1
  3
CTABLESTYLE
350
A36
  3
HIDETEXT
350
A38
  0
LAYOUT
  5
13
102
{ACAD_REACTORS
330
D
102
}
102
{ACAD_XDICTIONARY
360
A3C
102
}
330
D
100
AcDbPlotSettings
  1

  2
HP LaserJet 2100 Series PS
  4

  6

 40
0.0
 41
0.0
 42
0.0
 43
0.0
 44
0.0
 45
0.0
 46
0.0
 47
0.0
 48
0.0
 49
0.0
140
0.0
141
0.0
142
1.0
143
1.0
 70
   688
 72
     0
 73
     0
 74
     5
  7

 75
    16
147
1.0
148
0.0
149
0.0
100
AcDbLayout
  1
Layout1
 70
     0
 71
     1
 10
0.0
 20
0.0
 11
12.0
 21
9.0
 12
0.0
 22
0.0
 32
0.0
 14
1.000000000000000E+20
 24
1.000000000000000E+20
 34
1.000000000000000E+20
 15
-1.000000000000000E+20
 25
-1.000000000000000E+20
 35
-1.000000000000000E+20
146
0.0
 13
0.0
 23
0.0
 33
0.0
 16
1.0
 26
0.0
 36
0.0
 17
0.0
 27
1.0
 37
0.0
 76
     0
330
E
  0
LAYOUT
  5
C
102
{ACAD_REACTORS
330
D
102
}
102
{ACAD_XDICTIONARY
360
A3E
102
}
330
D
100
AcDbPlotSettings
  1

  2
HP LaserJet 2100 Series PS
  4
Letter
  6

 40
5.365749835968018
 41
5.408084392547607
 42
5.4080810546875
 43
5.365753173828125
 44
215.8999938964844
 45
279.3999938964844
 46
0.0
 47
0.0
 48
0.0
 49
0.0
140
0.0
141
0.0
142
1.0
143
1.0
 70
 11952
 72
     0
 73
     1
 74
     0
  7

 75
     0
147
1.0
148
-330.2747623901824
149
15.54955142407976
100
AcDbLayout
  1
Model
 70
     1
 71
     0
 10
0.0
 20
0.0
 11
12.0
 21
9.0
 12
0.0
 22
0.0
 32
0.0
 14
0.0
 24
0.0
 34
0.0
 15
0.0
 25
0.0
 35
0.0
146
0.0
 13
0.0
 23
0.0
 33
0.0
 16
1.0
 26
0.0
 36
0.0
 17
0.0
 27
1.0
 37
0.0
 76
     0
330
2
  0
MLINESTYLE
  5
28
102
{ACAD_REACTORS
330
25
102
}
330
25
100
AcDbMlineStyle
  2
STANDARD
 70
     0
  3

 62
   256
 51
90.0
 52
90.0
 71
     2
 49
0.5
 62
   256
  6
BYLAYER
 49
-0.5
 62
   256
  6
BYLAYER
  0
ACDBPLACEHOLDER
  5
7
102
{ACAD_REACTORS
330
8
102
}
330
8
  0
ACAD_PROXY_OBJECT
  5
A25
102
{ACAD_REACTORS
330
A24
102
}
330
A24
100
AcDbProxyObject
 90
      499
 91
      557
 95
   983063
 70
     0
 93
     1841
310
4214DD185B99185C9928B81E85EB51B8AE3F2E07A17AD46E2B8FC02B5E8DC0F42B1CFD028000000C1008070000C3001FDFF8000000C1003FBFF000000182007F7FE00000030400FEFFC00000060801FDFF8000000C1003FBFF00000018200000000000000681FA0B0000001820100E000186003FBFF000000182007F7FE000
310
00030400FEFFC00000060801FDFF8000000C1003FBFF000000182007F7FE000000304000AD7A3703D0AC73F4160000003040201C00030C007F7FE00000030400FEFFC00000060801FDFF8000000C1003FBFF000000182007F7FE00000030400FEFFC000000608000
340
16
340
16
340
16
 94
        0
  0
XRECORD
  5
A3A
102
{ACAD_REACTORS
330
A39
102
}
330
A39
100
AcDbXrecord
340
A23
  0
XRECORD
  5
A3B
102
{ACAD_REACTORS
330
A39
102
}
330
A39
100
AcDbXrecord
340
A22
  0
DICTIONARYVAR
  5
A36
102
{ACAD_REACTORS
330
162
102
}
330
162
100
DictionaryVariables
280
     0
  1
STANDARD
  0
DICTIONARYVAR
  5
A38
102
{ACAD_REACTORS
330
162
102
}
330
162
100
DictionaryVariables
280
     0
  1
0
  0
DICTIONARY
  5
A3C
330
13
100
AcDbDictionary
280
     1
281
     1
  3
ACAD_XREC_ROUNDTRIP
360
A3D
  0
DICTIONARY
  5
A3E
330
C
100
AcDbDictionary
280
     1
281
     1
  3
ACAD_XREC_ROUNDTRIP
360
A3F
  0
XRECORD
  5
A3D
102
{ACAD_REACTORS
330
A3C
102
}
330
A3C
100
AcDbXrecord
102
SHADEPLOT
 70
     0
102
SHADEPLOTRESLEVEL
 70
     2
102
SHADEPLOTCUSTOMDPI
 70
   300
  0
XRECORD
  5
A3F
102
{ACAD_REACTORS
330
A3E
102
}
330
A3E
100
AcDbXrecord
102
SHADEPLOT
 70
     0
102
SHADEPLOTRESLEVEL
 70
     2
102
SHADEPLOTCUSTOMDPI
 70
   300
  0
ENDSEC
  0
EOF
