  0
SECTION
  2
HEADER
  9
$ACADVER
  1
AC1015
  9
$ACADMAINTVER
 70
     6
  9
$DWGCODEPAGE
  3
ANSI_1252
  9
$INSBASE
 10
0.0
 20
0.0
 30
0.0
  9
$EXTMIN
 10
-10.94995627781634
 20
-0.0625
 30
0.0
  9
$EXTMAX
 10
10.44496209476438
 20
16.77238430949455
 30
0.0
  9
$LIMMIN
 10
0.0
 20
0.0
  9
$LIMMAX
 10
42.0
 20
32.0
  9
$ORTHOMODE
 70
     1
  9
$REGENMODE
 70
     1
  9
$FILLMODE
 70
     1
  9
$QTEXTMODE
 70
     0
  9
$MIRRTEXT
 70
     1
  9
$LTSCALE
 40
1.0
  9
$ATTMODE
 70
     1
  9
$TEXTSIZE
 40
0.27
  9
$TRACEWID
 40
0.05
  9
$TEXTSTYLE
  7
STANDARD
  9
$CLAYER
  8
0
  9
$CELTYPE
  6
BYLAYER
  9
$CECOLOR
 62
   256
  9
$CELTSCALE
 40
1.0
  9
$DISPSILH
 70
     0
  9
$DIMSCALE
 40
1.0
  9
$DIMASZ
 40
0.375
  9
$DIMEXO
 40
0.0625
  9
$DIMDLI
 40
1.25
  9
$DIMRND
 40
0.0
  9
$DIMDLE
 40
0.0
  9
$DIMEXE
 40
0.18
  9
$DIMTP
 40
0.0
  9
$DIMTM
 40
0.0
  9
$DIMTXT
 40
0.27
  9
$DIMCEN
 40
-0.06
  9
$DIMTSZ
 40
0.0
  9
$DIMTOL
 70
     0
  9
$DIMLIM
 70
     0
  9
$DIMTIH
 70
     1
  9
$DIMTOH
 70
     1
  9
$DIMSE1
 70
     0
  9
$DIMSE2
 70
     0
  9
$DIMTAD
 70
     0
  9
$DIMZIN
 70
     0
  9
$DIMBLK
  1

  9
$DIMASO
 70
     0
  9
$DIMSHO
 70
     0
  9
$DIMPOST
  1

  9
$DIMAPOST
  1

  9
$DIMALT
 70
     0
  9
$DIMALTD
 70
     2
  9
$DIMALTF
 40
25.4
  9
$DIMLFAC
 40
1.0
  9
$DIMTOFL
 70
     0
  9
$DIMTVP
 40
0.0
  9
$DIMTIX
 70
     0
  9
$DIMSOXD
 70
     0
  9
$DIMSAH
 70
     0
  9
$DIMBLK1
  1

  9
$DIMBLK2
  1

  9
$DIMSTYLE
  2
STANDARD
  9
$DIMCLRD
 70
     0
  9
$DIMCLRE
 70
     0
  9
$DIMCLRT
 70
     0
  9
$DIMTFAC
 40
1.0
  9
$DIMGAP
 40
0.09
  9
$DIMJUST
 70
     0
  9
$DIMSD1
 70
     0
  9
$DIMSD2
 70
     0
  9
$DIMTOLJ
 70
     1
  9
$DIMTZIN
 70
     0
  9
$DIMALTZ
 70
     0
  9
$DIMALTTZ
 70
     0
  9
$DIMUPT
 70
     0
  9
$DIMDEC
 70
     5
  9
$DIMTDEC
 70
     4
  9
$DIMALTU
 70
     2
  9
$DIMALTTD
 70
     2
  9
$DIMTXSTY
  7
STANDARD
  9
$DIMAUNIT
 70
     0
  9
$DIMADEC
 70
     0
  9
$DIMALTRND
 40
0.0
  9
$DIMAZIN
 70
     0
  9
$DIMDSEP
 70
    46
  9
$DIMATFIT
 70
     3
  9
$DIMFRAC
 70
     2
  9
$DIMLDRBLK
  1

  9
$DIMLUNIT
 70
     5
  9
$DIMLWD
 70
    -2
  9
$DIMLWE
 70
    -2
  9
$DIMTMOVE
 70
     2
  9
$LUNITS
 70
     2
  9
$LUPREC
 70
     4
  9
$SKETCHINC
 40
0.1
  9
$FILLETRAD
 40
0.0
  9
$AUNITS
 70
     0
  9
$AUPREC
 70
     0
  9
$MENU
  1
ACAD
  9
$ELEVATION
 40
0.0
  9
$PELEVATION
 40
0.0
  9
$THICKNESS
 40
0.0
  9
$LIMCHECK
 70
     0
  9
$CHAMFERA
 40
0.0
  9
$CHAMFERB
 40
0.0
  9
$CHAMFERC
 40
0.0
  9
$CHAMFERD
 40
0.0
  9
$SKPOLY
 70
     0
  9
$TDCREATE
 40
2448910.946593518
  9
$TDUCREATE
 40
2448911.279926852
  9
$TDUPDATE
 40
2454175.703528275
  9
$TDUUPDATE
 40
2454176.036861609
  9
$TDINDWG
 40
0.1972263194
  9
$TDUSRTIMER
 40
0.1972263194
  9
$USRTIMER
 70
     1
  9
$ANGBASE
 50
0.0
  9
$ANGDIR
 70
     0
  9
$PDMODE
 70
     0
  9
$PDSIZE
 40
0.0
  9
$PLINEWID
 40
0.0
  9
$SPLFRAME
 70
     0
  9
$SPLINETYPE
 70
     6
  9
$SPLINESEGS
 70
     8
  9
$HANDSEED
  5
6BC
  9
$SURFTAB1
 70
     6
  9
$SURFTAB2
 70
     6
  9
$SURFTYPE
 70
     6
  9
$SURFU
 70
     6
  9
$SURFV
 70
     6
  9
$UCSBASE
  2

  9
$UCSNAME
  2

  9
$UCSORG
 10
0.0
 20
0.0
 30
0.0
  9
$UCSXDIR
 10
1.0
 20
0.0
 30
0.0
  9
$UCSYDIR
 10
0.0
 20
1.0
 30
0.0
  9
$UCSORTHOREF
  2

  9
$UCSORTHOVIEW
 70
     0
  9
$UCSORGTOP
 10
0.0
 20
0.0
 30
0.0
  9
$UCSORGBOTTOM
 10
0.0
 20
0.0
 30
0.0
  9
$UCSORGLEFT
 10
0.0
 20
0.0
 30
0.0
  9
$UCSORGRIGHT
 10
0.0
 20
0.0
 30
0.0
  9
$UCSORGFRONT
 10
0.0
 20
0.0
 30
0.0
  9
$UCSORGBACK
 10
0.0
 20
0.0
 30
0.0
  9
$PUCSBASE
  2

  9
$PUCSNAME
  2

  9
$PUCSORG
 10
0.0
 20
0.0
 30
0.0
  9
$PUCSXDIR
 10
1.0
 20
0.0
 30
0.0
  9
$PUCSYDIR
 10
0.0
 20
1.0
 30
0.0
  9
$PUCSORTHOREF
  2

  9
$PUCSORTHOVIEW
 70
     0
  9
$PUCSORGTOP
 10
0.0
 20
0.0
 30
0.0
  9
$PUCSORGBOTTOM
 10
0.0
 20
0.0
 30
0.0
  9
$PUCSORGLEFT
 10
0.0
 20
0.0
 30
0.0
  9
$PUCSORGRIGHT
 10
0.0
 20
0.0
 30
0.0
  9
$PUCSORGFRONT
 10
0.0
 20
0.0
 30
0.0
  9
$PUCSORGBACK
 10
0.0
 20
0.0
 30
0.0
  9
$USERI1
 70
     0
  9
$USERI2
 70
     0
  9
$USERI3
 70
     0
  9
$USERI4
 70
     0
  9
$USERI5
 70
     0
  9
$USERR1
 40
0.0
  9
$USERR2
 40
0.0
  9
$USERR3
 40
0.0
  9
$USERR4
 40
0.0
  9
$USERR5
 40
0.0
  9
$WORLDVIEW
 70
     1
  9
$SHADEDGE
 70
     3
  9
$SHADEDIF
 70
    70
  9
$TILEMODE
 70
     1
  9
$MAXACTVP
 70
    16
  9
$PINSBASE
 10
0.0
 20
0.0
 30
0.0
  9
$PLIMCHECK
 70
     0
  9
$PEXTMIN
 10
1.000000000000000E+20
 20
1.000000000000000E+20
 30
1.000000000000000E+20
  9
$PEXTMAX
 10
-1.000000000000000E+20
 20
-1.000000000000000E+20
 30
-1.000000000000000E+20
  9
$PLIMMIN
 10
0.0
 20
0.0
  9
$PLIMMAX
 10
12.0
 20
9.0
  9
$UNITMODE
 70
     0
  9
$VISRETAIN
 70
     0
  9
$PLINEGEN
 70
     0
  9
$PSLTSCALE
 70
     0
  9
$TREEDEPTH
 70
  3020
  9
$CMLSTYLE
  2
STANDARD
  9
$CMLJUST
 70
     0
  9
$CMLSCALE
 40
1.0
  9
$PROXYGRAPHICS
 70
     1
  9
$MEASUREMENT
 70
     0
  9
$CELWEIGHT
370
    -1
  9
$ENDCAPS
280
     0
  9
$JOINSTYLE
280
     0
  9
$LWDISPLAY
290
     0
  9
$INSUNITS
 70
     0
  9
$HYPERLINKBASE
  1

  9
$STYLESHEET
  1

  9
$XEDIT
290
     1
  9
$CEPSNTYPE
380
     0
  9
$PSTYLEMODE
290
     1
  9
$FINGERPRINTGUID
  2
{6022159C-CB90-474D-91E2-3245512ECFC0}
  9
$VERSIONGUID
  2
{FF609401-D44C-4946-A56F-522A5560C277}
  9
$EXTNAMES
290
     1
  9
$PSVPSCALE
 40
0.0
  9
$OLESTARTUP
290
     0
  0
ENDSEC
  0
SECTION
  2
CLASSES
  0
CLASS
  1
DICTIONARYVAR
  2
AcDbDictionaryVar
  3
AutoCAD 2000
 90
        0
280
     0
281
     0
  0
CLASS
  1
LWPOLYLINE
  2
AcDbPolyline
  3
AutoCAD 2000
 90
        0
280
     0
281
     1
  0
CLASS
  1
ACDBDICTIONARYWDFLT
  2
AcDbDictionaryWithDefault
  3
AutoCAD 2000
 90
        0
280
     0
281
     0
  0
CLASS
  1
ACDBPLACEHOLDER
  2
AcDbPlaceHolder
  3
ObjectDBX Classes
 90
        0
280
     0
281
     0
  0
CLASS
  1
LAYOUT
  2
AcDbLayout
  3
ObjectDBX Classes
 90
        0
280
     0
281
     0
  0
CLASS
  1
LONG_TRANSACTION
  2
AcDbLongTransaction
  3
ObjectDBX Classes
 90
   -65536
280
     1
281
     0
  0
CLASS
  1
LWPOLYLINE
  2
AcDbPolyline
  3
AutoCAD 2000
 90
        0
280
     0
281
     1
  0
CLASS
  1
HATCH
  2
AcDbHatch
  3
AutoCAD 2000
 90
        0
280
     0
281
     1
  0
CLASS
  1
XRECORD
  2
AcDbXrecord
  3
AutoCAD 2000
 90
        0
280
     0
281
     0
  0
CLASS
  1
LONG_TRANSACTION
  2
AcDbLongTransaction
  3
ObjectDBX Classes
 90
   -65536
280
     1
281
     0
  0
CLASS
  1
LWPOLYLINE
  2
AcDbPolyline
  3
AutoCAD 2000
 90
        0
280
     0
281
     1
  0
CLASS
  1
HATCH
  2
AcDbHatch
  3
AutoCAD 2000
 90
        0
280
     0
281
     1
  0
CLASS
  1
XRECORD
  2
AcDbXrecord
  3
AutoCAD 2000
 90
        0
280
     0
281
     0
  0
CLASS
  1
LONG_TRANSACTION
  2
AcDbLongTransaction
  3
ObjectDBX Classes
 90
   -65536
280
     1
281
     0
  0
CLASS
  1
LWPOLYLINE
  2
AcDbPolyline
  3
AutoCAD 2000
 90
        0
280
     0
281
     1
  0
CLASS
  1
HATCH
  2
AcDbHatch
  3
AutoCAD 2000
 90
        0
280
     0
281
     1
  0
CLASS
  1
XRECORD
  2
AcDbXrecord
  3
AutoCAD 2000
 90
        0
280
     0
281
     0
  0
CLASS
  1
LONG_TRANSACTION
  2
AcDbLongTransaction
  3
ObjectDBX Classes
 90
   -65536
280
     1
281
     0
  0
CLASS
  1
LWPOLYLINE
  2
AcDbPolyline
  3
AutoCAD 2000
 90
        0
280
     0
281
     1
  0
CLASS
  1
HATCH
  2
AcDbHatch
  3
AutoCAD 2000
 90
        0
280
     0
281
     1
  0
CLASS
  1
XRECORD
  2
AcDbXrecord
  3
AutoCAD 2000
 90
        0
280
     0
281
     0
  0
CLASS
  1
LONG_TRANSACTION
  2
AcDbLongTransaction
  3
ObjectDBX Classes
 90
   -65536
280
     1
281
     0
  0
CLASS
  1
LWPOLYLINE
  2
AcDbPolyline
  3
AutoCAD 2000
 90
        0
280
     0
281
     1
  0
CLASS
  1
HATCH
  2
AcDbHatch
  3
AutoCAD 2000
 90
        0
280
     0
281
     1
  0
CLASS
  1
XRECORD
  2
AcDbXrecord
  3
AutoCAD 2000
 90
        0
280
     0
281
     0
  0
CLASS
  1
LONG_TRANSACTION
  2
AcDbLongTransaction
  3
ObjectDBX Classes
 90
   -65536
280
     1
281
     0
  0
CLASS
  1
LWPOLYLINE
  2
AcDbPolyline
  3
AutoCAD 2000
 90
        0
280
     0
281
     1
  0
CLASS
  1
HATCH
  2
AcDbHatch
  3
AutoCAD 2000
 90
        0
280
     0
281
     1
  0
CLASS
  1
XRECORD
  2
AcDbXrecord
  3
AutoCAD 2000
 90
        0
280
     0
281
     0
  0
CLASS
  1
LONG_TRANSACTION
  2
AcDbLongTransaction
  3
ObjectDBX Classes
 90
   -65536
280
     1
281
     0
  0
CLASS
  1
LWPOLYLINE
  2
AcDbPolyline
  3
AutoCAD 2000
 90
        0
280
     0
281
     1
  0
CLASS
  1
HATCH
  2
AcDbHatch
  3
AutoCAD 2000
 90
        0
280
     0
281
     1
  0
CLASS
  1
XRECORD
  2
AcDbXrecord
  3
AutoCAD 2000
 90
        0
280
     0
281
     0
  0
CLASS
  1
LONG_TRANSACTION
  2
AcDbLongTransaction
  3
ObjectDBX Classes
 90
   -65536
280
     1
281
     0
  0
CLASS
  1
LWPOLYLINE
  2
AcDbPolyline
  3
AutoCAD 2000
 90
        0
280
     0
281
     1
  0
CLASS
  1
HATCH
  2
AcDbHatch
  3
AutoCAD 2000
 90
        0
280
     0
281
     1
  0
CLASS
  1
XRECORD
  2
AcDbXrecord
  3
AutoCAD 2000
 90
        0
280
     0
281
     0
  0
CLASS
  1
LONG_TRANSACTION
  2
AcDbLongTransaction
  3
ObjectDBX Classes
 90
   -65536
280
     1
281
     0
  0
CLASS
  1
LWPOLYLINE
  2
AcDbPolyline
  3
AutoCAD 2000
 90
        0
280
     0
281
     1
  0
CLASS
  1
HATCH
  2
AcDbHatch
  3
AutoCAD 2000
 90
        0
280
     0
281
     1
  0
CLASS
  1
XRECORD
  2
AcDbXrecord
  3
AutoCAD 2000
 90
        0
280
     0
281
     0
  0
CLASS
  1
LONG_TRANSACTION
  2
AcDbLongTransaction
  3
ObjectDBX Classes
 90
   -65536
280
     1
281
     0
  0
CLASS
  1
LWPOLYLINE
  2
AcDbPolyline
  3
AutoCAD 2000
 90
        0
280
     0
281
     1
  0
CLASS
  1
HATCH
  2
AcDbHatch
  3
AutoCAD 2000
 90
        0
280
     0
281
     1
  0
CLASS
  1
XRECORD
  2
AcDbXrecord
  3
AutoCAD 2000
 90
        0
280
     0
281
     0
  0
CLASS
  1
LONG_TRANSACTION
  2
AcDbLongTransaction
  3
ObjectDBX Classes
 90
   -65536
280
     1
281
     0
  0
CLASS
  1
LWPOLYLINE
  2
AcDbPolyline
  3
AutoCAD 2000
 90
        0
280
     0
281
     1
  0
CLASS
  1
HATCH
  2
AcDbHatch
  3
AutoCAD 2000
 90
        0
280
     0
281
     1
  0
CLASS
  1
XRECORD
  2
AcDbXrecord
  3
AutoCAD 2000
 90
        0
280
     0
281
     0
  0
CLASS
  1
TABLESTYLE
  2
AcDbTableStyle
  3
ObjectDBX Classes
 90
     2047
280
     1
281
     0
  0
ENDSEC
  0
SECTION
  2
TABLES
  0
TABLE
  2
VPORT
  5
1D
330
0
100
AcDbSymbolTable
 70
     3
  0
VPORT
  5
6AE
330
1D
100
AcDbSymbolTableRecord
100
AcDbViewportTableRecord
  2
*Active
 70
     0
 10
0.0
 20
0.0
 11
1.0
 21
1.0
 12
3.418056669528788
 22
8.68821354838432
 13
0.0
 23
0.0
 14
0.0625
 24
0.0625
 15
0.5
 25
0.5
 16
0.0
 26
0.0
 36
1.0
 17
0.0
 27
0.0
 37
0.0
 40
22.77285994696381
 41
1.814583333333333
 42
50.0
 43
0.0
 44
0.0
 50
0.0
 51
0.0
 71
     0
 72
   100
 73
     1
 74
     1
 75
     0
 76
     0
 77
     0
 78
     0
281
     0
 65
     1
110
0.0
120
0.0
130
0.0
111
1.0
121
0.0
131
0.0
112
0.0
122
1.0
132
0.0
 79
     0
146
0.0
  0
ENDTAB
  0
TABLE
  2
LTYPE
  5
18
330
0
100
AcDbSymbolTable
 70
     2
  0
LTYPE
  5
19
330
18
100
AcDbSymbolTableRecord
100
AcDbLinetypeTableRecord
  2
BYBLOCK
 70
     0
  3

 72
    65
 73
     0
 40
0.0
  0
LTYPE
  5
1A
330
18
100
AcDbSymbolTableRecord
100
AcDbLinetypeTableRecord
  2
BYLAYER
 70
     0
  3

 72
    65
 73
     0
 40
0.0
  0
LTYPE
  5
A
330
18
100
AcDbSymbolTableRecord
100
AcDbLinetypeTableRecord
  2
CONTINUOUS
 70
     0
  3
Solid line
 72
    65
 73
     0
 40
0.0
  0
LTYPE
  5
39
330
18
100
AcDbSymbolTableRecord
100
AcDbLinetypeTableRecord
  2
HIDDEN
 70
     0
  3
_ _ _ _ _ _ _ _ _ _ _ _ _ _ _ _ _ _ _ _ _ _ _
 72
    65
 73
     2
 40
0.375
 49
0.25
 74
     0
 49
-0.125
 74
     0
  0
ENDTAB
  0
TABLE
  2
LAYER
  5
14
330
0
100
AcDbSymbolTable
 70
     1
  0
LAYER
  5
6
330
14
100
AcDbSymbolTableRecord
100
AcDbLayerTableRecord
  2
0
 70
     0
 62
     7
  6
CONTINUOUS
370
    -3
390
7
  0
ENDTAB
  0
TABLE
  2
STYLE
  5
15
330
0
100
AcDbSymbolTable
 70
     1
  0
STYLE
  5
16
330
15
100
AcDbSymbolTableRecord
100
AcDbTextStyleTableRecord
  2
STANDARD
 70
     0
 40
0.0
 41
1.0
 50
0.0
 71
     0
 42
0.27
  3
txt
  4

  0
ENDTAB
  0
TABLE
  2
VIEW
  5
1B
330
0
100
AcDbSymbolTable
 70
     0
  0
ENDTAB
  0
TABLE
  2
UCS
  5
1C
330
0
100
AcDbSymbolTable
 70
     0
  0
ENDTAB
  0
TABLE
  2
APPID
  5
1F
330
0
100
AcDbSymbolTable
 70
     1
  0
APPID
  5
20
330
1F
100
AcDbSymbolTableRecord
100
AcDbRegAppTableRecord
  2
ACAD
 70
     0
  0
ENDTAB
  0
TABLE
  2
DIMSTYLE
  5
21
330
0
100
AcDbSymbolTable
 70
     1
100
AcDbDimStyleTable
  0
DIMSTYLE
105
22
330
21
100
AcDbSymbolTableRecord
100
AcDbDimStyleTableRecord
  2
STANDARD
 70
     0
  3

  4

340
16
  0
ENDTAB
  0
TABLE
  2
BLOCK_RECORD
  5
1
330
0
100
AcDbSymbolTable
 70
     0
  0
BLOCK_RECORD
  5
2
330
1
100
AcDbSymbolTableRecord
100
AcDbBlockTableRecord
  2
*MODEL_SPACE
340
C
  0
BLOCK_RECORD
  5
E
330
1
100
AcDbSymbolTableRecord
100
AcDbBlockTableRecord
  2
*PAPER_SPACE
340
13
  0
ENDTAB
  0
ENDSEC
  0
SECTION
  2
BLOCKS
  0
BLOCK
  5
5
330
2
100
AcDbEntity
  8
0
100
AcDbBlockBegin
  2
*MODEL_SPACE
 70
     0
 10
0.0
 20
0.0
 30
0.0
  3
*MODEL_SPACE
  1

  4

  0
ENDBLK
  5
B
330
2
100
AcDbEntity
  8
0
100
AcDbBlockEnd
  0
BLOCK
  5
11
330
E
100
AcDbEntity
 67
     1
  8
0
100
AcDbBlockBegin
  2
*PAPER_SPACE
 70
     0
 10
0.0
 20
0.0
 30
0.0
  3
*PAPER_SPACE
  1

  4

  0
ENDBLK
  5
12
330
E
100
AcDbEntity
 67
     1
  8
0
100
AcDbBlockEnd
  0
ENDSEC
  0
SECTION
  2
ENTITIES
  0
LINE
  5
2D
330
2
100
AcDbEntity
  8
0
100
AcDbLine
 10
0.2860786433836466
 20
9.0625
 30
0.0
 11
0.2860786433836466
 21
8.875
 31
0.0
  0
LINE
  5
2E
330
2
100
AcDbEntity
  8
0
100
AcDbLine
 10
0.2860786433836466
 20
8.4375
 30
0.0
 11
0.2860786433836466
 21
9.0625
 31
0.0
  0
LINE
  5
2F
330
2
100
AcDbEntity
  8
0
100
AcDbLine
 10
-0.6514213566163534
 20
0.752600152718518
 30
0.0
 11
-0.6514213566163534
 21
10.75
 31
0.0
  0
LINE
  5
30
330
2
100
AcDbEntity
  8
0
100
AcDbLine
 10
-0.7139213566163463
 20
0.8418594031398854
 30
0.0
 11
-0.7139213566163534
 21
10.75
 31
0.0
  0
LINE
  5
32
330
2
100
AcDbEntity
  8
0
100
AcDbLine
 10
0.5980786433836514
 20
4.067700000000002
 30
0.0
 11
0.5980786433836514
 21
3.432300000000012
 31
0.0
  0
LWPOLYLINE
  5
34
330
2
100
AcDbEntity
  8
0
100
AcDbPolyline
 90
        9
 70
     0
 43
0.0
 10
0.3485786433836466
 20
1.259840749072848
 42
-0.1432467981947568
 10
0.3090105636103857
 20
1.271414234361072
 42
-0.1071754848060475
 10
0.2702871660094672
 20
1.309925489489939
 42
-0.0783035184710328
 10
0.2468414128763499
 20
1.362664712000989
 42
-0.0656020556757086
 10
0.2378577742628494
 20
1.43084074907284
 42
-0.0656020556757101
 10
0.2468414128763499
 20
1.499016786144691
 42
-0.0783035184710357
 10
0.2702871660094672
 20
1.551756008655741
 42
-0.1071754848060445
 10
0.3090105636103857
 20
1.590267263784608
 42
-0.1432467981947535
 10
0.3485786433836466
 20
1.601840749072847
 42
-0.1432467981947515
  0
LINE
  5
35
330
2
100
AcDbEntity
  8
0
100
AcDbLine
 10
0.3485786433836466
 20
1.213840749072841
 30
0.0
 11
0.3485786433836466
 21
1.647840749072839
 31
0.0
  0
LINE
  5
36
330
2
100
AcDbEntity
  8
0
100
AcDbLine
 10
1.495972648919768
 20
0.6220996975063784
 30
0.0
 11
0.3115314947274364
 21
2.343176240467251
 31
0.0
  0
LINE
  5
37
330
2
100
AcDbEntity
  8
0
100
AcDbLine
 10
1.518578643383641
 20
-0.0625
 30
0.0
 11
-0.4814213566163588
 21
-0.0625
 31
0.0
  0
LINE
  5
38
330
2
100
AcDbEntity
  8
0
  6
HIDDEN
100
AcDbLine
 10
1.518578643383641
 20
0.0
 30
0.0
 11
-0.4814213566163588
 21
0.0
 31
0.0
  0
LINE
  5
3A
330
2
100
AcDbEntity
  8
0
100
AcDbLine
 10
-0.4814213566163588
 20
-0.0625
 30
0.0
 11
-0.4814213566163588
 21
0.4704026429624904
 31
0.0
  0
LINE
  5
3B
330
2
100
AcDbEntity
  8
0
100
AcDbLine
 10
-0.5040273510802322
 20
0.542099697506373
 30
0.0
 11
-0.7139213566163498
 21
0.8418594031398925
 31
0.0
  0
ARC
  5
3C
330
2
100
AcDbEntity
  8
0
100
AcDbCircle
 10
-0.6064213566163517
 20
0.4704026429624939
 30
0.0
 40
0.125
100
AcDbArc
 50
0.000000000000007
 51
35.00000000000007
  0
LWPOLYLINE
  5
3D
330
2
100
AcDbEntity
  8
0
100
AcDbPolyline
 90
        9
 70
     0
 43
0.0
 10
0.3485786433836466
 20
1.30584074907284
 42
-0.147269582437036
 10
0.3208195482267229
 20
1.314198147798789
 42
-0.1071386913803464
 10
0.2932871660094634
 20
1.342452401424521
 42
-0.0765137470862007
 10
0.2767508302498385
 20
1.380891206183986
 42
-0.063469041210727
 10
0.2703846861974313
 20
1.43084074907284
 42
-0.0634690412107267
 10
0.2767508302498385
 20
1.480790291961694
 42
-0.0765137470862059
 10
0.2932871660094634
 20
1.519229096721159
 42
-0.1071386913803463
 10
0.3208195482267229
 20
1.547483350346892
 42
-0.1472695824370325
 10
0.3485786433836466
 20
1.55584074907284
 42
-0.1472695824370333
  0
LWPOLYLINE
  5
3E
330
2
100
AcDbEntity
  8
0
100
AcDbPolyline
 90
        2
 70
     0
 43
0.0
 10
0.3485786433836466
 20
1.213840749072841
 42
-0.0624962416743304
 10
0.2375409929986319
 20
1.227774041116175
 42
-0.0818514225363451
  0
LWPOLYLINE
  5
3F
330
2
100
AcDbEntity
  8
0
100
AcDbPolyline
 90
        3
 70
     0
 43
0.0
 10
0.1743439591209324
 20
1.25023964719824
 42
-0.0411134117556526
 10
0.1273784521264147
 20
1.277398577555357
 42
-0.0210139430678612
 10
0.1111469252432329
 20
1.289699315966343
 42
-0.135394011665182
  0
LWPOLYLINE
  5
40
330
2
100
AcDbEntity
  8
0
100
AcDbPolyline
 90
        3
 70
     0
 43
0.0
 10
0.0479498913655334
 20
1.370939918970604
 42
-0.1007643090488704
 10
0.0357543329081409
 20
1.43084074907284
 42
-0.1007643090488685
 10
0.0479498913655334
 20
1.490741579175077
 42
-0.1069100077216599
  0
LINE
  5
41
330
2
100
AcDbEntity
  8
0
100
AcDbLine
 10
1.518578643383641
 20
-0.0625
 30
0.0
 11
1.518578643383641
 21
0.5504026429625029
 31
0.0
  0
ARC
  5
42
330
2
100
AcDbEntity
  8
0
100
AcDbCircle
 10
1.393578643383648
 20
0.5504026429624993
 30
0.0
 40
0.125
100
AcDbArc
 50
0.000000000000007
 51
34.99999999999994
  0
LINE
  5
43
330
2
100
AcDbEntity
  8
0
100
AcDbLine
 10
0.2860786433836466
 20
2.4375
 30
0.0
 11
0.2860786433836466
 21
3.0625
 31
0.0
  0
ARC
  5
44
330
2
100
AcDbEntity
  8
0
100
AcDbCircle
 10
-0.6514213566163498
 20
2.500530000000001
 30
0.0
 40
0.156
100
AcDbArc
 50
270.0
 51
90.0
  0
LWPOLYLINE
  5
45
330
2
100
AcDbEntity
  8
0
100
AcDbPolyline
 90
        2
 70
     0
 43
0.0
 10
0.2375409929986319
 20
1.633907457029506
 42
-0.0624962416743307
 10
0.3485786433836466
 20
1.647840749072853
 42
-0.0700628980345371
  0
LWPOLYLINE
  5
46
330
2
100
AcDbEntity
  8
0
100
AcDbPolyline
 90
        3
 70
     0
 43
0.0
 10
0.1111469252432329
 20
1.571982182179338
 42
-0.0210139430678583
 10
0.1273784521264076
 20
1.584282920590323
 42
-0.0411134117556535
 10
0.1743439591209324
 20
1.611441850947455
 42
-0.0433120578453059
  0
ARC
  5
47
330
2
100
AcDbEntity
  8
0
100
AcDbCircle
 10
0.4735786433836502
 20
2.437500000000004
 30
0.0
 40
0.1875
100
AcDbArc
 50
180.0
 51
210.2026586833964
  0
ARC
  5
48
330
2
100
AcDbEntity
  8
0
100
AcDbCircle
 10
0.4105786433836549
 20
3.432300000000016
 30
0.0
 40
0.1875
100
AcDbArc
 50
289.6333588975684
 51
0.000000000000007
  0
ARC
  5
49
330
2
100
AcDbEntity
  8
0
100
AcDbCircle
 10
0.4735786433836502
 20
3.062500000000004
 30
0.0
 40
0.1875
100
AcDbArc
 50
90.0
 51
180.0
  0
LWPOLYLINE
  5
4A
330
2
100
AcDbEntity
  8
0
100
AcDbPolyline
 90
        2
 70
     0
 43
0.0
 10
0.2375409929986319
 20
4.108482012664014
 42
-0.0624962416743307
 10
0.3485786433836466
 20
4.122415304707362
 42
-0.0700628980345371
  0
LWPOLYLINE
  5
4B
330
2
100
AcDbEntity
  8
0
100
AcDbPolyline
 90
        2
 70
     0
 43
0.0
 10
0.3485786433836466
 20
3.68841530470735
 42
-0.0624962416743304
 10
0.2375409929986319
 20
3.702348596750683
 42
-0.0818514225363451
  0
LINE
  5
4C
330
2
100
AcDbEntity
  8
0
100
AcDbLine
 10
0.3485786433836466
 20
3.68841530470735
 30
0.0
 11
0.3485786433836466
 21
4.122415304707348
 31
0.0
  0
LWPOLYLINE
  5
4D
330
2
100
AcDbEntity
  8
0
100
AcDbPolyline
 90
        9
 70
     0
 43
0.0
 10
0.3485786433836466
 20
3.734415304707357
 42
-0.1432467981947568
 10
0.3090105636103857
 20
3.745988789995581
 42
-0.1071754848060475
 10
0.2702871660094672
 20
3.784500045124448
 42
-0.0783035184710328
 10
0.2468414128763499
 20
3.837239267635498
 42
-0.0656020556757086
 10
0.2378577742628494
 20
3.905415304707349
 42
-0.0656020556757101
 10
0.2468414128763499
 20
3.9735913417792
 42
-0.0783035184710357
 10
0.2702871660094672
 20
4.02633056429025
 42
-0.1071754848060445
 10
0.3090105636103857
 20
4.064841819419117
 42
-0.1432467981947535
 10
0.3485786433836466
 20
4.076415304707355
 42
-0.1432467981947515
  0
LWPOLYLINE
  5
4E
330
2
100
AcDbEntity
  8
0
100
AcDbPolyline
 90
        9
 70
     0
 43
0.0
 10
0.3485786433836466
 20
3.780415304707349
 42
-0.147269582437036
 10
0.3208195482267229
 20
3.788772703433297
 42
-0.1071386913803464
 10
0.2932871660094634
 20
3.81702695705903
 42
-0.0765137470862007
 10
0.2767508302498385
 20
3.855465761818495
 42
-0.063469041210727
 10
0.2703846861974313
 20
3.905415304707349
 42
-0.0634690412107267
 10
0.2767508302498385
 20
3.955364847596202
 42
-0.0765137470862059
 10
0.2932871660094634
 20
3.993803652355668
 42
-0.1071386913803463
 10
0.3208195482267229
 20
4.0220579059814
 42
-0.1472695824370325
 10
0.3485786433836466
 20
4.030415304707349
 42
-0.1472695824370333
  0
LWPOLYLINE
  5
4F
330
2
100
AcDbEntity
  8
0
100
AcDbPolyline
 90
        3
 70
     0
 43
0.0
 10
0.1111469252432329
 20
4.046556737813846
 42
-0.0210139430678583
 10
0.1273784521264076
 20
4.058857476224832
 42
-0.0411134117556535
 10
0.1743439591209324
 20
4.086016406581964
 42
-0.0433120578453059
  0
LWPOLYLINE
  5
50
330
2
100
AcDbEntity
  8
0
100
AcDbPolyline
 90
        3
 70
     0
 43
0.0
 10
0.1743439591209324
 20
3.724814202832748
 42
-0.0411134117556526
 10
0.1273784521264147
 20
3.751973133189866
 42
-0.0210139430678612
 10
0.1111469252432329
 20
3.764273871600851
 42
-0.135394011665182
  0
LWPOLYLINE
  5
51
330
2
100
AcDbEntity
  8
0
100
AcDbPolyline
 90
        3
 70
     0
 43
0.0
 10
0.0479498913655334
 20
3.845514474605112
 42
-0.1007643090488704
 10
0.0357543329081409
 20
3.905415304707349
 42
-0.1007643090488685
 10
0.0479498913655334
 20
3.965316134809585
 42
-0.1069100077216599
  0
LINE
  5
57
330
2
100
AcDbEntity
  8
0
100
AcDbLine
 10
0.2860786433836466
 20
6.4375
 30
0.0
 11
0.2860786433836466
 21
7.0625
 31
0.0
  0
ARC
  5
58
330
2
100
AcDbEntity
  8
0
100
AcDbCircle
 10
0.4735786433836502
 20
5.062500000000004
 30
0.0
 40
0.1875
100
AcDbArc
 50
90.0
 51
180.0
  0
LINE
  5
59
330
2
100
AcDbEntity
  8
0
100
AcDbLine
 10
0.2860786433836466
 20
4.4375
 30
0.0
 11
0.2860786433836466
 21
5.0625
 31
0.0
  0
ARC
  5
5A
330
2
100
AcDbEntity
  8
0
100
AcDbCircle
 10
0.4105786433836549
 20
4.067700000000006
 30
0.0
 40
0.1875
100
AcDbArc
 50
0.000000000000007
 51
90.0
  0
ARC
  5
5B
330
2
100
AcDbEntity
  8
0
100
AcDbCircle
 10
0.4735786433836502
 20
4.437500000000004
 30
0.0
 40
0.1875
100
AcDbArc
 50
180.0
 51
250.3666411024103
  0
LINE
  5
5C
330
2
100
AcDbEntity
  8
0
100
AcDbLine
 10
0.5980786433836514
 20
5.432299788214721
 30
0.0
 11
0.5980786433836514
 21
6.067700000000002
 31
0.0
  0
ARC
  5
5D
330
2
100
AcDbEntity
  8
0
100
AcDbCircle
 10
0.4105786433836549
 20
5.432300000000016
 30
0.0
 40
0.1875
100
AcDbArc
 50
289.6333588975684
 51
0.000000000000007
  0
LWPOLYLINE
  5
5E
330
2
100
AcDbEntity
  8
0
100
AcDbPolyline
 90
        2
 70
     0
 43
0.0
 10
0.2375409929986319
 20
6.133031403249333
 42
-0.0624962416743307
 10
0.3485786433836466
 20
6.14696469529268
 42
-0.0700628980345371
  0
LWPOLYLINE
  5
5F
330
2
100
AcDbEntity
  8
0
100
AcDbPolyline
 90
        2
 70
     0
 43
0.0
 10
0.3485786433836466
 20
5.712964695292668
 42
-0.0624962416743304
 10
0.2375409929986319
 20
5.726897987336002
 42
-0.0818514225363451
  0
LINE
  5
60
330
2
100
AcDbEntity
  8
0
100
AcDbLine
 10
0.3485786433836466
 20
5.712964695292668
 30
0.0
 11
0.3485786433836466
 21
6.146964695292666
 31
0.0
  0
LWPOLYLINE
  5
61
330
2
100
AcDbEntity
  8
0
100
AcDbPolyline
 90
        9
 70
     0
 43
0.0
 10
0.3485786433836466
 20
5.804964695292667
 42
-0.147269582437036
 10
0.3208195482267229
 20
5.813322094018615
 42
-0.1071386913803464
 10
0.2932871660094634
 20
5.841576347644348
 42
-0.0765137470862007
 10
0.2767508302498385
 20
5.880015152403813
 42
-0.063469041210727
 10
0.2703846861974313
 20
5.929964695292667
 42
-0.0634690412107267
 10
0.2767508302498385
 20
5.979914238181521
 42
-0.0765137470862059
 10
0.2932871660094634
 20
6.018353042940986
 42
-0.1071386913803463
 10
0.3208195482267229
 20
6.046607296566719
 42
-0.1472695824370325
 10
0.3485786433836466
 20
6.054964695292667
 42
-0.1472695824370333
  0
LWPOLYLINE
  5
62
330
2
100
AcDbEntity
  8
0
100
AcDbPolyline
 90
        9
 70
     0
 43
0.0
 10
0.3485786433836466
 20
5.758964695292675
 42
-0.1432467981947568
 10
0.3090105636103857
 20
5.770538180580899
 42
-0.1071754848060475
 10
0.2702871660094672
 20
5.809049435709766
 42
-0.0783035184710328
 10
0.2468414128763499
 20
5.861788658220816
 42
-0.0656020556757086
 10
0.2378577742628494
 20
5.929964695292667
 42
-0.0656020556757101
 10
0.2468414128763499
 20
5.998140732364518
 42
-0.0783035184710357
 10
0.2702871660094672
 20
6.050879954875568
 42
-0.1071754848060445
 10
0.3090105636103857
 20
6.089391210004435
 42
-0.1432467981947535
 10
0.3485786433836466
 20
6.100964695292674
 42
-0.1432467981947515
  0
LWPOLYLINE
  5
63
330
2
100
AcDbEntity
  8
0
100
AcDbPolyline
 90
        3
 70
     0
 43
0.0
 10
0.1111469252432329
 20
6.071106128399165
 42
-0.0210139430678583
 10
0.1273784521264076
 20
6.08340686681015
 42
-0.0411134117556535
 10
0.1743439591209324
 20
6.110565797167282
 42
-0.0433120578453059
  0
LWPOLYLINE
  5
64
330
2
100
AcDbEntity
  8
0
100
AcDbPolyline
 90
        3
 70
     0
 43
0.0
 10
0.1743439591209324
 20
5.749363593418067
 42
-0.0411134117556526
 10
0.1273784521264147
 20
5.776522523775184
 42
-0.0210139430678612
 10
0.1111469252432329
 20
5.78882326218617
 42
-0.135394011665182
  0
LWPOLYLINE
  5
65
330
2
100
AcDbEntity
  8
0
100
AcDbPolyline
 90
        3
 70
     0
 43
0.0
 10
0.0479498913655334
 20
5.87006386519043
 42
-0.1007643090488704
 10
0.0357543329081409
 20
5.929964695292667
 42
-0.1007643090488685
 10
0.0479498913655334
 20
5.989865525394904
 42
-0.1069100077216599
  0
ARC
  5
66
330
2
100
AcDbEntity
  8
0
100
AcDbCircle
 10
0.4105786433836549
 20
6.067700000000006
 30
0.0
 40
0.1875
100
AcDbArc
 50
0.000000000000007
 51
90.0
  0
ARC
  5
67
330
2
100
AcDbEntity
  8
0
100
AcDbCircle
 10
0.4735786433836502
 20
6.437500000000004
 30
0.0
 40
0.1875
100
AcDbArc
 50
180.0
 51
250.3666411024103
  0
LINE
  5
68
330
2
100
AcDbEntity
  8
0
100
AcDbLine
 10
0.5980786433836514
 20
7.432300000000012
 30
0.0
 11
0.5980786433836514
 21
8.067700227943945
 31
0.0
  0
ARC
  5
69
330
2
100
AcDbEntity
  8
0
100
AcDbCircle
 10
0.4848681812015308
 20
7.057160356708952
 30
0.0
 40
0.198861238395826
100
AcDbArc
 50
93.25448456194559
 51
178.4613602840799
  0
ARC
  5
6A
330
2
100
AcDbEntity
  8
0
100
AcDbCircle
 10
0.4105786433836549
 20
7.432300000000016
 30
0.0
 40
0.1875
100
AcDbArc
 50
289.6333588975684
 51
0.000000000000007
  0
ARC
  5
6B
330
2
100
AcDbEntity
  8
0
100
AcDbCircle
 10
0.4735786433836502
 20
8.437500000000004
 30
0.0
 40
0.1875
100
AcDbArc
 50
180.0
 51
257.2535862916184
  0
ARC
  5
6C
330
2
100
AcDbEntity
  8
0
100
AcDbCircle
 10
0.4099178547078459
 20
8.067785021508943
 30
0.0
 40
0.1881608078845258
100
AcDbArc
 50
359.9741105820586
 51
83.19617282319445
  0
ARC
  5
7E
330
2
100
AcDbEntity
  8
0
100
AcDbCircle
 10
0.4104395732402146
 20
10.06771585931207
 30
0.0
 40
0.18763907079723
100
AcDbArc
 50
359.9952166689049
 51
80.55035918183468
  0
ARC
  5
7F
330
2
100
AcDbEntity
  8
0
100
AcDbCircle
 10
0.4735786433836573
 20
10.4375
 30
0.0
 40
0.1875
100
AcDbArc
 50
180.0
 51
260.07032623725
  0
LINE
  5
80
330
2
100
AcDbEntity
  8
0
100
AcDbLine
 10
-0.6514213566163534
 20
10.125
 30
0.0
 11
-0.3389213566163534
 21
9.875
 31
0.0
  0
LINE
  5
81
330
2
100
AcDbEntity
  8
0
100
AcDbLine
 10
-0.3389213566163534
 20
9.875
 30
0.0
 11
-0.6514213566163534
 21
9.6875
 31
0.0
  0
LINE
  5
82
330
2
100
AcDbEntity
  8
0
100
AcDbLine
 10
-0.6514213566163534
 20
9.75
 30
0.0
 11
-0.4300113566163546
 21
9.879390000000001
 31
0.0
  0
LINE
  5
83
330
2
100
AcDbEntity
  8
0
100
AcDbLine
 10
-0.4300113566163546
 20
9.879390000000001
 30
0.0
 11
-0.6514213566163534
 21
10.0625
 31
0.0
  0
LINE
  5
84
330
2
100
AcDbEntity
  8
0
100
AcDbLine
 10
-0.6514213566163534
 20
9.6875
 30
0.0
 11
-0.6514213566163534
 21
9.75
 31
0.0
  0
LINE
  5
85
330
2
100
AcDbEntity
  8
0
100
AcDbLine
 10
0.5980786433836514
 20
9.432300000000005
 30
0.0
 11
0.5980786433836514
 21
10.06773152105807
 31
0.0
  0
ARC
  5
86
330
2
100
AcDbEntity
  8
0
100
AcDbCircle
 10
0.4105786433836549
 20
9.432300000000009
 30
0.0
 40
0.1875
100
AcDbArc
 50
289.6333588975684
 51
0.000000000000007
  0
ARC
  5
87
330
2
100
AcDbEntity
  8
0
100
AcDbCircle
 10
0.4735786433836502
 20
9.062500000000004
 30
0.0
 40
0.1875
100
AcDbArc
 50
90.0
 51
180.0
  0
LINE
  5
88
330
2
100
AcDbEntity
  8
0
100
AcDbLine
 10
0.2860786433836466
 20
10.75
 30
0.0
 11
-0.7139213566163534
 21
10.75
 31
0.0
  0
LINE
  5
89
330
2
100
AcDbEntity
  8
0
100
AcDbLine
 10
0.2860786433836466
 20
10.4375
 30
0.0
 11
0.2860786433836466
 21
10.75
 31
0.0
  0
ENDSEC
  0
SECTION
  2
OBJECTS
  0
DICTIONARY
  5
9
330
0
100
AcDbDictionary
281
     1
  3
ACAD_COLOR
350
68F
  3
ACAD_GROUP
350
24
  3
ACAD_LAYOUT
350
D
  3
ACAD_MATERIAL
350
68E
  3
ACAD_MLINESTYLE
350
25
  3
ACAD_PLOTSETTINGS
350
26
  3
ACAD_PLOTSTYLENAME
350
8
  3
ACAD_TABLESTYLE
350
690
  3
ACDBHEADERROUNDTRIPXREC
350
6B5
  3
AcDbVariableDictionary
350
173
  0
DICTIONARY
  5
68F
102
{ACAD_REACTORS
330
9
102
}
330
9
100
AcDbDictionary
281
     1
  0
DICTIONARY
  5
24
102
{ACAD_REACTORS
330
9
102
}
330
9
100
AcDbDictionary
281
     1
  0
DICTIONARY
  5
D
102
{ACAD_REACTORS
330
9
102
}
330
9
100
AcDbDictionary
281
     1
  3
Layout1
350
13
  3
Model
350
C
  0
DICTIONARY
  5
68E
102
{ACAD_REACTORS
330
9
102
}
330
9
100
AcDbDictionary
281
     1
  0
DICTIONARY
  5
25
102
{ACAD_REACTORS
330
9
102
}
330
9
100
AcDbDictionary
281
     1
  3
STANDARD
350
28
  0
DICTIONARY
  5
26
102
{ACAD_REACTORS
330
9
102
}
330
9
100
AcDbDictionary
281
     1
  0
ACDBDICTIONARYWDFLT
  5
8
102
{ACAD_REACTORS
330
9
102
}
330
9
100
AcDbDictionary
281
     1
  3
Normal
350
7
100
AcDbDictionaryWithDefault
340
7
  0
DICTIONARY
  5
690
102
{ACAD_REACTORS
330
9
102
}
330
9
100
AcDbDictionary
281
     1
  3
Standard
350
691
  0
DICTIONARY
  5
6B5
102
{ACAD_REACTORS
330
9
102
}
330
9
100
AcDbDictionary
281
     1
  3
COLORDICT
350
6B6
  3
MATERIALDICT
350
6B7
  0
DICTIONARY
  5
173
102
{ACAD_REACTORS
330
9
102
}
330
9
100
AcDbDictionary
281
     1
  3
CTABLESTYLE
350
69A
  3
HIDETEXT
350
6B4
  0
LAYOUT
  5
13
102
{ACAD_REACTORS
330
D
102
}
102
{ACAD_XDICTIONARY
360
6B8
102
}
330
D
100
AcDbPlotSettings
  1

  2
C:\ACAD2000\plotters\HP LaserJet 2100 Series PS.pc3
  4

  6

 40
0.0
 41
0.0
 42
0.0
 43
0.0
 44
0.0
 45
0.0
 46
0.0
 47
0.0
 48
0.0
 49
0.0
140
0.0
141
0.0
142
1.0
143
1.0
 70
   688
 72
     0
 73
     0
 74
     5
  7

 75
    16
147
1.0
148
0.0
149
0.0
100
AcDbLayout
  1
Layout1
 70
     0
 71
     1
 10
0.0
 20
0.0
 11
12.0
 21
9.0
 12
0.0
 22
0.0
 32
0.0
 14
1.000000000000000E+20
 24
1.000000000000000E+20
 34
1.000000000000000E+20
 15
-1.000000000000000E+20
 25
-1.000000000000000E+20
 35
-1.000000000000000E+20
146
0.0
 13
0.0
 23
0.0
 33
0.0
 16
1.0
 26
0.0
 36
0.0
 17
0.0
 27
1.0
 37
0.0
 76
     0
330
E
  0
LAYOUT
  5
C
102
{ACAD_REACTORS
330
D
102
}
102
{ACAD_XDICTIONARY
360
6BA
102
}
330
D
100
AcDbPlotSettings
  1

  2
HP LaserJet 2100 Series PS
  4
Letter
  6

 40
5.365749835968018
 41
5.408073902130127
 42
5.132904052734375
 43
5.090576171875
 44
215.8999938964844
 45
279.3999938964844
 46
0.0
 47
0.0
 48
0.0
 49
0.0
140
0.0
141
0.0
142
1.0
143
5.193734373688032
 70
 28336
 72
     0
 73
     1
 74
     2
  7

 75
     0
147
0.1925396887961961
148
0.0
149
0.0
100
AcDbLayout
  1
Model
 70
     1
 71
     0
 10
0.0
 20
0.0
 11
12.0
 21
9.0
 12
0.0
 22
0.0
 32
0.0
 14
0.0
 24
0.0
 34
0.0
 15
0.0
 25
0.0
 35
0.0
146
0.0
 13
0.0
 23
0.0
 33
0.0
 16
1.0
 26
0.0
 36
0.0
 17
0.0
 27
1.0
 37
0.0
 76
     0
330
2
  0
MLINESTYLE
  5
28
102
{ACAD_REACTORS
330
25
102
}
330
25
100
AcDbMlineStyle
  2
STANDARD
 70
     0
  3

 62
   256
 51
90.0
 52
90.0
 71
     2
 49
0.5
 62
   256
  6
BYLAYER
 49
-0.5
 62
   256
  6
BYLAYER
  0
ACDBPLACEHOLDER
  5
7
102
{ACAD_REACTORS
330
8
102
}
330
8
  0
ACAD_PROXY_OBJECT
  5
691
102
{ACAD_REACTORS
330
690
102
}
330
690
100
AcDbProxyObject
 90
      499
 91
      549
 95
   983063
 70
     0
 93
     1841
310
4214DD185B99185C9928B81E85EB51B8AE3F2E07A17AD46E2B8FC02B5E8DC0F42B1CFD028000000C1008070000C3001FDFF8000000C1003FBFF000000182007F7FE00000030400FEFFC00000060801FDFF8000000C1003FBFF00000018200000000000000681FA0B0000001820100E000186003FBFF000000182007F7FE000
310
00030400FEFFC00000060801FDFF8000000C1003FBFF000000182007F7FE000000304000AD7A3703D0AC73F4160000003040201C00030C007F7FE00000030400FEFFC00000060801FDFF8000000C1003FBFF000000182007F7FE00000030400FEFFC000000608000
340
16
340
16
340
16
 94
        0
  0
XRECORD
  5
6B6
102
{ACAD_REACTORS
330
6B5
102
}
330
6B5
100
AcDbXrecord
340
68F
  0
XRECORD
  5
6B7
102
{ACAD_REACTORS
330
6B5
102
}
330
6B5
100
AcDbXrecord
340
68E
  0
DICTIONARYVAR
  5
69A
102
{ACAD_REACTORS
330
173
102
}
330
173
100
DictionaryVariables
280
     0
  1
STANDARD
  0
DICTIONARYVAR
  5
6B4
102
{ACAD_REACTORS
330
173
102
}
330
173
100
DictionaryVariables
280
     0
  1
0
  0
DICTIONARY
  5
6B8
330
13
100
AcDbDictionary
280
     1
281
     1
  3
ACAD_XREC_ROUNDTRIP
360
6B9
  0
DICTIONARY
  5
6BA
330
C
100
AcDbDictionary
280
     1
281
     1
  3
ACAD_XREC_ROUNDTRIP
360
6BB
  0
XRECORD
  5
6B9
102
{ACAD_REACTORS
330
6B8
102
}
330
6B8
100
AcDbXrecord
102
SHADEPLOT
 70
     0
102
SHADEPLOTRESLEVEL
 70
     2
102
SHADEPLOTCUSTOMDPI
 70
   300
  0
XRECORD
  5
6BB
102
{ACAD_REACTORS
330
6BA
102
}
330
6BA
100
AcDbXrecord
102
SHADEPLOT
 70
     0
102
SHADEPLOTRESLEVEL
 70
     2
102
SHADEPLOTCUSTOMDPI
 70
   300
  0
ENDSEC
  0
EOF
