  0
SECTION
  2
HEADER
  9
$ACADVER
  1
AC1015
  9
$ACADMAINTVER
 70
     6
  9
$DWGCODEPAGE
  3
ANSI_1252
  9
$INSBASE
 10
0.0
 20
0.0
 30
0.0
  9
$EXTMIN
 10
-10.95157205896192
 20
-0.0634783951984446
 30
-0.0015258207003583
  9
$EXTMAX
 10
10.44704228446443
 20
16.77354150742589
 30
0.0000000349246037
  9
$LIMMIN
 10
0.0
 20
0.0
  9
$LIMMAX
 10
42.0
 20
32.0
  9
$ORTHOMODE
 70
     1
  9
$REGENMODE
 70
     1
  9
$FILLMODE
 70
     1
  9
$QTEXTMODE
 70
     0
  9
$MIRRTEXT
 70
     1
  9
$LTSCALE
 40
1.0
  9
$ATTMODE
 70
     1
  9
$TEXTSIZE
 40
0.27
  9
$TRACEWID
 40
0.05
  9
$TEXTSTYLE
  7
STANDARD
  9
$CLAYER
  8
0
  9
$CELTYPE
  6
BYLAYER
  9
$CECOLOR
 62
   256
  9
$CELTSCALE
 40
1.0
  9
$DISPSILH
 70
     0
  9
$DIMSCALE
 40
1.0
  9
$DIMASZ
 40
0.375
  9
$DIMEXO
 40
0.0625
  9
$DIMDLI
 40
1.25
  9
$DIMRND
 40
0.0
  9
$DIMDLE
 40
0.0
  9
$DIMEXE
 40
0.18
  9
$DIMTP
 40
0.0
  9
$DIMTM
 40
0.0
  9
$DIMTXT
 40
0.27
  9
$DIMCEN
 40
-0.06
  9
$DIMTSZ
 40
0.0
  9
$DIMTOL
 70
     0
  9
$DIMLIM
 70
     0
  9
$DIMTIH
 70
     1
  9
$DIMTOH
 70
     1
  9
$DIMSE1
 70
     0
  9
$DIMSE2
 70
     0
  9
$DIMTAD
 70
     0
  9
$DIMZIN
 70
     0
  9
$DIMBLK
  1

  9
$DIMASO
 70
     0
  9
$DIMSHO
 70
     0
  9
$DIMPOST
  1

  9
$DIMAPOST
  1

  9
$DIMALT
 70
     0
  9
$DIMALTD
 70
     2
  9
$DIMALTF
 40
25.4
  9
$DIMLFAC
 40
1.0
  9
$DIMTOFL
 70
     0
  9
$DIMTVP
 40
0.0
  9
$DIMTIX
 70
     0
  9
$DIMSOXD
 70
     0
  9
$DIMSAH
 70
     0
  9
$DIMBLK1
  1

  9
$DIMBLK2
  1

  9
$DIMSTYLE
  2
STANDARD
  9
$DIMCLRD
 70
     0
  9
$DIMCLRE
 70
     0
  9
$DIMCLRT
 70
     0
  9
$DIMTFAC
 40
1.0
  9
$DIMGAP
 40
0.09
  9
$DIMJUST
 70
     0
  9
$DIMSD1
 70
     0
  9
$DIMSD2
 70
     0
  9
$DIMTOLJ
 70
     1
  9
$DIMTZIN
 70
     0
  9
$DIMALTZ
 70
     0
  9
$DIMALTTZ
 70
     0
  9
$DIMUPT
 70
     0
  9
$DIMDEC
 70
     5
  9
$DIMTDEC
 70
     4
  9
$DIMALTU
 70
     2
  9
$DIMALTTD
 70
     2
  9
$DIMTXSTY
  7
STANDARD
  9
$DIMAUNIT
 70
     0
  9
$DIMADEC
 70
     0
  9
$DIMALTRND
 40
0.0
  9
$DIMAZIN
 70
     0
  9
$DIMDSEP
 70
    46
  9
$DIMATFIT
 70
     3
  9
$DIMFRAC
 70
     2
  9
$DIMLDRBLK
  1

  9
$DIMLUNIT
 70
     5
  9
$DIMLWD
 70
    -2
  9
$DIMLWE
 70
    -2
  9
$DIMTMOVE
 70
     2
  9
$LUNITS
 70
     2
  9
$LUPREC
 70
     4
  9
$SKETCHINC
 40
0.1
  9
$FILLETRAD
 40
0.0
  9
$AUNITS
 70
     0
  9
$AUPREC
 70
     0
  9
$MENU
  1
ACAD
  9
$ELEVATION
 40
0.0
  9
$PELEVATION
 40
0.0
  9
$THICKNESS
 40
0.0
  9
$LIMCHECK
 70
     0
  9
$CHAMFERA
 40
0.0
  9
$CHAMFERB
 40
0.0
  9
$CHAMFERC
 40
0.0
  9
$CHAMFERD
 40
0.0
  9
$SKPOLY
 70
     0
  9
$TDCREATE
 40
2448910.946593518
  9
$TDUCREATE
 40
2448911.279926852
  9
$TDUPDATE
 40
2454175.703031482
  9
$TDUUPDATE
 40
2454176.036364815
  9
$TDINDWG
 40
0.1969514352
  9
$TDUSRTIMER
 40
0.1969514352
  9
$USRTIMER
 70
     1
  9
$ANGBASE
 50
0.0
  9
$ANGDIR
 70
     0
  9
$PDMODE
 70
     0
  9
$PDSIZE
 40
0.0
  9
$PLINEWID
 40
0.0
  9
$SPLFRAME
 70
     0
  9
$SPLINETYPE
 70
     6
  9
$SPLINESEGS
 70
     8
  9
$HANDSEED
  5
6AD
  9
$SURFTAB1
 70
     6
  9
$SURFTAB2
 70
     6
  9
$SURFTYPE
 70
     6
  9
$SURFU
 70
     6
  9
$SURFV
 70
     6
  9
$UCSBASE
  2

  9
$UCSNAME
  2

  9
$UCSORG
 10
0.0
 20
0.0
 30
0.0
  9
$UCSXDIR
 10
1.0
 20
0.0
 30
0.0
  9
$UCSYDIR
 10
0.0
 20
1.0
 30
0.0
  9
$UCSORTHOREF
  2

  9
$UCSORTHOVIEW
 70
     0
  9
$UCSORGTOP
 10
0.0
 20
0.0
 30
0.0
  9
$UCSORGBOTTOM
 10
0.0
 20
0.0
 30
0.0
  9
$UCSORGLEFT
 10
0.0
 20
0.0
 30
0.0
  9
$UCSORGRIGHT
 10
0.0
 20
0.0
 30
0.0
  9
$UCSORGFRONT
 10
0.0
 20
0.0
 30
0.0
  9
$UCSORGBACK
 10
0.0
 20
0.0
 30
0.0
  9
$PUCSBASE
  2

  9
$PUCSNAME
  2

  9
$PUCSORG
 10
0.0
 20
0.0
 30
0.0
  9
$PUCSXDIR
 10
1.0
 20
0.0
 30
0.0
  9
$PUCSYDIR
 10
0.0
 20
1.0
 30
0.0
  9
$PUCSORTHOREF
  2

  9
$PUCSORTHOVIEW
 70
     0
  9
$PUCSORGTOP
 10
0.0
 20
0.0
 30
0.0
  9
$PUCSORGBOTTOM
 10
0.0
 20
0.0
 30
0.0
  9
$PUCSORGLEFT
 10
0.0
 20
0.0
 30
0.0
  9
$PUCSORGRIGHT
 10
0.0
 20
0.0
 30
0.0
  9
$PUCSORGFRONT
 10
0.0
 20
0.0
 30
0.0
  9
$PUCSORGBACK
 10
0.0
 20
0.0
 30
0.0
  9
$USERI1
 70
     0
  9
$USERI2
 70
     0
  9
$USERI3
 70
     0
  9
$USERI4
 70
     0
  9
$USERI5
 70
     0
  9
$USERR1
 40
0.0
  9
$USERR2
 40
0.0
  9
$USERR3
 40
0.0
  9
$USERR4
 40
0.0
  9
$USERR5
 40
0.0
  9
$WORLDVIEW
 70
     1
  9
$SHADEDGE
 70
     3
  9
$SHADEDIF
 70
    70
  9
$TILEMODE
 70
     1
  9
$MAXACTVP
 70
    16
  9
$PINSBASE
 10
0.0
 20
0.0
 30
0.0
  9
$PLIMCHECK
 70
     0
  9
$PEXTMIN
 10
1.000000000000000E+20
 20
1.000000000000000E+20
 30
1.000000000000000E+20
  9
$PEXTMAX
 10
-1.000000000000000E+20
 20
-1.000000000000000E+20
 30
-1.000000000000000E+20
  9
$PLIMMIN
 10
0.0
 20
0.0
  9
$PLIMMAX
 10
12.0
 20
9.0
  9
$UNITMODE
 70
     0
  9
$VISRETAIN
 70
     0
  9
$PLINEGEN
 70
     0
  9
$PSLTSCALE
 70
     0
  9
$TREEDEPTH
 70
  3020
  9
$CMLSTYLE
  2
STANDARD
  9
$CMLJUST
 70
     0
  9
$CMLSCALE
 40
1.0
  9
$PROXYGRAPHICS
 70
     1
  9
$MEASUREMENT
 70
     0
  9
$CELWEIGHT
370
    -1
  9
$ENDCAPS
280
     0
  9
$JOINSTYLE
280
     0
  9
$LWDISPLAY
290
     0
  9
$INSUNITS
 70
     0
  9
$HYPERLINKBASE
  1

  9
$STYLESHEET
  1

  9
$XEDIT
290
     1
  9
$CEPSNTYPE
380
     0
  9
$PSTYLEMODE
290
     1
  9
$FINGERPRINTGUID
  2
{6022159C-CB90-474D-91E2-3245512ECFC0}
  9
$VERSIONGUID
  2
{88DDAD20-7D32-4A07-906D-2C9D6749A4E5}
  9
$EXTNAMES
290
     1
  9
$PSVPSCALE
 40
0.0
  9
$OLESTARTUP
290
     0
  0
ENDSEC
  0
SECTION
  2
CLASSES
  0
CLASS
  1
DICTIONARYVAR
  2
AcDbDictionaryVar
  3
AutoCAD 2000
 90
        0
280
     0
281
     0
  0
CLASS
  1
LWPOLYLINE
  2
AcDbPolyline
  3
AutoCAD 2000
 90
        0
280
     0
281
     1
  0
CLASS
  1
ACDBDICTIONARYWDFLT
  2
AcDbDictionaryWithDefault
  3
AutoCAD 2000
 90
        0
280
     0
281
     0
  0
CLASS
  1
ACDBPLACEHOLDER
  2
AcDbPlaceHolder
  3
ObjectDBX Classes
 90
        0
280
     0
281
     0
  0
CLASS
  1
LAYOUT
  2
AcDbLayout
  3
ObjectDBX Classes
 90
        0
280
     0
281
     0
  0
CLASS
  1
LONG_TRANSACTION
  2
AcDbLongTransaction
  3
ObjectDBX Classes
 90
   -65536
280
     1
281
     0
  0
CLASS
  1
LWPOLYLINE
  2
AcDbPolyline
  3
AutoCAD 2000
 90
        0
280
     0
281
     1
  0
CLASS
  1
HATCH
  2
AcDbHatch
  3
AutoCAD 2000
 90
        0
280
     0
281
     1
  0
CLASS
  1
XRECORD
  2
AcDbXrecord
  3
AutoCAD 2000
 90
        0
280
     0
281
     0
  0
CLASS
  1
LONG_TRANSACTION
  2
AcDbLongTransaction
  3
ObjectDBX Classes
 90
   -65536
280
     1
281
     0
  0
CLASS
  1
LWPOLYLINE
  2
AcDbPolyline
  3
AutoCAD 2000
 90
        0
280
     0
281
     1
  0
CLASS
  1
HATCH
  2
AcDbHatch
  3
AutoCAD 2000
 90
        0
280
     0
281
     1
  0
CLASS
  1
XRECORD
  2
AcDbXrecord
  3
AutoCAD 2000
 90
        0
280
     0
281
     0
  0
CLASS
  1
LONG_TRANSACTION
  2
AcDbLongTransaction
  3
ObjectDBX Classes
 90
   -65536
280
     1
281
     0
  0
CLASS
  1
LWPOLYLINE
  2
AcDbPolyline
  3
AutoCAD 2000
 90
        0
280
     0
281
     1
  0
CLASS
  1
HATCH
  2
AcDbHatch
  3
AutoCAD 2000
 90
        0
280
     0
281
     1
  0
CLASS
  1
XRECORD
  2
AcDbXrecord
  3
AutoCAD 2000
 90
        0
280
     0
281
     0
  0
CLASS
  1
LONG_TRANSACTION
  2
AcDbLongTransaction
  3
ObjectDBX Classes
 90
   -65536
280
     1
281
     0
  0
CLASS
  1
LWPOLYLINE
  2
AcDbPolyline
  3
AutoCAD 2000
 90
        0
280
     0
281
     1
  0
CLASS
  1
HATCH
  2
AcDbHatch
  3
AutoCAD 2000
 90
        0
280
     0
281
     1
  0
CLASS
  1
XRECORD
  2
AcDbXrecord
  3
AutoCAD 2000
 90
        0
280
     0
281
     0
  0
CLASS
  1
LONG_TRANSACTION
  2
AcDbLongTransaction
  3
ObjectDBX Classes
 90
   -65536
280
     1
281
     0
  0
CLASS
  1
LWPOLYLINE
  2
AcDbPolyline
  3
AutoCAD 2000
 90
        0
280
     0
281
     1
  0
CLASS
  1
HATCH
  2
AcDbHatch
  3
AutoCAD 2000
 90
        0
280
     0
281
     1
  0
CLASS
  1
XRECORD
  2
AcDbXrecord
  3
AutoCAD 2000
 90
        0
280
     0
281
     0
  0
CLASS
  1
LONG_TRANSACTION
  2
AcDbLongTransaction
  3
ObjectDBX Classes
 90
   -65536
280
     1
281
     0
  0
CLASS
  1
LWPOLYLINE
  2
AcDbPolyline
  3
AutoCAD 2000
 90
        0
280
     0
281
     1
  0
CLASS
  1
HATCH
  2
AcDbHatch
  3
AutoCAD 2000
 90
        0
280
     0
281
     1
  0
CLASS
  1
XRECORD
  2
AcDbXrecord
  3
AutoCAD 2000
 90
        0
280
     0
281
     0
  0
CLASS
  1
LONG_TRANSACTION
  2
AcDbLongTransaction
  3
ObjectDBX Classes
 90
   -65536
280
     1
281
     0
  0
CLASS
  1
LWPOLYLINE
  2
AcDbPolyline
  3
AutoCAD 2000
 90
        0
280
     0
281
     1
  0
CLASS
  1
HATCH
  2
AcDbHatch
  3
AutoCAD 2000
 90
        0
280
     0
281
     1
  0
CLASS
  1
XRECORD
  2
AcDbXrecord
  3
AutoCAD 2000
 90
        0
280
     0
281
     0
  0
CLASS
  1
LONG_TRANSACTION
  2
AcDbLongTransaction
  3
ObjectDBX Classes
 90
   -65536
280
     1
281
     0
  0
CLASS
  1
LWPOLYLINE
  2
AcDbPolyline
  3
AutoCAD 2000
 90
        0
280
     0
281
     1
  0
CLASS
  1
HATCH
  2
AcDbHatch
  3
AutoCAD 2000
 90
        0
280
     0
281
     1
  0
CLASS
  1
XRECORD
  2
AcDbXrecord
  3
AutoCAD 2000
 90
        0
280
     0
281
     0
  0
CLASS
  1
LONG_TRANSACTION
  2
AcDbLongTransaction
  3
ObjectDBX Classes
 90
   -65536
280
     1
281
     0
  0
CLASS
  1
LWPOLYLINE
  2
AcDbPolyline
  3
AutoCAD 2000
 90
        0
280
     0
281
     1
  0
CLASS
  1
HATCH
  2
AcDbHatch
  3
AutoCAD 2000
 90
        0
280
     0
281
     1
  0
CLASS
  1
XRECORD
  2
AcDbXrecord
  3
AutoCAD 2000
 90
        0
280
     0
281
     0
  0
CLASS
  1
LONG_TRANSACTION
  2
AcDbLongTransaction
  3
ObjectDBX Classes
 90
   -65536
280
     1
281
     0
  0
CLASS
  1
LWPOLYLINE
  2
AcDbPolyline
  3
AutoCAD 2000
 90
        0
280
     0
281
     1
  0
CLASS
  1
HATCH
  2
AcDbHatch
  3
AutoCAD 2000
 90
        0
280
     0
281
     1
  0
CLASS
  1
XRECORD
  2
AcDbXrecord
  3
AutoCAD 2000
 90
        0
280
     0
281
     0
  0
CLASS
  1
LONG_TRANSACTION
  2
AcDbLongTransaction
  3
ObjectDBX Classes
 90
   -65536
280
     1
281
     0
  0
CLASS
  1
LWPOLYLINE
  2
AcDbPolyline
  3
AutoCAD 2000
 90
        0
280
     0
281
     1
  0
CLASS
  1
HATCH
  2
AcDbHatch
  3
AutoCAD 2000
 90
        0
280
     0
281
     1
  0
CLASS
  1
XRECORD
  2
AcDbXrecord
  3
AutoCAD 2000
 90
        0
280
     0
281
     0
  0
CLASS
  1
TABLESTYLE
  2
AcDbTableStyle
  3
ObjectDBX Classes
 90
     2047
280
     1
281
     0
  0
ENDSEC
  0
SECTION
  2
TABLES
  0
TABLE
  2
VPORT
  5
1D
330
0
100
AcDbSymbolTable
 70
     2
  0
VPORT
  5
69F
330
1D
100
AcDbSymbolTableRecord
100
AcDbViewportTableRecord
  2
*Active
 70
     0
 10
0.0
 20
0.0
 11
1.0
 21
1.0
 12
3.418056669528788
 22
8.68821354838432
 13
0.0
 23
0.0
 14
0.0625
 24
0.0625
 15
0.5
 25
0.5
 16
0.0
 26
0.0
 36
1.0
 17
0.0
 27
0.0
 37
0.0
 40
22.77285994696381
 41
1.814583333333333
 42
50.0
 43
0.0
 44
0.0
 50
0.0
 51
0.0
 71
     0
 72
   100
 73
     1
 74
     1
 75
     0
 76
     0
 77
     0
 78
     0
281
     0
 65
     1
110
0.0
120
0.0
130
0.0
111
1.0
121
0.0
131
0.0
112
0.0
122
1.0
132
0.0
 79
     0
146
0.0
  0
ENDTAB
  0
TABLE
  2
LTYPE
  5
18
330
0
100
AcDbSymbolTable
 70
     3
  0
LTYPE
  5
19
330
18
100
AcDbSymbolTableRecord
100
AcDbLinetypeTableRecord
  2
BYBLOCK
 70
     0
  3

 72
    65
 73
     0
 40
0.0
  0
LTYPE
  5
1A
330
18
100
AcDbSymbolTableRecord
100
AcDbLinetypeTableRecord
  2
BYLAYER
 70
     0
  3

 72
    65
 73
     0
 40
0.0
  0
LTYPE
  5
A
330
18
100
AcDbSymbolTableRecord
100
AcDbLinetypeTableRecord
  2
CONTINUOUS
 70
     0
  3
Solid line
 72
    65
 73
     0
 40
0.0
  0
LTYPE
  5
39
330
18
100
AcDbSymbolTableRecord
100
AcDbLinetypeTableRecord
  2
HIDDEN
 70
     0
  3
_ _ _ _ _ _ _ _ _ _ _ _ _ _ _ _ _ _ _ _ _ _ _
 72
    65
 73
     2
 40
0.375
 49
0.25
 74
     0
 49
-0.125
 74
     0
  0
ENDTAB
  0
TABLE
  2
LAYER
  5
14
330
0
100
AcDbSymbolTable
 70
     4
  0
LAYER
  5
6
330
14
100
AcDbSymbolTableRecord
100
AcDbLayerTableRecord
  2
0
 70
     0
 62
     7
  6
CONTINUOUS
370
    -3
390
7
  0
ENDTAB
  0
TABLE
  2
STYLE
  5
15
330
0
100
AcDbSymbolTable
 70
     1
  0
STYLE
  5
16
330
15
100
AcDbSymbolTableRecord
100
AcDbTextStyleTableRecord
  2
STANDARD
 70
     0
 40
0.0
 41
1.0
 50
0.0
 71
     0
 42
0.27
  3
txt
  4

  0
ENDTAB
  0
TABLE
  2
VIEW
  5
1B
330
0
100
AcDbSymbolTable
 70
     0
  0
ENDTAB
  0
TABLE
  2
UCS
  5
1C
330
0
100
AcDbSymbolTable
 70
     0
  0
ENDTAB
  0
TABLE
  2
APPID
  5
1F
330
0
100
AcDbSymbolTable
 70
     1
  0
APPID
  5
20
330
1F
100
AcDbSymbolTableRecord
100
AcDbRegAppTableRecord
  2
ACAD
 70
     0
  0
ENDTAB
  0
TABLE
  2
DIMSTYLE
  5
21
330
0
100
AcDbSymbolTable
 70
     1
100
AcDbDimStyleTable
  0
DIMSTYLE
105
22
330
21
100
AcDbSymbolTableRecord
100
AcDbDimStyleTableRecord
  2
STANDARD
 70
     0
  3

  4

340
16
  0
ENDTAB
  0
TABLE
  2
BLOCK_RECORD
  5
1
330
0
100
AcDbSymbolTable
 70
     0
  0
BLOCK_RECORD
  5
2
330
1
100
AcDbSymbolTableRecord
100
AcDbBlockTableRecord
  2
*MODEL_SPACE
340
C
  0
BLOCK_RECORD
  5
E
330
1
100
AcDbSymbolTableRecord
100
AcDbBlockTableRecord
  2
*PAPER_SPACE
340
13
  0
ENDTAB
  0
ENDSEC
  0
SECTION
  2
BLOCKS
  0
BLOCK
  5
5
330
2
100
AcDbEntity
  8
0
100
AcDbBlockBegin
  2
*MODEL_SPACE
 70
     0
 10
0.0
 20
0.0
 30
0.0
  3
*MODEL_SPACE
  1

  4

  0
ENDBLK
  5
B
330
2
100
AcDbEntity
  8
0
100
AcDbBlockEnd
  0
BLOCK
  5
11
330
E
100
AcDbEntity
 67
     1
  8
0
100
AcDbBlockBegin
  2
*PAPER_SPACE
 70
     0
 10
0.0
 20
0.0
 30
0.0
  3
*PAPER_SPACE
  1

  4

  0
ENDBLK
  5
12
330
E
100
AcDbEntity
 67
     1
  8
0
100
AcDbBlockEnd
  0
ENDSEC
  0
SECTION
  2
ENTITIES
  0
LINE
  5
29
330
2
100
AcDbEntity
  8
0
100
AcDbLine
 10
-1.87425
 20
16.75708278688223
 30
0.0
 11
-2.90625
 21
16.75708278688223
 31
0.0
  0
LINE
  5
2A
330
2
100
AcDbEntity
  8
0
100
AcDbLine
 10
-2.90625
 20
16.69458278688223
 30
0.0
 11
-1.905749999999999
 21
16.69458278688223
 31
0.0
  0
LINE
  5
2B
330
2
100
AcDbEntity
  8
0
100
AcDbLine
 10
-1.84375
 20
0.6249000000000002
 30
0.0
 11
-2.880297148656211
 21
2.405676240467251
 31
0.0
  0
LINE
  5
2C
330
2
100
AcDbEntity
  8
0
100
AcDbLine
 10
-1.78125
 20
10.8125
 30
0.0
 11
-2.90625
 21
10.8125
 31
0.0
  0
LINE
  5
2D
330
2
100
AcDbEntity
  8
0
100
AcDbLine
 10
-9.949956277816341
 20
9.0625
 30
0.0
 11
-9.949956277816341
 21
8.875
 31
0.0
  0
LINE
  5
2E
330
2
100
AcDbEntity
  8
0
100
AcDbLine
 10
-9.949956277816341
 20
8.4375
 30
0.0
 11
-9.949956277816341
 21
9.0625
 31
0.0
  0
LINE
  5
2F
330
2
100
AcDbEntity
  8
0
100
AcDbLine
 10
-10.88745627781634
 20
0.752600152718518
 30
0.0
 11
-10.88745627781634
 21
10.75
 31
0.0
  0
LINE
  5
30
330
2
100
AcDbEntity
  8
0
100
AcDbLine
 10
-10.94995627781633
 20
0.8418594031398854
 30
0.0
 11
-10.94995627781634
 21
10.75
 31
0.0
  0
LINE
  5
31
330
2
100
AcDbEntity
  8
0
100
AcDbLine
 10
-2.905749999999998
 20
8.5
 30
0.0
 11
-2.905749999999998
 21
9.125
 31
0.0
  0
LINE
  5
32
330
2
100
AcDbEntity
  8
0
100
AcDbLine
 10
-9.637956277816336
 20
4.067700000000002
 30
0.0
 11
-9.637956277816336
 21
3.432300000000012
 31
0.0
  0
LINE
  5
33
330
2
100
AcDbEntity
  8
0
100
AcDbLine
 10
-2.59375
 20
4.130199999999999
 30
0.0
 11
-2.59375
 21
3.494800000000002
 31
0.0
  0
LWPOLYLINE
  5
34
330
2
100
AcDbEntity
  8
0
100
AcDbPolyline
 90
        9
 70
     0
 43
0.0
 10
-9.887456277816341
 20
1.259840749072848
 42
-0.1432467981947568
 10
-9.927024357589602
 20
1.271414234361072
 42
-0.1071754848060475
 10
-9.96574775519052
 20
1.309925489489939
 42
-0.0783035184710328
 10
-9.989193508323638
 20
1.362664712000989
 42
-0.0656020556757086
 10
-9.998177146937138
 20
1.43084074907284
 42
-0.0656020556757101
 10
-9.989193508323638
 20
1.499016786144691
 42
-0.0783035184710357
 10
-9.96574775519052
 20
1.551756008655741
 42
-0.1071754848060445
 10
-9.927024357589602
 20
1.590267263784608
 42
-0.1432467981947535
 10
-9.887456277816341
 20
1.601840749072847
 42
-0.1432467981947515
  0
LINE
  5
35
330
2
100
AcDbEntity
  8
0
100
AcDbLine
 10
-9.887456277816341
 20
1.213840749072841
 30
0.0
 11
-9.887456277816341
 21
1.647840749072839
 31
0.0
  0
LINE
  5
36
330
2
100
AcDbEntity
  8
0
100
AcDbLine
 10
-8.74006227228022
 20
0.6220996975063784
 30
0.0
 11
-9.924503426472551
 21
2.343176240467251
 31
0.0
  0
LINE
  5
37
330
2
100
AcDbEntity
  8
0
100
AcDbLine
 10
-8.717456277816346
 20
-0.0625
 30
0.0
 11
-10.71745627781635
 21
-0.0625
 31
0.0
  0
LINE
  5
38
330
2
100
AcDbEntity
  8
0
  6
HIDDEN
100
AcDbLine
 10
-8.717456277816346
 20
0.0
 30
0.0
 11
-10.71745627781635
 21
0.0
 31
0.0
  0
LINE
  5
3A
330
2
100
AcDbEntity
  8
0
100
AcDbLine
 10
-10.71745627781635
 20
-0.0625
 30
0.0
 11
-10.71745627781635
 21
0.4704026429624904
 31
0.0
  0
LINE
  5
3B
330
2
100
AcDbEntity
  8
0
100
AcDbLine
 10
-10.74006227228022
 20
0.542099697506373
 30
0.0
 11
-10.94995627781634
 21
0.8418594031398925
 31
0.0
  0
ARC
  5
3C
330
2
100
AcDbEntity
  8
0
100
AcDbCircle
 10
-10.84245627781634
 20
0.4704026429624939
 30
0.0
 40
0.125
100
AcDbArc
 50
0.000000000000007
 51
35.00000000000007
  0
LWPOLYLINE
  5
3D
330
2
100
AcDbEntity
  8
0
100
AcDbPolyline
 90
        9
 70
     0
 43
0.0
 10
-9.887456277816341
 20
1.30584074907284
 42
-0.147269582437036
 10
-9.915215372973265
 20
1.314198147798789
 42
-0.1071386913803464
 10
-9.942747755190524
 20
1.342452401424521
 42
-0.0765137470862007
 10
-9.959284090950149
 20
1.380891206183986
 42
-0.063469041210727
 10
-9.965650235002556
 20
1.43084074907284
 42
-0.0634690412107267
 10
-9.959284090950149
 20
1.480790291961694
 42
-0.0765137470862059
 10
-9.942747755190524
 20
1.519229096721159
 42
-0.1071386913803463
 10
-9.915215372973265
 20
1.547483350346892
 42
-0.1472695824370325
 10
-9.887456277816341
 20
1.55584074907284
 42
-0.1472695824370333
  0
LWPOLYLINE
  5
3E
330
2
100
AcDbEntity
  8
0
100
AcDbPolyline
 90
        2
 70
     0
 43
0.0
 10
-9.887456277816341
 20
1.213840749072841
 42
-0.0624962416743304
 10
-9.998493928201356
 20
1.227774041116175
 42
-0.0818514225363451
  0
LWPOLYLINE
  5
3F
330
2
100
AcDbEntity
  8
0
100
AcDbPolyline
 90
        3
 70
     0
 43
0.0
 10
-10.06169096207906
 20
1.25023964719824
 42
-0.0411134117556526
 10
-10.10865646907357
 20
1.277398577555357
 42
-0.0210139430678612
 10
-10.12488799595676
 20
1.289699315966343
 42
-0.135394011665182
  0
LWPOLYLINE
  5
40
330
2
100
AcDbEntity
  8
0
100
AcDbPolyline
 90
        3
 70
     0
 43
0.0
 10
-10.18808502983445
 20
1.370939918970604
 42
-0.1007643090488704
 10
-10.20028058829185
 20
1.43084074907284
 42
-0.1007643090488685
 10
-10.18808502983445
 20
1.490741579175077
 42
-0.1069100077216599
  0
LINE
  5
41
330
2
100
AcDbEntity
  8
0
100
AcDbLine
 10
-8.717456277816346
 20
-0.0625
 30
0.0
 11
-8.717456277816346
 21
0.5504026429625029
 31
0.0
  0
ARC
  5
42
330
2
100
AcDbEntity
  8
0
100
AcDbCircle
 10
-8.842456277816339
 20
0.5504026429624993
 30
0.0
 40
0.125
100
AcDbArc
 50
0.000000000000007
 51
34.99999999999994
  0
LINE
  5
43
330
2
100
AcDbEntity
  8
0
100
AcDbLine
 10
-9.949956277816341
 20
2.4375
 30
0.0
 11
-9.949956277816341
 21
3.0625
 31
0.0
  0
ARC
  5
44
330
2
100
AcDbEntity
  8
0
100
AcDbCircle
 10
-10.88745627781634
 20
2.500530000000001
 30
0.0
 40
0.156
100
AcDbArc
 50
270.0
 51
90.0
  0
LWPOLYLINE
  5
45
330
2
100
AcDbEntity
  8
0
100
AcDbPolyline
 90
        2
 70
     0
 43
0.0
 10
-9.998493928201356
 20
1.633907457029506
 42
-0.0624962416743307
 10
-9.887456277816341
 20
1.647840749072853
 42
-0.0700628980345371
  0
LWPOLYLINE
  5
46
330
2
100
AcDbEntity
  8
0
100
AcDbPolyline
 90
        3
 70
     0
 43
0.0
 10
-10.12488799595676
 20
1.571982182179338
 42
-0.0210139430678583
 10
-10.10865646907358
 20
1.584282920590323
 42
-0.0411134117556535
 10
-10.06169096207906
 20
1.611441850947455
 42
-0.0433120578453059
  0
ARC
  5
47
330
2
100
AcDbEntity
  8
0
100
AcDbCircle
 10
-9.762456277816337
 20
2.437500000000004
 30
0.0
 40
0.1875
100
AcDbArc
 50
180.0
 51
210.2026586833964
  0
ARC
  5
48
330
2
100
AcDbEntity
  8
0
100
AcDbCircle
 10
-9.825456277816333
 20
3.432300000000016
 30
0.0
 40
0.1875
100
AcDbArc
 50
289.6333588975684
 51
0.000000000000007
  0
ARC
  5
49
330
2
100
AcDbEntity
  8
0
100
AcDbCircle
 10
-9.762456277816337
 20
3.062500000000004
 30
0.0
 40
0.1875
100
AcDbArc
 50
90.0
 51
180.0
  0
LWPOLYLINE
  5
4A
330
2
100
AcDbEntity
  8
0
100
AcDbPolyline
 90
        2
 70
     0
 43
0.0
 10
-9.998493928201356
 20
4.108482012664014
 42
-0.0624962416743307
 10
-9.887456277816341
 20
4.122415304707362
 42
-0.0700628980345371
  0
LWPOLYLINE
  5
4B
330
2
100
AcDbEntity
  8
0
100
AcDbPolyline
 90
        2
 70
     0
 43
0.0
 10
-9.887456277816341
 20
3.68841530470735
 42
-0.0624962416743304
 10
-9.998493928201356
 20
3.702348596750683
 42
-0.0818514225363451
  0
LINE
  5
4C
330
2
100
AcDbEntity
  8
0
100
AcDbLine
 10
-9.887456277816341
 20
3.68841530470735
 30
0.0
 11
-9.887456277816341
 21
4.122415304707348
 31
0.0
  0
LWPOLYLINE
  5
4D
330
2
100
AcDbEntity
  8
0
100
AcDbPolyline
 90
        9
 70
     0
 43
0.0
 10
-9.887456277816341
 20
3.734415304707357
 42
-0.1432467981947568
 10
-9.927024357589602
 20
3.745988789995581
 42
-0.1071754848060475
 10
-9.96574775519052
 20
3.784500045124448
 42
-0.0783035184710328
 10
-9.989193508323638
 20
3.837239267635498
 42
-0.0656020556757086
 10
-9.998177146937138
 20
3.905415304707349
 42
-0.0656020556757101
 10
-9.989193508323638
 20
3.9735913417792
 42
-0.0783035184710357
 10
-9.96574775519052
 20
4.02633056429025
 42
-0.1071754848060445
 10
-9.927024357589602
 20
4.064841819419117
 42
-0.1432467981947535
 10
-9.887456277816341
 20
4.076415304707355
 42
-0.1432467981947515
  0
LWPOLYLINE
  5
4E
330
2
100
AcDbEntity
  8
0
100
AcDbPolyline
 90
        9
 70
     0
 43
0.0
 10
-9.887456277816341
 20
3.780415304707349
 42
-0.147269582437036
 10
-9.915215372973265
 20
3.788772703433297
 42
-0.1071386913803464
 10
-9.942747755190524
 20
3.81702695705903
 42
-0.0765137470862007
 10
-9.959284090950149
 20
3.855465761818495
 42
-0.063469041210727
 10
-9.965650235002556
 20
3.905415304707349
 42
-0.0634690412107267
 10
-9.959284090950149
 20
3.955364847596202
 42
-0.0765137470862059
 10
-9.942747755190524
 20
3.993803652355668
 42
-0.1071386913803463
 10
-9.915215372973265
 20
4.0220579059814
 42
-0.1472695824370325
 10
-9.887456277816341
 20
4.030415304707349
 42
-0.1472695824370333
  0
LWPOLYLINE
  5
4F
330
2
100
AcDbEntity
  8
0
100
AcDbPolyline
 90
        3
 70
     0
 43
0.0
 10
-10.12488799595676
 20
4.046556737813846
 42
-0.0210139430678583
 10
-10.10865646907358
 20
4.058857476224832
 42
-0.0411134117556535
 10
-10.06169096207906
 20
4.086016406581964
 42
-0.0433120578453059
  0
LWPOLYLINE
  5
50
330
2
100
AcDbEntity
  8
0
100
AcDbPolyline
 90
        3
 70
     0
 43
0.0
 10
-10.06169096207906
 20
3.724814202832748
 42
-0.0411134117556526
 10
-10.10865646907357
 20
3.751973133189866
 42
-0.0210139430678612
 10
-10.12488799595676
 20
3.764273871600851
 42
-0.135394011665182
  0
LWPOLYLINE
  5
51
330
2
100
AcDbEntity
  8
0
100
AcDbPolyline
 90
        3
 70
     0
 43
0.0
 10
-10.18808502983445
 20
3.845514474605112
 42
-0.1007643090488704
 10
-10.20028058829185
 20
3.905415304707349
 42
-0.1007643090488685
 10
-10.18808502983445
 20
3.965316134809585
 42
-0.1069100077216599
  0
LINE
  5
52
330
2
100
AcDbEntity
  8
0
100
AcDbLine
 10
-2.905749999999998
 20
2.5
 30
0.0
 11
-2.905749999999998
 21
3.125
 31
0.0
  0
CIRCLE
  5
53
330
2
100
AcDbEntity
  8
0
100
AcDbCircle
 10
-2.59375
 20
2.75
 30
0.0
 40
0.0855
  0
ARC
  5
54
330
2
100
AcDbEntity
  8
0
100
AcDbCircle
 10
-2.718249999999998
 20
2.5
 30
0.0
 40
0.1875
100
AcDbArc
 50
180.0
 51
210.2026586833964
  0
ARC
  5
55
330
2
100
AcDbEntity
  8
0
100
AcDbCircle
 10
-2.78125
 20
3.494800000000002
 30
0.0
 40
0.1875
100
AcDbArc
 50
289.6333588975685
 51
0.0
  0
ARC
  5
56
330
2
100
AcDbEntity
  8
0
100
AcDbCircle
 10
-2.718249999999998
 20
3.125
 30
0.0
 40
0.1875
100
AcDbArc
 50
90.0
 51
180.0
  0
LINE
  5
57
330
2
100
AcDbEntity
  8
0
100
AcDbLine
 10
-9.949956277816341
 20
6.4375
 30
0.0
 11
-9.949956277816341
 21
7.0625
 31
0.0
  0
ARC
  5
58
330
2
100
AcDbEntity
  8
0
100
AcDbCircle
 10
-9.762456277816337
 20
5.062500000000004
 30
0.0
 40
0.1875
100
AcDbArc
 50
90.0
 51
180.0
  0
LINE
  5
59
330
2
100
AcDbEntity
  8
0
100
AcDbLine
 10
-9.949956277816341
 20
4.4375
 30
0.0
 11
-9.949956277816341
 21
5.0625
 31
0.0
  0
ARC
  5
5A
330
2
100
AcDbEntity
  8
0
100
AcDbCircle
 10
-9.825456277816333
 20
4.067700000000006
 30
0.0
 40
0.1875
100
AcDbArc
 50
0.000000000000007
 51
90.0
  0
ARC
  5
5B
330
2
100
AcDbEntity
  8
0
100
AcDbCircle
 10
-9.762456277816337
 20
4.437500000000004
 30
0.0
 40
0.1875
100
AcDbArc
 50
180.0
 51
250.3666411024103
  0
LINE
  5
5C
330
2
100
AcDbEntity
  8
0
100
AcDbLine
 10
-9.637956277816336
 20
5.432299788214721
 30
0.0
 11
-9.637956277816336
 21
6.067700000000002
 31
0.0
  0
ARC
  5
5D
330
2
100
AcDbEntity
  8
0
100
AcDbCircle
 10
-9.825456277816333
 20
5.432300000000016
 30
0.0
 40
0.1875
100
AcDbArc
 50
289.6333588975684
 51
0.000000000000007
  0
LWPOLYLINE
  5
5E
330
2
100
AcDbEntity
  8
0
100
AcDbPolyline
 90
        2
 70
     0
 43
0.0
 10
-9.998493928201356
 20
6.133031403249333
 42
-0.0624962416743307
 10
-9.887456277816341
 20
6.14696469529268
 42
-0.0700628980345371
  0
LWPOLYLINE
  5
5F
330
2
100
AcDbEntity
  8
0
100
AcDbPolyline
 90
        2
 70
     0
 43
0.0
 10
-9.887456277816341
 20
5.712964695292668
 42
-0.0624962416743304
 10
-9.998493928201356
 20
5.726897987336002
 42
-0.0818514225363451
  0
LINE
  5
60
330
2
100
AcDbEntity
  8
0
100
AcDbLine
 10
-9.887456277816341
 20
5.712964695292668
 30
0.0
 11
-9.887456277816341
 21
6.146964695292666
 31
0.0
  0
LWPOLYLINE
  5
61
330
2
100
AcDbEntity
  8
0
100
AcDbPolyline
 90
        9
 70
     0
 43
0.0
 10
-9.887456277816341
 20
5.804964695292667
 42
-0.147269582437036
 10
-9.915215372973265
 20
5.813322094018615
 42
-0.1071386913803464
 10
-9.942747755190524
 20
5.841576347644348
 42
-0.0765137470862007
 10
-9.959284090950149
 20
5.880015152403813
 42
-0.063469041210727
 10
-9.965650235002556
 20
5.929964695292667
 42
-0.0634690412107267
 10
-9.959284090950149
 20
5.979914238181521
 42
-0.0765137470862059
 10
-9.942747755190524
 20
6.018353042940986
 42
-0.1071386913803463
 10
-9.915215372973265
 20
6.046607296566719
 42
-0.1472695824370325
 10
-9.887456277816341
 20
6.054964695292667
 42
-0.1472695824370333
  0
LWPOLYLINE
  5
62
330
2
100
AcDbEntity
  8
0
100
AcDbPolyline
 90
        9
 70
     0
 43
0.0
 10
-9.887456277816341
 20
5.758964695292675
 42
-0.1432467981947568
 10
-9.927024357589602
 20
5.770538180580899
 42
-0.1071754848060475
 10
-9.96574775519052
 20
5.809049435709766
 42
-0.0783035184710328
 10
-9.989193508323638
 20
5.861788658220816
 42
-0.0656020556757086
 10
-9.998177146937138
 20
5.929964695292667
 42
-0.0656020556757101
 10
-9.989193508323638
 20
5.998140732364518
 42
-0.0783035184710357
 10
-9.96574775519052
 20
6.050879954875568
 42
-0.1071754848060445
 10
-9.927024357589602
 20
6.089391210004435
 42
-0.1432467981947535
 10
-9.887456277816341
 20
6.100964695292674
 42
-0.1432467981947515
  0
LWPOLYLINE
  5
63
330
2
100
AcDbEntity
  8
0
100
AcDbPolyline
 90
        3
 70
     0
 43
0.0
 10
-10.12488799595676
 20
6.071106128399165
 42
-0.0210139430678583
 10
-10.10865646907358
 20
6.08340686681015
 42
-0.0411134117556535
 10
-10.06169096207906
 20
6.110565797167282
 42
-0.0433120578453059
  0
LWPOLYLINE
  5
64
330
2
100
AcDbEntity
  8
0
100
AcDbPolyline
 90
        3
 70
     0
 43
0.0
 10
-10.06169096207906
 20
5.749363593418067
 42
-0.0411134117556526
 10
-10.10865646907357
 20
5.776522523775184
 42
-0.0210139430678612
 10
-10.12488799595676
 20
5.78882326218617
 42
-0.135394011665182
  0
LWPOLYLINE
  5
65
330
2
100
AcDbEntity
  8
0
100
AcDbPolyline
 90
        3
 70
     0
 43
0.0
 10
-10.18808502983445
 20
5.87006386519043
 42
-0.1007643090488704
 10
-10.20028058829185
 20
5.929964695292667
 42
-0.1007643090488685
 10
-10.18808502983445
 20
5.989865525394904
 42
-0.1069100077216599
  0
ARC
  5
66
330
2
100
AcDbEntity
  8
0
100
AcDbCircle
 10
-9.825456277816333
 20
6.067700000000006
 30
0.0
 40
0.1875
100
AcDbArc
 50
0.000000000000007
 51
90.0
  0
ARC
  5
67
330
2
100
AcDbEntity
  8
0
100
AcDbCircle
 10
-9.762456277816337
 20
6.437500000000004
 30
0.0
 40
0.1875
100
AcDbArc
 50
180.0
 51
250.3666411024103
  0
LINE
  5
68
330
2
100
AcDbEntity
  8
0
100
AcDbLine
 10
-9.637956277816336
 20
7.432300000000012
 30
0.0
 11
-9.637956277816336
 21
8.067700227943945
 31
0.0
  0
ARC
  5
69
330
2
100
AcDbEntity
  8
0
100
AcDbCircle
 10
-9.751166739998457
 20
7.057160356708952
 30
0.0
 40
0.198861238395826
100
AcDbArc
 50
93.25448456194559
 51
178.4613602840799
  0
ARC
  5
6A
330
2
100
AcDbEntity
  8
0
100
AcDbCircle
 10
-9.825456277816333
 20
7.432300000000016
 30
0.0
 40
0.1875
100
AcDbArc
 50
289.6333588975684
 51
0.000000000000007
  0
ARC
  5
6B
330
2
100
AcDbEntity
  8
0
100
AcDbCircle
 10
-9.762456277816337
 20
8.437500000000004
 30
0.0
 40
0.1875
100
AcDbArc
 50
180.0
 51
257.2535862916184
  0
ARC
  5
6C
330
2
100
AcDbEntity
  8
0
100
AcDbCircle
 10
-9.826117066492142
 20
8.067785021508943
 30
0.0
 40
0.1881608078845258
100
AcDbArc
 50
359.9741105820586
 51
83.19617282319445
  0
ARC
  5
6D
330
2
100
AcDbEntity
  8
0
100
AcDbCircle
 10
-2.718249999999998
 20
6.5
 30
0.0
 40
0.1875
100
AcDbArc
 50
180.0
 51
250.3666411024103
  0
CIRCLE
  5
6E
330
2
100
AcDbEntity
  8
0
100
AcDbCircle
 10
-2.59375
 20
6.5
 30
0.0
 40
0.0855
  0
ARC
  5
6F
330
2
100
AcDbEntity
  8
0
100
AcDbCircle
 10
-2.718249999999998
 20
5.125
 30
0.0
 40
0.1875
100
AcDbArc
 50
90.0
 51
180.0
  0
LINE
  5
70
330
2
100
AcDbEntity
  8
0
100
AcDbLine
 10
-2.905750000000001
 20
4.5
 30
0.0
 11
-2.905750000000001
 21
5.125
 31
0.0
  0
ARC
  5
71
330
2
100
AcDbEntity
  8
0
100
AcDbCircle
 10
-2.718249999999998
 20
4.5
 30
0.0
 40
0.1875
100
AcDbArc
 50
180.0
 51
250.3666411024103
  0
ARC
  5
72
330
2
100
AcDbEntity
  8
0
100
AcDbCircle
 10
-2.78125
 20
4.130199999999999
 30
0.0
 40
0.1875
100
AcDbArc
 50
0.0
 51
90.0
  0
CIRCLE
  5
73
330
2
100
AcDbEntity
  8
0
100
AcDbCircle
 10
-2.59375
 20
4.5
 30
0.0
 40
0.0855
  0
LINE
  5
74
330
2
100
AcDbEntity
  8
0
100
AcDbLine
 10
-2.59375
 20
5.494799788214706
 30
0.0
 11
-2.59375
 21
6.130199999999999
 31
0.0
  0
ARC
  5
75
330
2
100
AcDbEntity
  8
0
100
AcDbCircle
 10
-2.78125
 20
5.494800000000002
 30
0.0
 40
0.1875
100
AcDbArc
 50
289.6333588975685
 51
0.0
  0
ARC
  5
76
330
2
100
AcDbEntity
  8
0
100
AcDbCircle
 10
-2.78125
 20
6.130199999999999
 30
0.0
 40
0.1875
100
AcDbArc
 50
0.0
 51
90.0
  0
LINE
  5
77
330
2
100
AcDbEntity
  8
0
100
AcDbLine
 10
-2.59375
 20
7.494800000000002
 30
0.0
 11
-2.59375
 21
8.130200227943934
 31
0.0
  0
LINE
  5
78
330
2
100
AcDbEntity
  8
0
100
AcDbLine
 10
-2.905750000000001
 20
6.5
 30
0.0
 11
-2.905749999999998
 21
7.125
 31
0.0
  0
ARC
  5
79
330
2
100
AcDbEntity
  8
0
100
AcDbCircle
 10
-2.706960462182121
 20
7.119660356708938
 30
0.0
 40
0.198861238395826
100
AcDbArc
 50
93.25448456194563
 51
178.46136028408
  0
ARC
  5
7A
330
2
100
AcDbEntity
  8
0
100
AcDbCircle
 10
-2.78125
 20
7.494800000000002
 30
0.0
 40
0.1875
100
AcDbArc
 50
289.6333588975685
 51
0.0
  0
ARC
  5
7B
330
2
100
AcDbEntity
  8
0
100
AcDbCircle
 10
-2.718249999999998
 20
8.5
 30
0.0
 40
0.1875
100
AcDbArc
 50
180.0
 51
257.2535862916184
  0
ARC
  5
7C
330
2
100
AcDbEntity
  8
0
100
AcDbCircle
 10
-2.781910788675802
 20
8.130285021508932
 30
0.0
 40
0.1881608078845258
100
AcDbArc
 50
359.9741105820587
 51
83.19617282319443
  0
CIRCLE
  5
7D
330
2
100
AcDbEntity
  8
0
100
AcDbCircle
 10
-2.59375
 20
8.5
 30
0.0
 40
0.0855
  0
ARC
  5
7E
330
2
100
AcDbEntity
  8
0
100
AcDbCircle
 10
-9.825595347959773
 20
10.06771585931207
 30
0.0
 40
0.18763907079723
100
AcDbArc
 50
359.9952166689049
 51
80.55035918183468
  0
ARC
  5
7F
330
2
100
AcDbEntity
  8
0
100
AcDbCircle
 10
-9.76245627781633
 20
10.4375
 30
0.0
 40
0.1875
100
AcDbArc
 50
180.0
 51
260.07032623725
  0
LINE
  5
80
330
2
100
AcDbEntity
  8
0
100
AcDbLine
 10
-10.88745627781634
 20
10.125
 30
0.0
 11
-10.57495627781634
 21
9.875
 31
0.0
  0
LINE
  5
81
330
2
100
AcDbEntity
  8
0
100
AcDbLine
 10
-10.57495627781634
 20
9.875
 30
0.0
 11
-10.88745627781634
 21
9.6875
 31
0.0
  0
LINE
  5
82
330
2
100
AcDbEntity
  8
0
100
AcDbLine
 10
-10.88745627781634
 20
9.75
 30
0.0
 11
-10.66604627781634
 21
9.879390000000001
 31
0.0
  0
LINE
  5
83
330
2
100
AcDbEntity
  8
0
100
AcDbLine
 10
-10.66604627781634
 20
9.879390000000001
 30
0.0
 11
-10.88745627781634
 21
10.0625
 31
0.0
  0
LINE
  5
84
330
2
100
AcDbEntity
  8
0
100
AcDbLine
 10
-10.88745627781634
 20
9.6875
 30
0.0
 11
-10.88745627781634
 21
9.75
 31
0.0
  0
LINE
  5
85
330
2
100
AcDbEntity
  8
0
100
AcDbLine
 10
-9.637956277816336
 20
9.432300000000005
 30
0.0
 11
-9.637956277816336
 21
10.06773152105807
 31
0.0
  0
ARC
  5
86
330
2
100
AcDbEntity
  8
0
100
AcDbCircle
 10
-9.825456277816333
 20
9.432300000000009
 30
0.0
 40
0.1875
100
AcDbArc
 50
289.6333588975684
 51
0.000000000000007
  0
ARC
  5
87
330
2
100
AcDbEntity
  8
0
100
AcDbCircle
 10
-9.762456277816337
 20
9.062500000000004
 30
0.0
 40
0.1875
100
AcDbArc
 50
90.0
 51
180.0
  0
LINE
  5
88
330
2
100
AcDbEntity
  8
0
100
AcDbLine
 10
-9.949956277816341
 20
10.75
 30
0.0
 11
-10.94995627781634
 21
10.75
 31
0.0
  0
LINE
  5
89
330
2
100
AcDbEntity
  8
0
100
AcDbLine
 10
-9.949956277816341
 20
10.4375
 30
0.0
 11
-9.949956277816341
 21
10.75
 31
0.0
  0
ARC
  5
8A
330
2
100
AcDbEntity
  8
0
100
AcDbCircle
 10
-2.781389070143433
 20
10.13021585931206
 30
0.0
 40
0.18763907079723
100
AcDbArc
 50
359.995216668905
 51
80.55035918183469
  0
LINE
  5
8B
330
2
100
AcDbEntity
  8
0
100
AcDbLine
 10
-2.59375
 20
9.494800000000002
 30
0.0
 11
-2.5937500000001
 21
10.13020019428737
 31
0.0
  0
ARC
  5
8C
330
2
100
AcDbEntity
  8
0
100
AcDbCircle
 10
-2.718249999999998
 20
9.125
 30
0.0
 40
0.1875
100
AcDbArc
 50
90.0
 51
180.0
  0
ARC
  5
8D
330
2
100
AcDbEntity
  8
0
100
AcDbCircle
 10
-2.78125
 20
9.494800000000002
 30
0.0
 40
0.1875
100
AcDbArc
 50
289.6333588975685
 51
0.0
  0
ARC
  5
8E
330
2
100
AcDbEntity
  8
0
100
AcDbCircle
 10
-2.718249999999998
 20
10.5
 30
0.0
 40
0.1875
100
AcDbArc
 50
180.0
 51
260.0703262372501
  0
LINE
  5
8F
330
2
100
AcDbEntity
  8
0
100
AcDbLine
 10
-2.905749999999998
 20
10.5
 30
0.0
 11
-2.905749999999998
 21
10.8125
 31
0.0
  0
CIRCLE
  5
90
330
2
100
AcDbEntity
  8
0
100
AcDbCircle
 10
-2.59375
 20
10.5
 30
0.0
 40
0.0855
  0
LINE
  5
93
330
2
100
AcDbEntity
  8
0
100
AcDbLine
 10
-2.90625
 20
16.75708278688223
 30
0.0
 11
-2.90625
 21
16.69458278688223
 31
0.0
  0
LINE
  5
94
330
2
100
AcDbEntity
  8
0
100
AcDbLine
 10
9.444962094764378
 20
9.0625
 30
0.0
 11
9.444962094764378
 21
8.875
 31
0.0
  0
LINE
  5
95
330
2
100
AcDbEntity
  8
0
100
AcDbLine
 10
9.444962094764378
 20
8.4375
 30
0.0
 11
9.444962094764378
 21
9.0625
 31
0.0
  0
LINE
  5
96
330
2
100
AcDbEntity
  8
0
100
AcDbLine
 10
10.38246209476438
 20
0.752600152718518
 30
0.0
 11
10.38246209476438
 21
10.75
 31
0.0
  0
LINE
  5
97
330
2
100
AcDbEntity
  8
0
100
AcDbLine
 10
10.44496209476437
 20
0.8418594031398854
 30
0.0
 11
10.44496209476438
 21
10.75
 31
0.0
  0
LINE
  5
98
330
2
100
AcDbEntity
  8
0
100
AcDbLine
 10
2.905250000000002
 20
8.5
 30
0.0
 11
2.905250000000002
 21
9.125
 31
0.0
  0
LINE
  5
99
330
2
100
AcDbEntity
  8
0
100
AcDbLine
 10
-1.78125
 20
0.875
 30
0.0
 11
-1.78125
 21
10.8125
 31
0.0
  0
LINE
  5
9A
330
2
100
AcDbEntity
  8
0
100
AcDbLine
 10
-1.84375
 20
0.875
 30
0.0
 11
-1.84375
 21
10.8125
 31
0.0
  0
LINE
  5
9B
330
2
100
AcDbEntity
  8
0
100
AcDbLine
 10
1.78125
 20
0.875
 30
0.0
 11
1.78125
 21
10.8125
 31
0.0
  0
LINE
  5
9C
330
2
100
AcDbEntity
  8
0
100
AcDbLine
 10
1.84375
 20
0.875
 30
0.0
 11
1.84375
 21
10.8125
 31
0.0
  0
LWPOLYLINE
  5
9D
330
2
100
AcDbEntity
  8
0
100
AcDbPolyline
 90
        9
 70
     0
 43
0.0
 10
-1.889750000000007
 20
4.016242907707035
 42
0.0153261494161413
 10
-1.899225809788128
 20
4.013131710069285
 42
0.0930716558460877
 10
-1.944708522625817
 20
3.986268347648316
 42
0.1028033143861014
 10
-1.97597202811167
 20
3.944868996109857
 42
0.1109302324921724
 10
-1.986526911934583
 20
3.897879999999997
 42
0.1109302324921716
 10
-1.97597202811167
 20
3.850891003890144
 42
0.1028033143861016
 10
-1.944708522625817
 20
3.809491652351678
 42
0.09307165584609
 10
-1.899225809788128
 20
3.78262828993071
 42
0.0153261494161413
 10
-1.889750000000007
 20
3.779517092292959
 42
0.0871927587990183
  0
LWPOLYLINE
  5
9E
330
2
100
AcDbEntity
  8
0
100
AcDbPolyline
 90
        9
 70
     0
 43
0.0
 10
-1.889750000000007
 20
4.062889969296041
 42
0.031262465828346
 10
-1.91104011366928
 20
4.055799582950751
 42
0.0975534324105893
 10
-1.96770852262582
 20
4.018795259582898
 42
0.0993905513083445
 10
-2.005777058421892
 20
3.963114201183988
 42
0.1007297757250654
 10
-2.019053823869164
 20
3.897879999999997
 42
0.100729775725069
 10
-2.005777058421892
 20
3.832645798816007
 42
0.0993905513083442
 10
-1.96770852262582
 20
3.776964740417096
 42
0.0975534324105872
 10
-1.91104011366928
 20
3.739960417049243
 42
0.0312624658283472
 10
-1.889750000000007
 20
3.73287003070396
 42
0.0962929789913506
  0
LINE
  5
9F
330
2
100
AcDbEntity
  8
0
100
AcDbLine
 10
2.593250000000001
 20
4.130199999999999
 30
0.0
 11
2.593250000000001
 21
3.494800000000002
 31
0.0
  0
LINE
  5
A0
330
2
100
AcDbEntity
  8
0
100
AcDbLine
 10
1.843250000000001
 20
0.6249000000000002
 30
0.0
 11
2.879797148656213
 21
2.405676240467251
 31
0.0
  0
LWPOLYLINE
  5
A1
330
2
100
AcDbEntity
  8
0
100
AcDbPolyline
 90
        9
 70
     0
 43
0.0
 10
-1.889750000000007
 20
1.546092907707049
 42
0.0153261494161413
 10
-1.899225809788128
 20
1.542981710069299
 42
0.0930716558460877
 10
-1.944708522625817
 20
1.51611834764833
 42
0.1028033143861014
 10
-1.97597202811167
 20
1.474718996109871
 42
0.1109302324921724
 10
-1.986526911934583
 20
1.427730000000011
 42
0.1109302324921716
 10
-1.97597202811167
 20
1.380741003890158
 42
0.1028033143861016
 10
-1.944708522625817
 20
1.339341652351692
 42
0.09307165584609
 10
-1.899225809788128
 20
1.312478289930724
 42
0.0153261494161413
 10
-1.889750000000007
 20
1.309367092292973
 42
0.0871927587990183
  0
LWPOLYLINE
  5
A2
330
2
100
AcDbEntity
  8
0
100
AcDbPolyline
 90
        9
 70
     0
 43
0.0
 10
-1.889750000000007
 20
1.592739969296055
 42
0.031262465828346
 10
-1.91104011366928
 20
1.585649582950765
 42
0.0975534324105893
 10
-1.96770852262582
 20
1.548645259582912
 42
0.0993905513083445
 10
-2.005777058421892
 20
1.492964201184002
 42
0.1007297757250654
 10
-2.019053823869164
 20
1.427730000000011
 42
0.100729775725069
 10
-2.005777058421892
 20
1.362495798816021
 42
0.0993905513083442
 10
-1.96770852262582
 20
1.30681474041711
 42
0.0975534324105872
 10
-1.91104011366928
 20
1.269810417049257
 42
0.0312624658283472
 10
-1.889750000000007
 20
1.262720030703974
 42
0.0962929789913506
  0
LINE
  5
A3
330
2
100
AcDbEntity
  8
0
100
AcDbLine
 10
1.84375
 20
1.727427300392492
 30
0.0
 11
1.84375
 21
0.9375
 31
0.0
  0
LINE
  5
A4
330
2
100
AcDbEntity
  8
0
100
AcDbLine
 10
-1.71875
 20
0.0
 30
0.0
 11
1.71875
 21
0.0
 31
0.0
  0
LINE
  5
A5
330
2
100
AcDbEntity
  8
0
100
AcDbLine
 10
-1.719249999999999
 20
0.0625
 30
0.0
 11
1.71875
 21
0.0625
 31
0.0
  0
LINE
  5
A6
330
2
100
AcDbEntity
  8
0
100
AcDbLine
 10
-1.78125
 20
0.1245000000000012
 30
0.0
 11
-1.78125
 21
0.875
 31
0.0
  0
LINE
  5
A7
330
2
100
AcDbEntity
  8
0
100
AcDbLine
 10
-1.84375
 20
0.125
 30
0.0
 11
-1.84375
 21
0.875
 31
0.0
  0
ARC
  5
A8
330
2
100
AcDbEntity
  8
0
100
AcDbCircle
 10
-1.719249999999999
 20
0.1245000000000012
 30
0.0
 40
0.062
100
AcDbArc
 50
180.0
 51
270.0
  0
ARC
  5
A9
330
2
100
AcDbEntity
  8
0
100
AcDbCircle
 10
-1.71875
 20
0.125
 30
0.0
 40
0.125
100
AcDbArc
 50
180.0
 51
270.0
  0
POINT
  5
AA
330
2
100
AcDbEntity
  8
0
100
AcDbPoint
 10
-1.84375
 20
1.177730000000015
 30
0.0
  0
ARC
  5
AB
330
2
100
AcDbEntity
  8
0
100
AcDbCircle
 10
-1.895738878756845
 20
1.21107608987996
 30
0.0
 40
0.0519900307039585
100
AcDbArc
 50
359.6185877246039
 51
83.38525270417914
  0
ARC
  5
AC
330
2
100
AcDbEntity
  8
0
100
AcDbCircle
 10
-1.896386839002005
 20
1.210953534568084
 30
0.0
 40
0.0986370922929614
100
AcDbArc
 50
57.74817661148475
 51
86.14191405494711
  0
LINE
  5
AD
330
2
100
AcDbEntity
  8
0
100
AcDbLine
 10
1.84375
 20
0.125
 30
0.0
 11
1.84375
 21
0.875
 31
0.0
  0
LINE
  5
AE
330
2
100
AcDbEntity
  8
0
100
AcDbLine
 10
1.78125
 20
0.1245000000000012
 30
0.0
 11
1.78125
 21
0.875
 31
0.0
  0
ARC
  5
AF
330
2
100
AcDbEntity
  8
0
100
AcDbCircle
 10
1.71875
 20
0.125
 30
0.0
 40
0.125
100
AcDbArc
 50
270.0
 51
0.0
  0
ARC
  5
B0
330
2
100
AcDbEntity
  8
0
100
AcDbCircle
 10
1.719250000000001
 20
0.1245000000000012
 30
0.0
 40
0.062
100
AcDbArc
 50
270.0
 51
0.0
  0
ARC
  5
B1
330
2
100
AcDbEntity
  8
0
100
AcDbCircle
 10
-1.896386839002005
 20
1.644506465431945
 30
0.0
 40
0.0986370922929614
100
AcDbArc
 50
273.8580859450529
 51
302.2518233885157
  0
ARC
  5
B2
330
2
100
AcDbEntity
  8
0
100
AcDbCircle
 10
-1.895738878756845
 20
1.64438391012007
 30
0.0
 40
0.0519900307039585
100
AcDbArc
 50
276.6147472958209
 51
0.3814122753966671
  0
ARC
  5
B3
330
2
100
AcDbEntity
  8
0
100
AcDbCircle
 10
-1.84375
 20
2.5625
 30
0.0
 40
0.156
100
AcDbArc
 50
90.0
 51
270.0
  0
ARC
  5
B4
330
2
100
AcDbEntity
  8
0
100
AcDbCircle
 10
-1.896386839002005
 20
3.68110353456807
 30
0.0
 40
0.0986370922929614
100
AcDbArc
 50
57.74817661148475
 51
86.14191405494711
  0
POINT
  5
B5
330
2
100
AcDbEntity
  8
0
100
AcDbPoint
 10
-1.84375
 20
3.647880000000001
 30
0.0
  0
ARC
  5
B6
330
2
100
AcDbEntity
  8
0
100
AcDbCircle
 10
-1.895738878756845
 20
3.681226089879946
 30
0.0
 40
0.0519900307039585
100
AcDbArc
 50
359.6185877246039
 51
83.38525270417914
  0
LWPOLYLINE
  5
B7
330
2
100
AcDbEntity
  8
0
100
AcDbPolyline
 90
        9
 70
     0
 43
0.0
 10
1.889750000000008
 20
1.930862907707049
 42
-0.0153261494161413
 10
1.899225809788129
 20
1.927751710069298
 42
-0.0930716558460877
 10
1.944708522625819
 20
1.90088834764833
 42
-0.1028033143861014
 10
1.975972028111672
 20
1.859488996109871
 42
-0.1109302324921724
 10
1.986526911934584
 20
1.812500000000011
 42
-0.1109302324921716
 10
1.975972028111672
 20
1.765511003890158
 42
-0.1028033143861016
 10
1.944708522625819
 20
1.724111652351692
 42
-0.09307165584609
 10
1.899225809788129
 20
1.697248289930723
 42
-0.0153261494161413
 10
1.889750000000008
 20
1.694137092292973
 42
-0.0871927587990183
  0
ARC
  5
B8
330
2
100
AcDbEntity
  8
0
100
AcDbCircle
 10
1.896386839002007
 20
1.595723534568084
 30
0.0
 40
0.0986370922929614
100
AcDbArc
 50
93.85808594505291
 51
122.2518233885153
  0
ARC
  5
B9
330
2
100
AcDbEntity
  8
0
100
AcDbCircle
 10
1.896386839002007
 20
2.029276465431945
 30
0.0
 40
0.0986370922929614
100
AcDbArc
 50
237.7481766114843
 51
266.1419140549471
  0
ARC
  5
BA
330
2
100
AcDbEntity
  8
0
100
AcDbCircle
 10
1.895738878756847
 20
2.029153910120069
 30
0.0
 40
0.0519900307039585
100
AcDbArc
 50
179.6185877246033
 51
263.3852527041792
  0
POINT
  5
BB
330
2
100
AcDbEntity
  8
0
100
AcDbPoint
 10
1.843750000000002
 20
1.562500000000014
 30
0.0
  0
ARC
  5
BC
330
2
100
AcDbEntity
  8
0
100
AcDbCircle
 10
1.895738878756847
 20
1.595846089879959
 30
0.0
 40
0.0519900307039585
100
AcDbArc
 50
96.61474729582088
 51
180.3814122753961
  0
LWPOLYLINE
  5
BD
330
2
100
AcDbEntity
  8
0
100
AcDbPolyline
 90
        9
 70
     0
 43
0.0
 10
1.889750000000008
 20
1.977509969296055
 42
-0.031262465828346
 10
1.911040113669282
 20
1.970419582950765
 42
-0.0975534324105893
 10
1.967708522625822
 20
1.933415259582912
 42
-0.0993905513083445
 10
2.005777058421893
 20
1.877734201184001
 42
-0.1007297757250654
 10
2.019053823869166
 20
1.812500000000011
 42
-0.100729775725069
 10
2.005777058421893
 20
1.74726579881602
 42
-0.0993905513083442
 10
1.967708522625822
 20
1.69158474041711
 42
-0.0975534324105872
 10
1.911040113669282
 20
1.654580417049257
 42
-0.0312624658283472
 10
1.889750000000008
 20
1.647490030703974
 42
-0.0962929789913506
  0
ARC
  5
BE
330
2
100
AcDbEntity
  8
0
100
AcDbCircle
 10
1.84375
 20
2.5625
 30
0.0
 40
0.156
100
AcDbArc
 50
270.0
 51
90.0
  0
LWPOLYLINE
  5
BF
330
2
100
AcDbEntity
  8
0
100
AcDbPolyline
 90
        9
 70
     0
 43
0.0
 10
1.889750000000007
 20
3.665009969296044
 42
-0.031262465828346
 10
1.91104011366928
 20
3.657919582950754
 42
-0.0975534324105893
 10
1.96770852262582
 20
3.620915259582901
 42
-0.0993905513083445
 10
2.005777058421892
 20
3.565234201183991
 42
-0.1007297757250654
 10
2.019053823869164
 20
3.5
 42
-0.100729775725069
 10
2.005777058421892
 20
3.434765798816009
 42
-0.0993905513083442
 10
1.96770852262582
 20
3.379084740417099
 42
-0.0975534324105872
 10
1.91104011366928
 20
3.342080417049246
 42
-0.0312624658283472
 10
1.889750000000007
 20
3.334990030703963
 42
-0.0962929789913506
  0
ARC
  5
C0
330
2
100
AcDbEntity
  8
0
100
AcDbCircle
 10
1.895738878756845
 20
3.283346089879949
 30
0.0
 40
0.0519900307039585
100
AcDbArc
 50
96.61474729582088
 51
180.3814122753961
  0
POINT
  5
C1
330
2
100
AcDbEntity
  8
0
100
AcDbPoint
 10
1.84375
 20
3.250000000000004
 30
0.0
  0
ARC
  5
C2
330
2
100
AcDbEntity
  8
0
100
AcDbCircle
 10
1.895738878756845
 20
3.716653910120058
 30
0.0
 40
0.0519900307039585
100
AcDbArc
 50
179.6185877246033
 51
263.3852527041792
  0
ARC
  5
C3
330
2
100
AcDbEntity
  8
0
100
AcDbCircle
 10
1.896386839002005
 20
3.716776465431934
 30
0.0
 40
0.0986370922929614
100
AcDbArc
 50
237.7481766114843
 51
266.1419140549471
  0
ARC
  5
C4
330
2
100
AcDbEntity
  8
0
100
AcDbCircle
 10
1.896386839002005
 20
3.283223534568073
 30
0.0
 40
0.0986370922929614
100
AcDbArc
 50
93.85808594505291
 51
122.2518233885153
  0
LWPOLYLINE
  5
C5
330
2
100
AcDbEntity
  8
0
100
AcDbPolyline
 90
        9
 70
     0
 43
0.0
 10
1.889750000000007
 20
3.618362907707038
 42
-0.0153261494161413
 10
1.899225809788128
 20
3.615251710069288
 42
-0.0930716558460877
 10
1.944708522625817
 20
3.588388347648319
 42
-0.1028033143861014
 10
1.97597202811167
 20
3.54698899610986
 42
-0.1109302324921724
 10
1.986526911934583
 20
3.5
 42
-0.1109302324921716
 10
1.97597202811167
 20
3.453011003890147
 42
-0.1028033143861016
 10
1.944708522625817
 20
3.411611652351681
 42
-0.09307165584609
 10
1.899225809788128
 20
3.384748289930712
 42
-0.0153261494161413
 10
1.889750000000007
 20
3.381637092292962
 42
-0.0871927587990183
  0
CIRCLE
  5
C7
330
2
100
AcDbEntity
  8
0
100
AcDbCircle
 10
2.593250000000001
 20
2.75
 30
0.0
 40
0.0855
  0
LINE
  5
C8
330
2
100
AcDbEntity
  8
0
100
AcDbLine
 10
2.905250000000002
 20
2.5
 30
0.0
 11
2.905250000000002
 21
3.125
 31
0.0
  0
ARC
  5
C9
330
2
100
AcDbEntity
  8
0
100
AcDbCircle
 10
2.717750000000002
 20
2.5
 30
0.0
 40
0.1875
100
AcDbArc
 50
329.7973413166037
 51
0.0000000000000254
  0
ARC
  5
CA
330
2
100
AcDbEntity
  8
0
100
AcDbCircle
 10
2.780750000000001
 20
3.494800000000002
 30
0.0
 40
0.1875
100
AcDbArc
 50
180.0000000000001
 51
250.3666411024315
  0
ARC
  5
CB
330
2
100
AcDbEntity
  8
0
100
AcDbCircle
 10
2.717750000000002
 20
3.125
 30
0.0
 40
0.1875
100
AcDbArc
 50
0.0000000000000254
 51
90.00000000000003
  0
ARC
  5
CD
330
2
100
AcDbEntity
  8
0
100
AcDbCircle
 10
-1.896386839002005
 20
4.114656465431931
 30
0.0
 40
0.0986370922929614
100
AcDbArc
 50
273.8580859450529
 51
302.2518233885157
  0
ARC
  5
CE
330
2
100
AcDbEntity
  8
0
100
AcDbCircle
 10
-1.895738878756845
 20
4.114533910120056
 30
0.0
 40
0.0519900307039585
100
AcDbArc
 50
276.6147472958209
 51
0.3814122753966671
  0
LWPOLYLINE
  5
CF
330
2
100
AcDbEntity
  8
0
100
AcDbPolyline
 90
        9
 70
     0
 43
0.0
 10
-1.889750000000007
 20
6.055862907707052
 42
0.0153261494161413
 10
-1.899225809788128
 20
6.052751710069302
 42
0.0930716558460877
 10
-1.944708522625817
 20
6.025888347648333
 42
0.1028033143861014
 10
-1.97597202811167
 20
5.984488996109874
 42
0.1109302324921724
 10
-1.986526911934583
 20
5.937500000000014
 42
0.1109302324921716
 10
-1.97597202811167
 20
5.890511003890161
 42
0.1028033143861016
 10
-1.944708522625817
 20
5.849111652351695
 42
0.09307165584609
 10
-1.899225809788128
 20
5.822248289930727
 42
0.0153261494161413
 10
-1.889750000000007
 20
5.819137092292976
 42
0.0871927587990183
  0
LWPOLYLINE
  5
D0
330
2
100
AcDbEntity
  8
0
100
AcDbPolyline
 90
        9
 70
     0
 43
0.0
 10
-1.889750000000007
 20
6.102509969296058
 42
0.031262465828346
 10
-1.91104011366928
 20
6.095419582950768
 42
0.0975534324105893
 10
-1.96770852262582
 20
6.058415259582915
 42
0.0993905513083445
 10
-2.005777058421892
 20
6.002734201184005
 42
0.1007297757250654
 10
-2.019053823869164
 20
5.937500000000014
 42
0.100729775725069
 10
-2.005777058421892
 20
5.872265798816024
 42
0.0993905513083442
 10
-1.96770852262582
 20
5.816584740417113
 42
0.0975534324105872
 10
-1.91104011366928
 20
5.77958041704926
 42
0.0312624658283472
 10
-1.889750000000007
 20
5.772490030703978
 42
0.0962929789913506
  0
POINT
  5
D1
330
2
100
AcDbEntity
  8
0
100
AcDbPoint
 10
-1.84375
 20
5.687500000000018
 30
0.0
  0
ARC
  5
D2
330
2
100
AcDbEntity
  8
0
100
AcDbCircle
 10
-1.895738878756845
 20
5.720846089879963
 30
0.0
 40
0.0519900307039585
100
AcDbArc
 50
359.6185877246039
 51
83.38525270417914
  0
ARC
  5
D3
330
2
100
AcDbEntity
  8
0
100
AcDbCircle
 10
-1.896386839002005
 20
5.720723534568087
 30
0.0
 40
0.0986370922929614
100
AcDbArc
 50
57.74817661148475
 51
86.14191405494711
  0
ARC
  5
D4
330
2
100
AcDbEntity
  8
0
100
AcDbCircle
 10
-1.896386839002005
 20
6.154276465431948
 30
0.0
 40
0.0986370922929614
100
AcDbArc
 50
273.8580859450529
 51
302.2518233885157
  0
ARC
  5
D5
330
2
100
AcDbEntity
  8
0
100
AcDbCircle
 10
-1.895738878756845
 20
6.154153910120073
 30
0.0
 40
0.0519900307039585
100
AcDbArc
 50
276.6147472958209
 51
0.3814122753966671
  0
ARC
  5
D6
330
2
100
AcDbEntity
  8
0
100
AcDbCircle
 10
1.895738878756847
 20
5.220846089879956
 30
0.0
 40
0.0519900307039585
100
AcDbArc
 50
96.61474729582088
 51
180.3814122753961
  0
POINT
  5
D7
330
2
100
AcDbEntity
  8
0
100
AcDbPoint
 10
1.843750000000002
 20
5.187500000000011
 30
0.0
  0
LWPOLYLINE
  5
D8
330
2
100
AcDbEntity
  8
0
100
AcDbPolyline
 90
        9
 70
     0
 43
0.0
 10
1.889750000000008
 20
5.555862907707045
 42
-0.0153261494161413
 10
1.899225809788129
 20
5.552751710069295
 42
-0.0930716558460877
 10
1.944708522625819
 20
5.525888347648326
 42
-0.1028033143861014
 10
1.975972028111672
 20
5.484488996109867
 42
-0.1109302324921724
 10
1.986526911934584
 20
5.437500000000007
 42
-0.1109302324921716
 10
1.975972028111672
 20
5.390511003890154
 42
-0.1028033143861016
 10
1.944708522625819
 20
5.349111652351688
 42
-0.09307165584609
 10
1.899225809788129
 20
5.32224828993072
 42
-0.0153261494161413
 10
1.889750000000008
 20
5.319137092292969
 42
-0.0871927587990183
  0
ARC
  5
D9
330
2
100
AcDbEntity
  8
0
100
AcDbCircle
 10
1.896386839002007
 20
5.22072353456808
 30
0.0
 40
0.0986370922929614
100
AcDbArc
 50
93.85808594505291
 51
122.2518233885153
  0
ARC
  5
DA
330
2
100
AcDbEntity
  8
0
100
AcDbCircle
 10
1.896386839002007
 20
5.654276465431941
 30
0.0
 40
0.0986370922929614
100
AcDbArc
 50
237.7481766114843
 51
266.1419140549471
  0
ARC
  5
DB
330
2
100
AcDbEntity
  8
0
100
AcDbCircle
 10
1.895738878756847
 20
5.654153910120066
 30
0.0
 40
0.0519900307039585
100
AcDbArc
 50
179.6185877246033
 51
263.3852527041792
  0
LWPOLYLINE
  5
DC
330
2
100
AcDbEntity
  8
0
100
AcDbPolyline
 90
        9
 70
     0
 43
0.0
 10
1.889750000000008
 20
5.602509969296051
 42
-0.031262465828346
 10
1.911040113669282
 20
5.595419582950761
 42
-0.0975534324105893
 10
1.967708522625822
 20
5.558415259582908
 42
-0.0993905513083445
 10
2.005777058421893
 20
5.502734201183998
 42
-0.1007297757250654
 10
2.019053823869166
 20
5.437500000000007
 42
-0.100729775725069
 10
2.005777058421893
 20
5.372265798816017
 42
-0.0993905513083442
 10
1.967708522625822
 20
5.316584740417106
 42
-0.0975534324105872
 10
1.911040113669282
 20
5.279580417049253
 42
-0.0312624658283472
 10
1.889750000000008
 20
5.27249003070397
 42
-0.0962929789913506
  0
CIRCLE
  5
DE
330
2
100
AcDbEntity
  8
0
100
AcDbCircle
 10
2.593250000000001
 20
6.5
 30
0.0
 40
0.0855
  0
ARC
  5
DF
330
2
100
AcDbEntity
  8
0
100
AcDbCircle
 10
2.717750000000002
 20
6.5
 30
0.0
 40
0.1875
100
AcDbArc
 50
289.6333588975897
 51
0.0000000000000254
  0
ARC
  5
E0
330
2
100
AcDbEntity
  8
0
100
AcDbCircle
 10
2.717750000000002
 20
5.125
 30
0.0
 40
0.1875
100
AcDbArc
 50
0.0000000000000254
 51
90.00000000000003
  0
LINE
  5
E1
330
2
100
AcDbEntity
  8
0
100
AcDbLine
 10
2.905250000000002
 20
4.5
 30
0.0
 11
2.905250000000002
 21
5.125
 31
0.0
  0
ARC
  5
E2
330
2
100
AcDbEntity
  8
0
100
AcDbCircle
 10
2.780750000000001
 20
4.130199999999999
 30
0.0
 40
0.1875
100
AcDbArc
 50
90.00000000000003
 51
180.0000000000001
  0
CIRCLE
  5
E5
330
2
100
AcDbEntity
  8
0
100
AcDbCircle
 10
2.593250000000001
 20
4.5
 30
0.0
 40
0.0855
  0
ARC
  5
E6
330
2
100
AcDbEntity
  8
0
100
AcDbCircle
 10
2.717750000000002
 20
4.5
 30
0.0
 40
0.1875
100
AcDbArc
 50
289.6333588975897
 51
0.0000000000000254
  0
LINE
  5
E7
330
2
100
AcDbEntity
  8
0
100
AcDbLine
 10
2.593250000000001
 20
5.494799788214706
 30
0.0
 11
2.593250000000001
 21
6.130199999999999
 31
0.0
  0
ARC
  5
E8
330
2
100
AcDbEntity
  8
0
100
AcDbCircle
 10
2.780750000000001
 20
5.494800000000002
 30
0.0
 40
0.1875
100
AcDbArc
 50
180.0000000000001
 51
250.3666411024315
  0
ARC
  5
E9
330
2
100
AcDbEntity
  8
0
100
AcDbCircle
 10
2.780750000000001
 20
6.130199999999999
 30
0.0
 40
0.1875
100
AcDbArc
 50
90.00000000000003
 51
180.0000000000001
  0
LINE
  5
EA
330
2
100
AcDbEntity
  8
0
100
AcDbLine
 10
2.593250000000001
 20
7.494800000000002
 30
0.0
 11
2.593250000000001
 21
8.130200227943934
 31
0.0
  0
LINE
  5
EB
330
2
100
AcDbEntity
  8
0
100
AcDbLine
 10
2.905250000000002
 20
6.5
 30
0.0
 11
2.905250000000002
 21
7.125
 31
0.0
  0
ARC
  5
ED
330
2
100
AcDbEntity
  8
0
100
AcDbCircle
 10
2.706460462182122
 20
7.119660356708938
 30
0.0
 40
0.198861238395826
100
AcDbArc
 50
1.538639715920054
 51
86.74551543805441
  0
ARC
  5
EE
330
2
100
AcDbEntity
  8
0
100
AcDbCircle
 10
2.780750000000001
 20
7.494800000000002
 30
0.0
 40
0.1875
100
AcDbArc
 50
180.0000000000001
 51
250.3666411024315
  0
ARC
  5
EF
330
2
100
AcDbEntity
  8
0
100
AcDbCircle
 10
2.717750000000002
 20
8.5
 30
0.0
 40
0.1875
100
AcDbArc
 50
282.7464137083816
 51
0.0000000000000254
  0
ARC
  5
F0
330
2
100
AcDbEntity
  8
0
100
AcDbCircle
 10
2.781410788675807
 20
8.130285021508932
 30
0.0
 40
0.1881608078845258
100
AcDbArc
 50
96.8038271768056
 51
180.0258894179414
  0
CIRCLE
  5
F1
330
2
100
AcDbEntity
  8
0
100
AcDbCircle
 10
2.593250000000001
 20
8.5
 30
0.0
 40
0.0855
  0
LINE
  5
F2
330
2
100
AcDbEntity
  8
0
100
AcDbLine
 10
9.132962094764373
 20
4.067700000000002
 30
0.0
 11
9.132962094764373
 21
3.432300000000012
 31
0.0
  0
LWPOLYLINE
  5
F3
330
2
100
AcDbEntity
  8
0
100
AcDbPolyline
 90
        9
 70
     0
 43
0.0
 10
9.382462094764378
 20
1.641500000000034
 42
0.1432467981947568
 10
9.422030174537639
 20
1.653073485288258
 42
0.1071754848060475
 10
9.460753572138557
 20
1.691584740417125
 42
0.0783035184710328
 10
9.484199325271675
 20
1.744323962928175
 42
0.0656020556757086
 10
9.493182963885175
 20
1.812500000000026
 42
0.0656020556757101
 10
9.484199325271675
 20
1.880676037071877
 42
0.0783035184710357
 10
9.460753572138557
 20
1.933415259582927
 42
0.1071754848060445
 10
9.422030174537639
 20
1.971926514711794
 42
0.1432467981947535
 10
9.382462094764378
 20
1.983500000000033
 42
0.1432467981947515
  0
LINE
  5
F4
330
2
100
AcDbEntity
  8
0
100
AcDbLine
 10
9.382462094764378
 20
1.595500000000027
 30
0.0
 11
9.382462094764378
 21
2.029500000000025
 31
0.0
  0
LINE
  5
F5
330
2
100
AcDbEntity
  8
0
100
AcDbLine
 10
8.235068089228257
 20
0.6220996975063784
 30
0.0
 11
9.419509243420588
 21
2.343176240467251
 31
0.0
  0
LINE
  5
F6
330
2
100
AcDbEntity
  8
0
100
AcDbLine
 10
8.212462094764383
 20
-0.0625
 30
0.0
 11
10.21246209476438
 21
-0.0625
 31
0.0
  0
LINE
  5
F7
330
2
100
AcDbEntity
  8
0
  6
HIDDEN
100
AcDbLine
 10
8.212462094764383
 20
0.0
 30
0.0
 11
10.21246209476438
 21
0.0
 31
0.0
  0
LINE
  5
F8
330
2
100
AcDbEntity
  8
0
100
AcDbLine
 10
8.212462094764383
 20
-0.0625
 30
0.0
 11
8.212462094764383
 21
0.5504026429625029
 31
0.0
  0
ARC
  5
F9
330
2
100
AcDbEntity
  8
0
100
AcDbCircle
 10
8.337462094764376
 20
0.5504026429624993
 30
0.0
 40
0.125
100
AcDbArc
 50
145.0000000000001
 51
180.0
  0
LINE
  5
FA
330
2
100
AcDbEntity
  8
0
100
AcDbLine
 10
10.21246209476438
 20
-0.0625
 30
0.0
 11
10.21246209476438
 21
0.4704026429624904
 31
0.0
  0
LWPOLYLINE
  5
FB
330
2
100
AcDbEntity
  8
0
100
AcDbPolyline
 90
        9
 70
     0
 43
0.0
 10
9.382462094764378
 20
1.687500000000026
 42
0.147269582437036
 10
9.410221189921302
 20
1.695857398725974
 42
0.1071386913803464
 10
9.437753572138561
 20
1.724111652351707
 42
0.0765137470862007
 10
9.454289907898186
 20
1.762550457111172
 42
0.063469041210727
 10
9.460656051950593
 20
1.812500000000026
 42
0.0634690412107267
 10
9.454289907898186
 20
1.86244954288888
 42
0.0765137470862059
 10
9.437753572138561
 20
1.900888347648345
 42
0.1071386913803463
 10
9.410221189921302
 20
1.929142601274078
 42
0.1472695824370325
 10
9.382462094764378
 20
1.937500000000026
 42
0.1472695824370333
  0
LWPOLYLINE
  5
FC
330
2
100
AcDbEntity
  8
0
100
AcDbPolyline
 90
        2
 70
     0
 43
0.0
 10
9.382462094764378
 20
1.595500000000027
 42
0.0624962416743304
 10
9.493499745149393
 20
1.609433292043361
 42
0.0818514225363451
  0
LWPOLYLINE
  5
FD
330
2
100
AcDbEntity
  8
0
100
AcDbPolyline
 90
        3
 70
     0
 43
0.0
 10
9.683090846782491
 20
1.752599169897789
 42
0.1007643090488704
 10
9.695286405239884
 20
1.812500000000026
 42
0.1007643090488685
 10
9.683090846782491
 20
1.872400830102263
 42
0.1069100077216599
  0
LWPOLYLINE
  5
FE
330
2
100
AcDbEntity
  8
0
100
AcDbPolyline
 90
        3
 70
     0
 43
0.0
 10
9.556696779027092
 20
1.631898898125425
 42
0.0411134117556526
 10
9.60366228602161
 20
1.659057828482543
 42
0.0210139430678612
 10
9.619893812904792
 20
1.671358566893529
 42
0.135394011665182
  0
LINE
  5
FF
330
2
100
AcDbEntity
  8
0
100
AcDbLine
 10
10.23506808922826
 20
0.542099697506373
 30
0.0
 11
10.44496209476437
 21
0.8418594031398925
 31
0.0
  0
ARC
  5
100
330
2
100
AcDbEntity
  8
0
100
AcDbCircle
 10
10.33746209476438
 20
0.4704026429624939
 30
0.0
 40
0.125
100
AcDbArc
 50
144.9999999999999
 51
180.0
  0
LINE
  5
101
330
2
100
AcDbEntity
  8
0
100
AcDbLine
 10
9.444962094764378
 20
2.4375
 30
0.0
 11
9.444962094764378
 21
3.0625
 31
0.0
  0
LWPOLYLINE
  5
102
330
2
100
AcDbEntity
  8
0
100
AcDbPolyline
 90
        2
 70
     0
 43
0.0
 10
9.493499745149393
 20
2.015566707956691
 42
0.0624962416743307
 10
9.382462094764378
 20
2.029500000000039
 42
0.0700628980345371
  0
LWPOLYLINE
  5
103
330
2
100
AcDbEntity
  8
0
100
AcDbPolyline
 90
        3
 70
     0
 43
0.0
 10
9.619893812904792
 20
1.953641433106524
 42
0.0210139430678583
 10
9.603662286021617
 20
1.965942171517509
 42
0.0411134117556535
 10
9.556696779027092
 20
1.993101101874641
 42
0.0433120578453059
  0
ARC
  5
104
330
2
100
AcDbEntity
  8
0
100
AcDbCircle
 10
9.257462094764374
 20
2.437500000000004
 30
0.0
 40
0.1875
100
AcDbArc
 50
329.7973413166036
 51
0.0
  0
ARC
  5
105
330
2
100
AcDbEntity
  8
0
100
AcDbCircle
 10
10.38246209476437
 20
2.500530000000001
 30
0.0
 40
0.156
100
AcDbArc
 50
90.0
 51
270.0
  0
ARC
  5
106
330
2
100
AcDbEntity
  8
0
100
AcDbCircle
 10
9.32046209476437
 20
3.432300000000016
 30
0.0
 40
0.1875
100
AcDbArc
 50
180.0
 51
250.3666411024315
  0
ARC
  5
107
330
2
100
AcDbEntity
  8
0
100
AcDbCircle
 10
9.257462094764374
 20
3.062500000000004
 30
0.0
 40
0.1875
100
AcDbArc
 50
0.0
 51
90.0
  0
LWPOLYLINE
  5
108
330
2
100
AcDbEntity
  8
0
100
AcDbPolyline
 90
        2
 70
     0
 43
0.0
 10
9.493499745149393
 20
3.703066707956676
 42
0.0624962416743307
 10
9.382462094764378
 20
3.717000000000023
 42
0.0700628980345371
  0
LWPOLYLINE
  5
109
330
2
100
AcDbEntity
  8
0
100
AcDbPolyline
 90
        2
 70
     0
 43
0.0
 10
9.382462094764378
 20
3.283000000000012
 42
0.0624962416743304
 10
9.493499745149393
 20
3.296933292043345
 42
0.0818514225363451
  0
LINE
  5
10A
330
2
100
AcDbEntity
  8
0
100
AcDbLine
 10
9.382462094764378
 20
3.283000000000012
 30
0.0
 11
9.382462094764378
 21
3.717000000000009
 31
0.0
  0
LWPOLYLINE
  5
10B
330
2
100
AcDbEntity
  8
0
100
AcDbPolyline
 90
        9
 70
     0
 43
0.0
 10
9.382462094764378
 20
3.329000000000018
 42
0.1432467981947568
 10
9.422030174537639
 20
3.340573485288242
 42
0.1071754848060475
 10
9.460753572138557
 20
3.379084740417109
 42
0.0783035184710328
 10
9.484199325271675
 20
3.43182396292816
 42
0.0656020556757086
 10
9.493182963885175
 20
3.50000000000001
 42
0.0656020556757101
 10
9.484199325271675
 20
3.568176037071861
 42
0.0783035184710357
 10
9.460753572138557
 20
3.620915259582911
 42
0.1071754848060445
 10
9.422030174537639
 20
3.659426514711778
 42
0.1432467981947535
 10
9.382462094764378
 20
3.671000000000017
 42
0.1432467981947515
  0
LWPOLYLINE
  5
10C
330
2
100
AcDbEntity
  8
0
100
AcDbPolyline
 90
        9
 70
     0
 43
0.0
 10
9.382462094764378
 20
3.37500000000001
 42
0.147269582437036
 10
9.410221189921302
 20
3.383357398725959
 42
0.1071386913803464
 10
9.437753572138561
 20
3.411611652351691
 42
0.0765137470862007
 10
9.454289907898186
 20
3.450050457111157
 42
0.063469041210727
 10
9.460656051950593
 20
3.50000000000001
 42
0.0634690412107267
 10
9.454289907898186
 20
3.549949542888864
 42
0.0765137470862059
 10
9.437753572138561
 20
3.588388347648329
 42
0.1071386913803463
 10
9.410221189921302
 20
3.616642601274062
 42
0.1472695824370325
 10
9.382462094764378
 20
3.62500000000001
 42
0.1472695824370333
  0
LWPOLYLINE
  5
10D
330
2
100
AcDbEntity
  8
0
100
AcDbPolyline
 90
        3
 70
     0
 43
0.0
 10
9.619893812904792
 20
3.641141433106508
 42
0.0210139430678583
 10
9.603662286021617
 20
3.653442171517493
 42
0.0411134117556535
 10
9.556696779027092
 20
3.680601101874625
 42
0.0433120578453059
  0
LWPOLYLINE
  5
10E
330
2
100
AcDbEntity
  8
0
100
AcDbPolyline
 90
        3
 70
     0
 43
0.0
 10
9.556696779027092
 20
3.31939889812541
 42
0.0411134117556526
 10
9.60366228602161
 20
3.346557828482527
 42
0.0210139430678612
 10
9.619893812904792
 20
3.358858566893513
 42
0.135394011665182
  0
LWPOLYLINE
  5
10F
330
2
100
AcDbEntity
  8
0
100
AcDbPolyline
 90
        3
 70
     0
 43
0.0
 10
9.683090846782491
 20
3.440099169897774
 42
0.1007643090488704
 10
9.695286405239884
 20
3.50000000000001
 42
0.1007643090488685
 10
9.683090846782491
 20
3.559900830102247
 42
0.1069100077216599
  0
LINE
  5
110
330
2
100
AcDbEntity
  8
0
100
AcDbLine
 10
9.444962094764378
 20
6.4375
 30
0.0
 11
9.444962094764378
 21
7.0625
 31
0.0
  0
ARC
  5
111
330
2
100
AcDbEntity
  8
0
100
AcDbCircle
 10
9.257462094764374
 20
5.062500000000004
 30
0.0
 40
0.1875
100
AcDbArc
 50
0.0
 51
90.0
  0
LINE
  5
112
330
2
100
AcDbEntity
  8
0
100
AcDbLine
 10
9.444962094764378
 20
4.4375
 30
0.0
 11
9.444962094764378
 21
5.0625
 31
0.0
  0
ARC
  5
113
330
2
100
AcDbEntity
  8
0
100
AcDbCircle
 10
9.257462094764374
 20
4.437500000000004
 30
0.0
 40
0.1875
100
AcDbArc
 50
289.6333588975897
 51
0.0
  0
ARC
  5
114
330
2
100
AcDbEntity
  8
0
100
AcDbCircle
 10
9.32046209476437
 20
4.067700000000006
 30
0.0
 40
0.1875
100
AcDbArc
 50
90.0
 51
180.0
  0
LINE
  5
115
330
2
100
AcDbEntity
  8
0
100
AcDbLine
 10
9.132962094764373
 20
5.432299788214721
 30
0.0
 11
9.132962094764373
 21
6.067700000000002
 31
0.0
  0
LWPOLYLINE
  5
116
330
2
100
AcDbEntity
  8
0
100
AcDbPolyline
 90
        2
 70
     0
 43
0.0
 10
9.493499745149393
 20
5.648102012663985
 42
0.0624962416743307
 10
9.382462094764378
 20
5.662035304707333
 42
0.0700628980345371
  0
LWPOLYLINE
  5
117
330
2
100
AcDbEntity
  8
0
100
AcDbPolyline
 90
        2
 70
     0
 43
0.0
 10
9.382462094764378
 20
5.228035304707321
 42
0.0624962416743304
 10
9.493499745149393
 20
5.241968596750654
 42
0.0818514225363451
  0
ARC
  5
118
330
2
100
AcDbEntity
  8
0
100
AcDbCircle
 10
9.32046209476437
 20
5.432300000000016
 30
0.0
 40
0.1875
100
AcDbArc
 50
180.0
 51
250.3666411024315
  0
LINE
  5
119
330
2
100
AcDbEntity
  8
0
100
AcDbLine
 10
9.382462094764378
 20
5.228035304707321
 30
0.0
 11
9.382462094764378
 21
5.662035304707318
 31
0.0
  0
LWPOLYLINE
  5
11A
330
2
100
AcDbEntity
  8
0
100
AcDbPolyline
 90
        9
 70
     0
 43
0.0
 10
9.382462094764378
 20
5.32003530470732
 42
0.147269582437036
 10
9.410221189921302
 20
5.328392703433268
 42
0.1071386913803464
 10
9.437753572138561
 20
5.356646957059001
 42
0.0765137470862007
 10
9.454289907898186
 20
5.395085761818466
 42
0.063469041210727
 10
9.460656051950593
 20
5.44503530470732
 42
0.0634690412107267
 10
9.454289907898186
 20
5.494984847596173
 42
0.0765137470862059
 10
9.437753572138561
 20
5.533423652355639
 42
0.1071386913803463
 10
9.410221189921302
 20
5.561677905981371
 42
0.1472695824370325
 10
9.382462094764378
 20
5.57003530470732
 42
0.1472695824370333
  0
LWPOLYLINE
  5
11B
330
2
100
AcDbEntity
  8
0
100
AcDbPolyline
 90
        9
 70
     0
 43
0.0
 10
9.382462094764378
 20
5.274035304707327
 42
0.1432467981947568
 10
9.422030174537639
 20
5.285608789995552
 42
0.1071754848060475
 10
9.460753572138557
 20
5.324120045124419
 42
0.0783035184710328
 10
9.484199325271675
 20
5.376859267635469
 42
0.0656020556757086
 10
9.493182963885175
 20
5.44503530470732
 42
0.0656020556757101
 10
9.484199325271675
 20
5.51321134177917
 42
0.0783035184710357
 10
9.460753572138557
 20
5.565950564290221
 42
0.1071754848060445
 10
9.422030174537639
 20
5.604461819419088
 42
0.1432467981947535
 10
9.382462094764378
 20
5.616035304707326
 42
0.1432467981947515
  0
LWPOLYLINE
  5
11C
330
2
100
AcDbEntity
  8
0
100
AcDbPolyline
 90
        3
 70
     0
 43
0.0
 10
9.619893812904792
 20
5.586176737813817
 42
0.0210139430678583
 10
9.603662286021617
 20
5.598477476224803
 42
0.0411134117556535
 10
9.556696779027092
 20
5.625636406581934
 42
0.0433120578453059
  0
LWPOLYLINE
  5
11D
330
2
100
AcDbEntity
  8
0
100
AcDbPolyline
 90
        3
 70
     0
 43
0.0
 10
9.556696779027092
 20
5.264434202832719
 42
0.0411134117556526
 10
9.60366228602161
 20
5.291593133189837
 42
0.0210139430678612
 10
9.619893812904792
 20
5.303893871600822
 42
0.135394011665182
  0
LWPOLYLINE
  5
11E
330
2
100
AcDbEntity
  8
0
100
AcDbPolyline
 90
        3
 70
     0
 43
0.0
 10
9.683090846782491
 20
5.385134474605083
 42
0.1007643090488704
 10
9.695286405239884
 20
5.44503530470732
 42
0.1007643090488685
 10
9.683090846782491
 20
5.504936134809556
 42
0.1069100077216599
  0
ARC
  5
11F
330
2
100
AcDbEntity
  8
0
100
AcDbCircle
 10
9.257462094764374
 20
6.437500000000004
 30
0.0
 40
0.1875
100
AcDbArc
 50
289.6333588975897
 51
0.0
  0
ARC
  5
120
330
2
100
AcDbEntity
  8
0
100
AcDbCircle
 10
9.32046209476437
 20
6.067700000000006
 30
0.0
 40
0.1875
100
AcDbArc
 50
90.0
 51
180.0
  0
LINE
  5
121
330
2
100
AcDbEntity
  8
0
100
AcDbLine
 10
9.132962094764373
 20
7.432300000000012
 30
0.0
 11
9.132962094764373
 21
8.067700227943945
 31
0.0
  0
ARC
  5
122
330
2
100
AcDbEntity
  8
0
100
AcDbCircle
 10
9.246172556946494
 20
7.057160356708952
 30
0.0
 40
0.198861238395826
100
AcDbArc
 50
1.53863971592008
 51
86.74551543805441
  0
ARC
  5
123
330
2
100
AcDbEntity
  8
0
100
AcDbCircle
 10
9.32046209476437
 20
7.432300000000016
 30
0.0
 40
0.1875
100
AcDbArc
 50
180.0
 51
250.3666411024315
  0
ARC
  5
124
330
2
100
AcDbEntity
  8
0
100
AcDbCircle
 10
9.257462094764374
 20
8.437500000000004
 30
0.0
 40
0.1875
100
AcDbArc
 50
282.7464137083816
 51
0.0
  0
ARC
  5
125
330
2
100
AcDbEntity
  8
0
100
AcDbCircle
 10
9.321122883440179
 20
8.067785021508943
 30
0.0
 40
0.1881608078845258
100
AcDbArc
 50
96.80382717680557
 51
180.0258894179414
  0
LINE
  5
126
330
2
100
AcDbEntity
  8
0
100
AcDbLine
 10
2.21759
 20
9.6875
 30
0.0
 11
2.12384
 21
9.8125
 31
0.0
  0
LINE
  5
127
330
2
100
AcDbEntity
  8
0
100
AcDbLine
 10
2.21759
 20
9.3125
 30
0.0
 11
2.12384
 21
9.4375
 31
0.0
  0
LINE
  5
128
330
2
100
AcDbEntity
  8
0
100
AcDbLine
 10
2.311339999999998
 20
10.1875
 30
0.0
 11
2.12384
 21
10.1875
 31
0.0
  0
LINE
  5
129
330
2
100
AcDbEntity
  8
0
100
AcDbLine
 10
1.78125
 20
10.8125
 30
0.0
 11
2.90625
 21
10.8125
 31
0.0
  0
LINE
  5
12A
330
2
100
AcDbEntity
  8
0
100
AcDbLine
 10
-2.12384
 20
10.1875
 30
0.0
 11
-2.12384
 21
9.4375
 31
0.0
  0
LINE
  5
12B
330
2
100
AcDbEntity
  8
0
100
AcDbLine
 10
-2.31134
 20
9.4375
 30
0.0
 11
-2.31134
 21
10.1875
 31
0.0
  0
LINE
  5
12C
330
2
100
AcDbEntity
  8
0
100
AcDbLine
 10
-2.21759
 20
9.3125
 30
0.0
 11
-2.12384
 21
9.4375
 31
0.0
  0
LINE
  5
12D
330
2
100
AcDbEntity
  8
0
100
AcDbLine
 10
-2.21759
 20
9.3125
 30
0.0
 11
-2.31134
 21
9.4375
 31
0.0
  0
LINE
  5
12E
330
2
100
AcDbEntity
  8
0
100
AcDbLine
 10
-2.31134
 20
10.1875
 30
0.0
 11
-2.12384
 21
10.1875
 31
0.0
  0
LINE
  5
12F
330
2
100
AcDbEntity
  8
0
100
AcDbLine
 10
-2.21759
 20
9.6875
 30
0.0
 11
-2.31134
 21
9.8125
 31
0.0
  0
LINE
  5
130
330
2
100
AcDbEntity
  8
0
100
AcDbLine
 10
-2.21759
 20
9.6875
 30
0.0
 11
-2.12384
 21
9.8125
 31
0.0
  0
LINE
  5
131
330
2
100
AcDbEntity
  8
0
100
AcDbLine
 10
2.12384
 20
10.1875
 30
0.0
 11
2.12384
 21
9.4375
 31
0.0
  0
ARC
  5
132
330
2
100
AcDbEntity
  8
0
100
AcDbCircle
 10
2.780889070143438
 20
10.13021585931206
 30
0.0
 40
0.18763907079723
100
AcDbArc
 50
99.44964081816534
 51
180.0047833310951
  0
LINE
  5
133
330
2
100
AcDbEntity
  8
0
100
AcDbLine
 10
2.593250000000001
 20
9.494800000000002
 30
0.0
 11
2.593250000000001
 21
10.13023152105807
 31
0.0
  0
LINE
  5
134
330
2
100
AcDbEntity
  8
0
100
AcDbLine
 10
2.311339999999998
 20
9.4375
 30
0.0
 11
2.311339999999998
 21
10.1875
 31
0.0
  0
ARC
  5
135
330
2
100
AcDbEntity
  8
0
100
AcDbCircle
 10
2.717750000000002
 20
9.125
 30
0.0
 40
0.1875
100
AcDbArc
 50
0.0000000000000254
 51
90.00000000000003
  0
ARC
  5
136
330
2
100
AcDbEntity
  8
0
100
AcDbCircle
 10
2.780750000000001
 20
9.494800000000002
 30
0.0
 40
0.1875
100
AcDbArc
 50
180.0000000000001
 51
250.3666411024315
  0
LINE
  5
137
330
2
100
AcDbEntity
  8
0
100
AcDbLine
 10
2.21759
 20
9.3125
 30
0.0
 11
2.311339999999998
 21
9.4375
 31
0.0
  0
LINE
  5
138
330
2
100
AcDbEntity
  8
0
100
AcDbLine
 10
2.21759
 20
9.6875
 30
0.0
 11
2.311339999999998
 21
9.8125
 31
0.0
  0
CIRCLE
  5
13B
330
2
100
AcDbEntity
  8
0
100
AcDbCircle
 10
2.593250000000001
 20
10.5
 30
0.0
 40
0.0855
  0
ARC
  5
13C
330
2
100
AcDbEntity
  8
0
100
AcDbCircle
 10
2.717749999999999
 20
10.5
 30
0.0
 40
0.1875
100
AcDbArc
 50
279.92967376275
 51
0.0000000000000254
  0
LINE
  5
13D
330
2
100
AcDbEntity
  8
0
100
AcDbLine
 10
2.905250000000002
 20
10.5
 30
0.0
 11
2.905250000000002
 21
10.8125
 31
0.0
  0
LINE
  5
13E
330
2
100
AcDbEntity
  8
0
100
AcDbLine
 10
2.217590000000001
 20
16.65510278688223
 30
0.0
 11
2.123840000000001
 21
16.55864278688223
 31
0.0
  0
LINE
  5
13F
330
2
100
AcDbEntity
  8
0
100
AcDbLine
 10
1.87425
 20
16.75708278688223
 30
0.0
 11
2.90625
 21
16.75708278688223
 31
0.0
  0
LINE
  5
140
330
2
100
AcDbEntity
  8
0
100
AcDbLine
 10
2.90625
 20
16.69458278688223
 30
0.0
 11
1.905750000000001
 21
16.69458278688223
 31
0.0
  0
LINE
  5
141
330
2
100
AcDbEntity
  8
0
100
AcDbLine
 10
2.123840000000001
 20
16.44458278688223
 30
0.0
 11
2.311339999999998
 21
16.44458278688223
 31
0.0
  0
ARC
  5
142
330
2
100
AcDbEntity
  8
0
100
AcDbCircle
 10
1.0625
 20
16.52458278688223
 30
0.0
 40
0.125
100
AcDbArc
 50
180.0
 51
0.0
  0
LINE
  5
143
330
2
100
AcDbEntity
  8
0
100
AcDbLine
 10
2.123840000000001
 20
16.44458278688223
 30
0.0
 11
2.123840000000001
 21
16.69458278688223
 31
0.0
  0
ARC
  5
144
330
2
100
AcDbEntity
  8
0
100
AcDbCircle
 10
-1.0625
 20
16.52458278688223
 30
0.0
 40
0.125
100
AcDbArc
 50
180.0
 51
0.0
  0
LINE
  5
145
330
2
100
AcDbEntity
  8
0
100
AcDbLine
 10
-2.12384
 20
16.44458278688223
 30
0.0
 11
-2.12384
 21
16.69458278688223
 31
0.0
  0
LINE
  5
146
330
2
100
AcDbEntity
  8
0
100
AcDbLine
 10
-2.31134
 20
16.44458278688223
 30
0.0
 11
-2.31134
 21
16.69458278688223
 31
0.0
  0
LINE
  5
147
330
2
100
AcDbEntity
  8
0
100
AcDbLine
 10
1.84375
 20
14.52458278688224
 30
0.0
 11
1.84375
 21
16.63258278688223
 31
0.0
  0
LINE
  5
148
330
2
100
AcDbEntity
  8
0
100
AcDbLine
 10
-1.84375
 20
16.63258278688223
 30
0.0
 11
-1.84375
 21
14.52458278688224
 31
0.0
  0
LINE
  5
149
330
2
100
AcDbEntity
  8
0
100
AcDbLine
 10
-0.9375
 20
14.52458278688224
 30
0.0
 11
0.9375
 21
14.52458278688224
 31
0.0
  0
LINE
  5
14A
330
2
100
AcDbEntity
  8
0
100
AcDbLine
 10
-1.1875
 20
14.52458278688224
 30
0.0
 11
-1.84375
 21
14.52458278688224
 31
0.0
  0
ARC
  5
14B
330
2
100
AcDbEntity
  8
0
100
AcDbCircle
 10
-1.0625
 20
14.52458278688224
 30
0.0
 40
0.125
100
AcDbArc
 50
0.0
 51
180.0
  0
ARC
  5
14C
330
2
100
AcDbEntity
  8
0
100
AcDbCircle
 10
-1.908450000000002
 20
15.89990709735774
 30
0.0
 40
0.0647
100
AcDbArc
 50
314.9999999999998
 51
0.0000000000002176
  0
LINE
  5
14D
330
2
100
AcDbEntity
  8
0
100
AcDbLine
 10
-1.986526911934583
 20
15.66527674406845
 30
0.0
 11
-1.84375
 21
15.58708278688223
 31
0.0
  0
LINE
  5
14E
330
2
100
AcDbEntity
  8
0
100
AcDbLine
 10
-2.019053823869164
 20
15.69780365600303
 30
0.0
 11
-1.862700191257233
 21
15.85415728861497
 31
0.0
  0
LINE
  5
14F
330
2
100
AcDbEntity
  8
0
100
AcDbLine
 10
-1.986526911934583
 20
15.66527674406845
 30
0.0
 11
-2.019053823869164
 21
15.69780365600303
 31
0.0
  0
LINE
  5
150
330
2
100
AcDbEntity
  8
0
100
AcDbLine
 10
-2.31134
 20
16.44458278688223
 30
0.0
 11
-2.12384
 21
16.44458278688223
 31
0.0
  0
ARC
  5
151
330
2
100
AcDbEntity
  8
0
100
AcDbCircle
 10
1.0625
 20
14.52458278688224
 30
0.0
 40
0.125
100
AcDbArc
 50
0.0
 51
180.0
  0
LINE
  5
152
330
2
100
AcDbEntity
  8
0
100
AcDbLine
 10
1.84375
 20
14.52458278688224
 30
0.0
 11
1.1875
 21
14.52458278688224
 31
0.0
  0
ARC
  5
153
330
2
100
AcDbEntity
  8
0
100
AcDbCircle
 10
1.908450000000002
 20
15.89990709735774
 30
0.0
 40
0.0647
100
AcDbArc
 50
179.9999999999998
 51
225.0000000000001
  0
LINE
  5
154
330
2
100
AcDbEntity
  8
0
100
AcDbLine
 10
1.986526911934583
 20
15.66527674406845
 30
0.0
 11
1.84375
 21
15.58708278688223
 31
0.0
  0
LINE
  5
155
330
2
100
AcDbEntity
  8
0
100
AcDbLine
 10
2.019053823869164
 20
15.69780365600303
 30
0.0
 11
1.862700191257233
 21
15.85415728861497
 31
0.0
  0
LINE
  5
156
330
2
100
AcDbEntity
  8
0
100
AcDbLine
 10
1.986526911934583
 20
15.66527674406845
 30
0.0
 11
2.019053823869164
 21
15.69780365600303
 31
0.0
  0
LINE
  5
157
330
2
100
AcDbEntity
  8
0
100
AcDbLine
 10
0.9375
 20
16.52458278688223
 30
0.0
 11
-0.9375
 21
16.52458278688223
 31
0.0
  0
LINE
  5
158
330
2
100
AcDbEntity
  8
0
100
AcDbLine
 10
-1.1875
 20
16.52458278688223
 30
0.0
 11
-1.78125
 21
16.52458278688223
 31
0.0
  0
ARC
  5
159
330
2
100
AcDbEntity
  8
0
100
AcDbCircle
 10
-1.89076
 20
16.64757278688223
 30
0.0
 40
0.110749
100
AcDbArc
 50
8.573899999999989
 51
81.42610000000003
  0
LINE
  5
15A
330
2
100
AcDbEntity
  8
0
100
AcDbLine
 10
-1.78125
 20
14.52458278688223
 30
0.0
 11
-1.78125
 21
16.63208278688223
 31
0.0
  0
ARC
  5
15B
330
2
100
AcDbEntity
  8
0
100
AcDbCircle
 10
-1.905749999999999
 20
16.63258278688223
 30
0.0
 40
0.062
100
AcDbArc
 50
0.0
 51
90.00000000000003
  0
LINE
  5
15C
330
2
100
AcDbEntity
  8
0
100
AcDbLine
 10
-1.78125
 20
16.63208278688223
 30
0.0
 11
-1.78125
 21
16.66408278688223
 31
0.0
  0
LINE
  5
15D
330
2
100
AcDbEntity
  8
0
100
AcDbLine
 10
-2.21759
 20
16.65510278688223
 30
0.0
 11
-2.12384
 21
16.55903278688222
 31
0.0
  0
LINE
  5
15E
330
2
100
AcDbEntity
  8
0
100
AcDbLine
 10
-2.21759
 20
16.65510278688223
 30
0.0
 11
-2.31134
 21
16.55864278688223
 31
0.0
  0
LINE
  5
15F
330
2
100
AcDbEntity
  8
0
100
AcDbLine
 10
1.1875
 20
16.52458278688223
 30
0.0
 11
1.78125
 21
16.52458278688223
 31
0.0
  0
ARC
  5
160
330
2
100
AcDbEntity
  8
0
100
AcDbCircle
 10
1.89076
 20
16.64757278688223
 30
0.0
 40
0.110749
100
AcDbArc
 50
98.5739
 51
171.4261
  0
LINE
  5
161
330
2
100
AcDbEntity
  8
0
100
AcDbLine
 10
1.78125
 20
14.52458278688223
 30
0.0
 11
1.78125
 21
16.63208278688223
 31
0.0
  0
LINE
  5
162
330
2
100
AcDbEntity
  8
0
100
AcDbLine
 10
1.78125
 20
16.63208278688223
 30
0.0
 11
1.78125
 21
16.66408278688223
 31
0.0
  0
ARC
  5
163
330
2
100
AcDbEntity
  8
0
100
AcDbCircle
 10
1.905750000000001
 20
16.63258278688223
 30
0.0
 40
0.062
100
AcDbArc
 50
90.00000000000003
 51
180.0
  0
LINE
  5
164
330
2
100
AcDbEntity
  8
0
100
AcDbLine
 10
2.311339999999998
 20
16.44458278688223
 30
0.0
 11
2.311339999999998
 21
16.69458278688223
 31
0.0
  0
LINE
  5
165
330
2
100
AcDbEntity
  8
0
100
AcDbLine
 10
2.217590000000001
 20
16.65510278688223
 30
0.0
 11
2.311339999999998
 21
16.55903278688222
 31
0.0
  0
LINE
  5
166
330
2
100
AcDbEntity
  8
0
100
AcDbLine
 10
2.90625
 20
16.75708278688223
 30
0.0
 11
2.90625
 21
16.69458278688223
 31
0.0
  0
ARC
  5
167
330
2
100
AcDbEntity
  8
0
100
AcDbCircle
 10
9.32060116490781
 20
10.06771585931207
 30
0.0
 40
0.18763907079723
100
AcDbArc
 50
99.44964081816534
 51
180.0047833310951
  0
ARC
  5
168
330
2
100
AcDbEntity
  8
0
100
AcDbCircle
 10
9.257462094764367
 20
10.4375
 30
0.0
 40
0.1875
100
AcDbArc
 50
279.92967376275
 51
0.0
  0
LINE
  5
169
330
2
100
AcDbEntity
  8
0
100
AcDbLine
 10
10.38246209476438
 20
10.125
 30
0.0
 11
10.06996209476438
 21
9.875
 31
0.0
  0
LINE
  5
16A
330
2
100
AcDbEntity
  8
0
100
AcDbLine
 10
10.06996209476438
 20
9.875
 30
0.0
 11
10.38246209476438
 21
9.6875
 31
0.0
  0
LINE
  5
16B
330
2
100
AcDbEntity
  8
0
100
AcDbLine
 10
9.132962094764373
 20
9.432300000000005
 30
0.0
 11
9.132962094764373
 21
10.06773152105807
 31
0.0
  0
ARC
  5
16C
330
2
100
AcDbEntity
  8
0
100
AcDbCircle
 10
9.257462094764374
 20
9.062500000000004
 30
0.0
 40
0.1875
100
AcDbArc
 50
0.0
 51
90.0
  0
ARC
  5
16D
330
2
100
AcDbEntity
  8
0
100
AcDbCircle
 10
9.32046209476437
 20
9.432300000000009
 30
0.0
 40
0.1875
100
AcDbArc
 50
180.0
 51
250.3666411024315
  0
LINE
  5
16E
330
2
100
AcDbEntity
  8
0
100
AcDbLine
 10
10.38246209476438
 20
9.75
 30
0.0
 11
10.16105209476438
 21
9.879390000000001
 31
0.0
  0
LINE
  5
16F
330
2
100
AcDbEntity
  8
0
100
AcDbLine
 10
10.38246209476438
 20
9.6875
 30
0.0
 11
10.38246209476438
 21
9.75
 31
0.0
  0
LINE
  5
170
330
2
100
AcDbEntity
  8
0
100
AcDbLine
 10
10.16105209476438
 20
9.879390000000001
 30
0.0
 11
10.38246209476438
 21
10.0625
 31
0.0
  0
LINE
  5
171
330
2
100
AcDbEntity
  8
0
100
AcDbLine
 10
9.444962094764378
 20
10.75
 30
0.0
 11
10.44496209476438
 21
10.75
 31
0.0
  0
LINE
  5
172
330
2
100
AcDbEntity
  8
0
100
AcDbLine
 10
9.444962094764378
 20
10.4375
 30
0.0
 11
9.444962094764378
 21
10.75
 31
0.0
  0
ENDSEC
  0
SECTION
  2
OBJECTS
  0
DICTIONARY
  5
9
330
0
100
AcDbDictionary
281
     1
  3
ACAD_COLOR
350
68F
  3
ACAD_GROUP
350
24
  3
ACAD_LAYOUT
350
D
  3
ACAD_MATERIAL
350
68E
  3
ACAD_MLINESTYLE
350
25
  3
ACAD_PLOTSETTINGS
350
26
  3
ACAD_PLOTSTYLENAME
350
8
  3
ACAD_TABLESTYLE
350
690
  3
ACDBHEADERROUNDTRIPXREC
350
6A6
  3
AcDbVariableDictionary
350
173
  0
DICTIONARY
  5
68F
102
{ACAD_REACTORS
330
9
102
}
330
9
100
AcDbDictionary
281
     1
  0
DICTIONARY
  5
24
102
{ACAD_REACTORS
330
9
102
}
330
9
100
AcDbDictionary
281
     1
  0
DICTIONARY
  5
D
102
{ACAD_REACTORS
330
9
102
}
330
9
100
AcDbDictionary
281
     1
  3
Layout1
350
13
  3
Model
350
C
  0
DICTIONARY
  5
68E
102
{ACAD_REACTORS
330
9
102
}
330
9
100
AcDbDictionary
281
     1
  0
DICTIONARY
  5
25
102
{ACAD_REACTORS
330
9
102
}
330
9
100
AcDbDictionary
281
     1
  3
STANDARD
350
28
  0
DICTIONARY
  5
26
102
{ACAD_REACTORS
330
9
102
}
330
9
100
AcDbDictionary
281
     1
  0
ACDBDICTIONARYWDFLT
  5
8
102
{ACAD_REACTORS
330
9
102
}
330
9
100
AcDbDictionary
281
     1
  3
Normal
350
7
100
AcDbDictionaryWithDefault
340
7
  0
DICTIONARY
  5
690
102
{ACAD_REACTORS
330
9
102
}
330
9
100
AcDbDictionary
281
     1
  3
Standard
350
691
  0
DICTIONARY
  5
6A6
102
{ACAD_REACTORS
330
9
102
}
330
9
100
AcDbDictionary
281
     1
  3
COLORDICT
350
6A7
  3
MATERIALDICT
350
6A8
  0
DICTIONARY
  5
173
102
{ACAD_REACTORS
330
9
102
}
330
9
100
AcDbDictionary
281
     1
  3
CTABLESTYLE
350
69A
  3
HIDETEXT
350
6A5
  0
LAYOUT
  5
13
102
{ACAD_REACTORS
330
D
102
}
102
{ACAD_XDICTIONARY
360
6A9
102
}
330
D
100
AcDbPlotSettings
  1

  2
C:\ACAD2000\plotters\HP LaserJet 2100 Series PS.pc3
  4

  6

 40
0.0
 41
0.0
 42
0.0
 43
0.0
 44
0.0
 45
0.0
 46
0.0
 47
0.0
 48
0.0
 49
0.0
140
0.0
141
0.0
142
1.0
143
1.0
 70
   688
 72
     0
 73
     0
 74
     5
  7

 75
    16
147
1.0
148
0.0
149
0.0
100
AcDbLayout
  1
Layout1
 70
     0
 71
     1
 10
0.0
 20
0.0
 11
12.0
 21
9.0
 12
0.0
 22
0.0
 32
0.0
 14
1.000000000000000E+20
 24
1.000000000000000E+20
 34
1.000000000000000E+20
 15
-1.000000000000000E+20
 25
-1.000000000000000E+20
 35
-1.000000000000000E+20
146
0.0
 13
0.0
 23
0.0
 33
0.0
 16
1.0
 26
0.0
 36
0.0
 17
0.0
 27
1.0
 37
0.0
 76
     0
330
E
  0
LAYOUT
  5
C
102
{ACAD_REACTORS
330
D
102
}
102
{ACAD_XDICTIONARY
360
6AB
102
}
330
D
100
AcDbPlotSettings
  1

  2
HP LaserJet 2100 Series PS
  4
Letter
  6

 40
5.365749835968018
 41
5.408073902130127
 42
5.132904052734375
 43
5.090576171875
 44
215.8999938964844
 45
279.3999938964844
 46
0.0
 47
0.0
 48
0.0
 49
0.0
140
0.0
141
0.0
142
1.0
143
5.193734373688032
 70
 28336
 72
     0
 73
     1
 74
     2
  7

 75
     0
147
0.1925396887961961
148
0.0
149
0.0
100
AcDbLayout
  1
Model
 70
     1
 71
     0
 10
0.0
 20
0.0
 11
12.0
 21
9.0
 12
0.0
 22
0.0
 32
0.0
 14
0.0
 24
0.0
 34
0.0
 15
0.0
 25
0.0
 35
0.0
146
0.0
 13
0.0
 23
0.0
 33
0.0
 16
1.0
 26
0.0
 36
0.0
 17
0.0
 27
1.0
 37
0.0
 76
     0
330
2
  0
MLINESTYLE
  5
28
102
{ACAD_REACTORS
330
25
102
}
330
25
100
AcDbMlineStyle
  2
STANDARD
 70
     0
  3

 62
   256
 51
90.0
 52
90.0
 71
     2
 49
0.5
 62
   256
  6
BYLAYER
 49
-0.5
 62
   256
  6
BYLAYER
  0
ACDBPLACEHOLDER
  5
7
102
{ACAD_REACTORS
330
8
102
}
330
8
  0
ACAD_PROXY_OBJECT
  5
691
102
{ACAD_REACTORS
330
690
102
}
330
690
100
AcDbProxyObject
 90
      499
 91
      549
 95
   983063
 70
     0
 93
     1841
310
4214DD185B99185C9928B81E85EB51B8AE3F2E07A17AD46E2B8FC02B5E8DC0F42B1CFD028000000C1008070000C3001FDFF8000000C1003FBFF000000182007F7FE00000030400FEFFC00000060801FDFF8000000C1003FBFF00000018200000000000000681FA0B0000001820100E000186003FBFF000000182007F7FE000
310
00030400FEFFC00000060801FDFF8000000C1003FBFF000000182007F7FE000000304000AD7A3703D0AC73F4160000003040201C00030C007F7FE00000030400FEFFC00000060801FDFF8000000C1003FBFF000000182007F7FE00000030400FEFFC000000608000
340
16
340
16
340
16
 94
        0
  0
XRECORD
  5
6A7
102
{ACAD_REACTORS
330
6A6
102
}
330
6A6
100
AcDbXrecord
340
68F
  0
XRECORD
  5
6A8
102
{ACAD_REACTORS
330
6A6
102
}
330
6A6
100
AcDbXrecord
340
68E
  0
DICTIONARYVAR
  5
69A
102
{ACAD_REACTORS
330
173
102
}
330
173
100
DictionaryVariables
280
     0
  1
STANDARD
  0
DICTIONARYVAR
  5
6A5
102
{ACAD_REACTORS
330
173
102
}
330
173
100
DictionaryVariables
280
     0
  1
0
  0
DICTIONARY
  5
6A9
330
13
100
AcDbDictionary
280
     1
281
     1
  3
ACAD_XREC_ROUNDTRIP
360
6AA
  0
DICTIONARY
  5
6AB
330
C
100
AcDbDictionary
280
     1
281
     1
  3
ACAD_XREC_ROUNDTRIP
360
6AC
  0
XRECORD
  5
6AA
102
{ACAD_REACTORS
330
6A9
102
}
330
6A9
100
AcDbXrecord
102
SHADEPLOT
 70
     0
102
SHADEPLOTRESLEVEL
 70
     2
102
SHADEPLOTCUSTOMDPI
 70
   300
  0
XRECORD
  5
6AC
102
{ACAD_REACTORS
330
6AB
102
}
330
6AB
100
AcDbXrecord
102
SHADEPLOT
 70
     0
102
SHADEPLOTRESLEVEL
 70
     2
102
SHADEPLOTCUSTOMDPI
 70
   300
  0
ENDSEC
  0
EOF
